  0
SECTION
  2
HEADER
  9
$ACADVER
  1
AC1009
  9
$INSBASE
 10
16.998061700526279
 20
3.9266843296800209
 30
0.0
  9
$EXTMIN
 10
13.06013050494307
 20
2.7215492292385122
 30
-0.0000000349181948
  9
$EXTMAX
 10
17.01050978643368
 20
5.1317470435989199
 30
0.0000000814935746
  9
$LIMMIN
 10
0.0
 20
0.0
  9
$LIMMAX
 10
11.692913385800001
 20
8.2677165353999982
  9
$ORTHOMODE
 70
     1
  9
$REGENMODE
 70
     1
  9
$FILLMODE
 70
     1
  9
$QTEXTMODE
 70
     0
  9
$MIRRTEXT
 70
     0
  9
$DRAGMODE
 70
     2
  9
$LTSCALE
 40
0.6431102362
  9
$OSMODE
 70
  3071
  9
$ATTMODE
 70
     1
  9
$TEXTSIZE
 40
0.2
  9
$TRACEWID
 40
0.05
  9
$TEXTSTYLE
  7
STANDARD
  9
$CLAYER
  8
0
  9
$CELTYPE
  6
BYLAYER
  9
$CECOLOR
 62
   256
  9
$DIMSCALE
 40
1.0
  9
$DIMASZ
 40
0.1875
  9
$DIMEXO
 40
0.0625
  9
$DIMDLI
 40
0.4443307087
  9
$DIMRND
 40
0.0
  9
$DIMDLE
 40
0.0
  9
$DIMEXE
 40
0.125
  9
$DIMTP
 40
0.01
  9
$DIMTM
 40
0.01
  9
$DIMTXT
 40
0.15625
  9
$DIMCEN
 40
0.1052362205
  9
$DIMTSZ
 40
0.0
  9
$DIMTOL
 70
     1
  9
$DIMLIM
 70
     0
  9
$DIMTIH
 70
     1
  9
$DIMTOH
 70
     1
  9
$DIMSE1
 70
     0
  9
$DIMSE2
 70
     0
  9
$DIMTAD
 70
     0
  9
$DIMZIN
 70
     0
  9
$DIMBLK
  1

  9
$DIMASO
 70
     1
  9
$DIMSHO
 70
     1
  9
$DIMPOST
  1

  9
$DIMAPOST
  1

  9
$DIMALT
 70
     0
  9
$DIMALTD
 70
     2
  9
$DIMALTF
 40
25.399999999999999
  9
$DIMLFAC
 40
1.0
  9
$DIMTOFL
 70
     0
  9
$DIMTVP
 40
0.0
  9
$DIMTIX
 70
     0
  9
$DIMSOXD
 70
     0
  9
$DIMSAH
 70
     0
  9
$DIMBLK1
  1

  9
$DIMBLK2
  1

  9
$DIMSTYLE
  2
STANDARD
  9
$DIMCLRD
 70
     0
  9
$DIMCLRE
 70
     0
  9
$DIMCLRT
 70
     0
  9
$DIMTFAC
 40
1.0
  9
$DIMGAP
 40
0.09
  9
$LUNITS
 70
     2
  9
$LUPREC
 70
     4
  9
$SKETCHINC
 40
0.1
  9
$FILLETRAD
 40
0.0
  9
$AUNITS
 70
     0
  9
$AUPREC
 70
     0
  9
$MENU
  1
.
  9
$ELEVATION
 40
0.0
  9
$PELEVATION
 40
0.0
  9
$THICKNESS
 40
0.0
  9
$LIMCHECK
 70
     0
  9
$BLIPMODE
 70
     0
  9
$CHAMFERA
 40
0.0
  9
$CHAMFERB
 40
0.0
  9
$SKPOLY
 70
     0
  9
$TDCREATE
 40
2457968.5505856252
  9
$TDUPDATE
 40
2457970.7684354172
  9
$TDINDWG
 40
0.1751584954
  9
$TDUSRTIMER
 40
0.1751584954
  9
$USRTIMER
 70
     1
  9
$ANGBASE
 50
0.0
  9
$ANGDIR
 70
     0
  9
$PDMODE
 70
     3
  9
$PDSIZE
 40
0.3125
  9
$PLINEWID
 40
0.0
  9
$COORDS
 70
     1
  9
$SPLFRAME
 70
     0
  9
$SPLINETYPE
 70
     6
  9
$SPLINESEGS
 70
     8
  9
$ATTDIA
 70
     1
  9
$ATTREQ
 70
     1
  9
$HANDLING
 70
     1
  9
$HANDSEED
  5
101D
  9
$SURFTAB1
 70
     6
  9
$SURFTAB2
 70
     6
  9
$SURFTYPE
 70
     6
  9
$SURFU
 70
     6
  9
$SURFV
 70
     6
  9
$UCSNAME
  2

  9
$UCSORG
 10
0.0
 20
0.0
 30
0.0
  9
$UCSXDIR
 10
1.0
 20
0.0
 30
0.0
  9
$UCSYDIR
 10
0.0
 20
1.0
 30
0.0
  9
$PUCSNAME
  2

  9
$PUCSORG
 10
0.0
 20
0.0
 30
0.0
  9
$PUCSXDIR
 10
1.0
 20
0.0
 30
0.0
  9
$PUCSYDIR
 10
0.0
 20
1.0
 30
0.0
  9
$USERI1
 70
     0
  9
$USERI2
 70
     0
  9
$USERI3
 70
     0
  9
$USERI4
 70
     0
  9
$USERI5
 70
     0
  9
$USERR1
 40
0.0
  9
$USERR2
 40
0.0
  9
$USERR3
 40
0.0
  9
$USERR4
 40
0.0
  9
$USERR5
 40
0.0
  9
$WORLDVIEW
 70
     1
  9
$SHADEDGE
 70
     3
  9
$SHADEDIF
 70
    70
  9
$TILEMODE
 70
     1
  9
$MAXACTVP
 70
    64
  9
$PLIMCHECK
 70
     0
  9
$PEXTMIN
 10
1.0000000000000000E+020
 20
1.0000000000000000E+020
 30
1.0000000000000000E+020
  9
$PEXTMAX
 10
-1.0000000000000000E+020
 20
-1.0000000000000000E+020
 30
-1.0000000000000000E+020
  9
$PLIMMIN
 10
0.0
 20
0.0
  9
$PLIMMAX
 10
12.0
 20
9.0
  9
$UNITMODE
 70
     0
  9
$VISRETAIN
 70
     1
  9
$PLINEGEN
 70
     0
  9
$PSLTSCALE
 70
     1
  0
ENDSEC
  0
SECTION
  2
TABLES
  0
TABLE
  2
VPORT
 70
     1
  0
VPORT
  2
*ACTIVE
 70
     0
 10
0.0
 20
0.0
 11
1.0
 21
1.0
 12
0.3417960273357432
 22
-0.0043693151337747
 13
0.0
 23
0.0
 14
1.0
 24
1.0
 15
0.0
 25
0.0
 16
0.0
 26
0.0
 36
2.8213540399318968
 17
14.69352411835264
 27
3.9310174515524912
 37
0.0
 40
2.472336487501765
 41
2.0329087048832268
 42
50.0
 43
0.0
 44
0.0
 50
0.0
 51
0.0
 71
     0
 72
   100
 73
     1
 74
     1
 75
     0
 76
     0
 77
     0
 78
     0
  0
ENDTAB
  0
TABLE
  2
LTYPE
 70
     2
  0
LTYPE
  2
CONTINUOUS
 70
     0
  3
Solid line
 72
    65
 73
     0
 40
0.0
  0
LTYPE
  2
PHANTOM2
 70
     0
  3
___ _ _ ___ _ _ ___ _ _ ___ _ _
 72
    65
 73
     6
 40
1.25
 49
0.625
 49
-0.125
 49
0.125
 49
-0.125
 49
0.125
 49
-0.125
  0
ENDTAB
  0
TABLE
  2
LAYER
 70
     2
  0
LAYER
  2
0
 70
     0
 62
     7
  6
CONTINUOUS
  0
LAYER
  2
DEFPOINTS
 70
     0
 62
     7
  6
CONTINUOUS
  0
ENDTAB
  0
TABLE
  2
STYLE
 70
     1
  0
STYLE
  2
STANDARD
 70
     0
 40
0.0
 41
0.8
 50
0.0
 71
     0
 42
0.2
  3
txt
  4

  0
ENDTAB
  0
TABLE
  2
VIEW
 70
     0
  0
ENDTAB
  0
TABLE
  2
UCS
 70
     0
  0
ENDTAB
  0
TABLE
  2
APPID
 70
     6
  0
APPID
  2
ACAD
 70
     0
  0
APPID
  2
ACAD_NAV_VCDISPLAY
 70
     0
  0
APPID
  2
ACAD_EXEMPT_FROM_CAD_STANDARDS
 70
     0
  0
APPID
  2
ACAD_DSTYLE_DIMRADIAL_EXTENSION
 70
     0
  0
APPID
  2
ACAD_MLEADERVER
 70
     0
  0
APPID
  2
ACDBATTR
 70
     0
  0
ENDTAB
  0
TABLE
  2
DIMSTYLE
 70
     2
  0
DIMSTYLE
  2
STANDARD
 70
     0
  3

  4

  5

  6

  7

 40
1.0
 41
0.1875
 42
0.0625
 43
0.38
 44
0.125
 45
0.0
 46
0.0
 47
0.01
 48
0.01
140
0.15625
141
0.09
142
0.0
143
25.399999999999999
144
1.0
145
0.0
146
1.0
147
0.09
 71
     1
 72
     0
 73
     1
 74
     1
 75
     0
 76
     0
 77
     0
 78
     4
170
     0
171
     2
172
     0
173
     0
174
     0
175
     0
176
     0
177
     0
178
     0
  0
ENDTAB
  0
ENDSEC
  0
SECTION
  2
BLOCKS
  0
BLOCK
  8
0
  2
$MODEL_SPACE
 70
     0
 10
0.0
 20
0.0
 30
0.0
  3
$MODEL_SPACE
  1

  0
ENDBLK
  5
21
  8
0
  0
BLOCK
 67
     1
  8
0
  2
$PAPER_SPACE
 70
     0
 10
0.0
 20
0.0
 30
0.0
  3
$PAPER_SPACE
  1

  0
ENDBLK
  5
1D
 67
     1
  8
0
  0
ENDSEC
  0
SECTION
  2
ENTITIES
  0
LINE
  5
3D3
  8
0
 10
13.8820955662
 20
3.7296856572000001
 30
0.0
 11
13.88328509920521
 21
3.6258287588122591
 31
0.0
  0
ARC
  5
610
  8
0
 10
13.52684553072598
 20
3.926423550683436
 30
0.0
 40
0.466268586629788
 50
99.102928784707572
 51
319.85819071549508
  0
LINE
  5
C6A
  8
0
 10
13.90159437668412
 20
4.1598737048321537
 30
0.0
 11
13.90076636492523
 21
3.7047636763597929
 31
0.0
  0
LINE
  5
C70
  8
0
 10
16.647875590519739
 20
4.814710350234523
 30
0.0
 11
16.644646630624731
 21
3.0399384173621899
 31
0.0
  0
LINE
  5
C72
  8
0
 10
16.875298447479331
 20
2.8189411981997838
 30
0.0
 11
16.879330027458241
 21
5.0348668288428469
 31
0.0
  0
LINE
  5
C73
  8
0
 10
16.995869869399989
 20
2.7219619141000031
 30
0.0
 11
17.000253531652572
 21
5.1314067452600396
 31
0.0
  0
LINE
  5
C74
  8
0
 10
14.65562296156693
 20
4.4011602492941391
 30
0.0
 11
14.660576710317761
 21
4.4041240074316441
 31
0.0
  0
LINE
  5
C75
  8
0
 10
16.48242700820742
 20
4.7150537238428241
 30
0.0
 11
16.357372314350439
 21
4.7177435490274
 31
0.0
  0
LINE
  5
C7C
  8
0
 10
16.479561766484821
 20
3.1401964051022269
 30
0.0
 11
16.352102965420251
 21
3.1390784727849761
 31
0.0
  0
ARC
  5
C7D
  8
0
 10
16.508191850562021
 20
5.1933066909963674
 30
0.0
 40
0.4035427318685514
 50
290.25162191358311
 51
336.88223670086012
  0
ARC
  5
C7E
  8
0
 10
16.484614298374911
 20
4.8134546138254741
 30
0.0
 40
0.0984251969
 50
268.72661855713238
 51
328.5087338181321
  0
ARC
  5
C7F
  8
0
 10
14.63761780815247
 20
4.4312942429355866
 30
0.0
 40
0.0351034289141298
 50
284.3995256549415
 51
300.8584471961974
  0
ARC
  5
C81
  8
0
 10
14.63579760719464
 20
3.4306674807853881
 30
0.0
 40
0.0351026462704073
 50
58.932884017615727
 51
75.391690552831591
  0
ARC
  5
C83
  8
0
 10
16.488096327885181
 20
2.6361533535235928
 30
0.0
 40
0.4330708661
 50
29.260316763632389
 51
68.808338508132181
  0
ARC
  5
C84
  8
0
 10
16.481390988569821
 20
3.0417882076133469
 30
0.0
 40
0.0984251969
 50
31.282782413632152
 51
91.064897443832265
  0
ARC
  5
C85
  8
0
 10
16.815400368832361
 20
2.8154454621677552
 30
0.0
 40
0.06
 50
3.3400734722320049
 51
32.66497576993212
  0
ARC
  5
C86
  8
0
 10
16.972537524906102
 20
2.8187642849955128
 30
0.0
 40
0.0972392383613201
 50
179.89575795267069
 51
231.6246051535631
  0
ARC
  5
C87
  8
0
 10
16.663374323802639
 20
3.1535366855354319
 30
0.0
 40
0.1151316334788069
 50
211.78284514427409
 51
260.63848152936822
  0
ARC
  5
C88
  8
0
 10
16.987602012300691
 20
2.8688878909940141
 30
0.0
 40
0.147158418540275
 50
239.1636063073326
 51
273.22076640361382
  0
ARC
  5
C89
  8
0
 10
16.666189807138078
 20
4.7010446896751752
 30
0.0
 40
0.1151316330315427
 50
99.153034602012383
 51
148.0086712421907
  0
ARC
  5
C8A
  8
0
 10
16.97092825805716
 20
5.0372305503833941
 30
0.0
 40
0.0916287238325411
 50
125.6038974194848
 51
181.47820813988309
  0
ARC
  5
C8B
  8
0
 10
16.991434781908691
 20
4.9849541963785979
 30
0.0
 40
0.1467178224378876
 50
86.554052701423146
 51
120.2220457893698
  0
ARC
  5
C8C
  8
0
 10
16.355474115532051
 20
4.4625974231612391
 30
0.0
 40
0.255153186739388
 50
67.858962639937332
 51
89.573747106194233
  0
ARC
  5
C8D
  8
0
 10
16.430276492758288
 20
4.6550026947799337
 30
0.0
 40
0.0488508067470099
 50
323.22597784138492
 51
64.069197736818523
  0
ARC
  5
C8E
  8
0
 10
16.355060407991949
 20
4.6429672155794277
 30
0.0
 40
0.1156335304726562
 50
313.71748244594249
 51
351.44095565126599
  0
ARC
  5
C8F
  8
0
 10
14.61675505900407
 20
6.3476547953756848
 30
0.0
 40
2.5502687827737458
 50
312.9804686589107
 51
315.4857126794949
  0
ARC
  5
C90
  8
0
 10
16.186953649925449
 20
4.243679994716679
 30
0.0
 40
0.291768390782435
 50
357.11444207128528
 51
54.737516746198722
  0
ARC
  5
C91
  8
0
 10
16.01204570688672
 20
4.2384653791968629
 30
0.0
 40
0.4664025772175861
 50
318.24157897586178
 51
358.8361097972645
  0
ARC
  5
C92
  8
0
 10
16.089522143531749
 20
3.6490650740289792
 30
0.0
 40
0.3884028296835446
 50
313.92160147445207
 51
45.869898730378161
  0
ARC
  5
C93
  8
0
 10
16.19515734587554
 20
3.130116816348167
 30
0.0
 40
0.2898911332278693
 50
13.96614662927554
 51
55.597442160438931
  0
ARC
  5
C94
  8
0
 10
16.406926955214342
 20
3.2087392237307051
 30
0.0
 40
0.0700886158707458
 50
279.75690758528373
 51
352.9046148855482
  0
ARC
  5
C96
  8
0
 10
15.737047977492059
 20
6.2376559474904099
 30
0.0
 40
1.6416260176728319
 50
265.14631458931802
 51
292.2019251861588
  0
ARC
  5
C97
  8
0
 10
15.71546582979952
 20
1.5102131336443581
 30
0.0
 40
1.748859381284001
 50
68.652105661503313
 51
92.954037870797805
  0
ARC
  5
C98
  8
0
 10
15.3944674774385
 20
2.0128963296228508
 30
0.0
 40
2.597019911205352
 50
85.501765686638322
 51
97.641667438160511
  0
ARC
  5
C99
  8
0
 10
15.405370875909149
 20
3.3249423130975342
 30
0.0
 40
1.3112320479920541
 50
105.7648202290535
 51
124.60575404877569
  0
ARC
  5
C9A
  8
0
 10
15.424698535351659
 20
5.2053402354110814
 30
0.0
 40
1.9588940017790479
 50
255.57742018976981
 51
275.8788409286343
  0
ARC
  5
C9B
  8
0
 10
15.67669284481036
 20
5.0198513388186292
 30
0.0
 40
1.8646465497229729
 50
236.7389826546943
 51
246.64183216757439
  0
ARC
  5
C9C
  8
0
 10
14.54769896547905
 20
4.758903615889305
 30
0.0
 40
0.3748243991752461
 50
261.11309532165433
 51
285.25917574899489
  0
ARC
  5
C9D
  8
0
 10
14.49826006574717
 20
4.2875558487329171
 30
0.0
 40
0.1013771499402033
 50
94.790169985624445
 51
145.38344083095421
  0
ARC
  5
C9E
  8
0
 10
14.549192884545031
 20
3.0957070664226509
 30
0.0
 40
0.3810778118168467
 50
75.493215452821161
 51
91.314098207737175
  0
ARC
  5
C9F
  8
0
 10
14.51073960887741
 20
3.6378974082558351
 30
0.0
 40
0.163928239523214
 50
250.59155919199219
 51
280.44325220214603
  0
ARC
  5
CA0
  8
0
 10
14.04692581472286
 20
4.6600331571975424
 30
0.0
 40
0.4842590397388223
 50
289.70764836518339
 51
319.43995573603388
  0
ARC
  5
CA1
  8
0
 10
14.889640272037051
 20
4.073733236445495
 30
0.0
 40
0.7324224469556864
 50
221.89127922469419
 51
233.72229373093839
  0
ARC
  5
CA2
  8
0
 10
14.146729794203219
 20
4.594455467280337
 30
0.0
 40
0.3954474953353122
 50
252.3326054545075
 51
279.24017352750462
  0
ARC
  5
CA3
  8
0
 10
14.1339112695886
 20
3.3360233525442631
 30
0.0
 40
0.3292484399565358
 50
85.014871317578724
 51
110.56791173097631
  0
ARC
  5
CA4
  8
0
 10
13.99682767151676
 20
4.1177364166376442
 30
0.0
 40
0.1041390008645561
 50
73.330441806411116
 51
156.1323430962853
  0
ARC
  5
CA5
  8
0
 10
13.9960504987116
 20
3.7482280857818502
 30
0.0
 40
0.1057216723667096
 50
209.58527732768499
 51
284.59604435280329
  0
ARC
  5
CA6
  8
0
 10
15.797890577612939
 20
6.3375749932393344
 30
0.0
 40
1.937600176444743
 50
264.5891335115362
 51
286.72216506365021
  0
ARC
  5
CA7
  8
0
 10
15.60679885888467
 20
-6.8320897946714139
 30
0.0
 40
11.24070149186722
 50
89.957277592620684
 51
92.622039641277397
  0
ARC
  5
CA8
  8
0
 10
15.15782962602683
 20
3.4819611643665418
 30
0.0
 40
0.9172067774780508
 50
94.080212479307079
 51
117.3982121290487
  0
ARC
  5
CA9
  8
0
 10
15.77138653650146
 20
7.9951796916634761
 30
0.0
 40
3.8319671878523178
 50
267.9503384837555
 51
280.63148942219311
  0
ARC
  5
CAA
  8
0
 10
15.1957493106105
 20
-13.494705298345901
 30
0.0
 40
17.66581462826143
 50
88.577387700449847
 51
90.315710010408495
  0
ARC
  5
CAB
  8
0
 10
15.06691966932255
 20
2.9521588593778918
 30
0.0
 40
1.2190890159163039
 50
88.519920145339995
 51
106.10413972627541
  0
ARC
  5
CAC
  8
0
 10
15.78517565004149
 20
-13.93888149154823
 30
0.0
 40
17.875970112481319
 50
88.157382532847819
 51
90.547628679658061
  0
ARC
  5
CAD
  8
0
 10
16.363675972051471
 20
-412.42060110209269
 30
0.0
 40
416.35754754953302
 50
90.103120251311225
 51
90.174048207060906
  0
ARC
  5
CAE
  8
0
 10
15.165534395073809
 20
-25.984662305995752
 30
0.0
 40
29.919761936996728
 50
90.127598633356286
 51
90.950560176425782
  0
ARC
  5
CAF
  8
0
 10
7.3580107312408494
 20
23.23348528699346
 30
0.0
 40
20.323599685316239
 50
291.0489620850164
 51
291.2853959191691
  0
ARC
  5
CB0
  8
0
 10
14.634630270702299
 20
4.4363934038588537
 30
0.0
 40
0.3268331257656114
 50
275.49803894873918
 51
286.73927910712922
  0
ARC
  5
CB1
  8
0
 10
15.68171945609696
 20
-3.456727169210132
 30
0.0
 40
7.1495582225111747
 50
83.606037967316865
 51
90.386645183551437
  0
ARC
  5
CB2
  8
0
 10
15.25915321302983
 20
21.354619002004139
 30
0.0
 40
17.66591689403662
 50
269.47580792830411
 51
271.21412017455691
  0
ARC
  5
CB3
  8
0
 10
15.712961913196811
 20
0.8789380416488261
 30
0.0
 40
2.5727829105136522
 50
75.458325363156092
 51
92.216991627963594
  0
ARC
  5
CB4
  8
0
 10
15.471467379681011
 20
8.0188425388430709
 30
0.0
 40
4.5712524242244106
 50
265.22408144635062
 51
271.77971181261631
  0
ARC
  5
CB5
  8
0
 10
15.19313817567147
 20
4.510342859877813
 30
0.0
 40
1.0518644910338459
 50
244.6086628733199
 51
264.4205373607785
  0
ARC
  5
CB6
  8
0
 10
14.608038808905629
 20
3.3514807646997391
 30
0.0
 40
0.2479709230770628
 50
57.273218699059612
 51
78.7429226899973
  0
ARC
  5
CBE
  8
0
 10
10.035338549185809
 20
3.9378418569429141
 30
0.0
 40
4.6338427311809891
 50
354.13777602577949
 51
5.6903030599451601
  0
ARC
  5
CBF
  8
0
 10
10.04775451343974
 20
-65.532908588517586
 30
0.0
 40
69.406296526663311
 50
85.827657785740172
 51
86.18638507545819
  0
ARC
  5
CC0
  8
0
 10
13.920332904141841
 20
3.707255353561965
 30
0.0
 40
0.0197250030911983
 50
187.26735875376579
 51
214.682212886217
  0
ARC
  5
CC4
  8
0
 10
13.52686463478072
 20
5.0122928509940241
 30
0.0
 40
0.6298102890261597
 50
263.27193831351531
 51
276.86259694239862
  0
ARC
  5
CC5
  8
0
 10
14.09901739247357
 20
3.266114176018843
 30
0.0
 40
0.4021253059203776
 50
52.392241150776492
 51
82.503913109975883
  0
LINE
  5
CCB
  8
0
 10
13.8832574847
 20
4.226427780549999
 30
0.0
 11
13.8820955662
 21
3.7296856572000001
 31
0.0
  0
LINE
  5
CD0
  8
0
 10
13.8820955662
 20
3.7296856572000001
 30
0.0
 11
13.900811850759011
 21
3.7297646004216278
 31
0.0
  0
ARC
  5
CD1
  8
0
 10
13.602898069551321
 20
4.0612800764831647
 30
0.0
 40
0.3257156553564295
 50
30.667740202778301
 51
90.136891260746822
  0
LINE
  5
CD9
  8
0
 10
13.88267652545
 20
3.978056718875
 30
0.0
 11
13.90126652945743
 21
3.9771081023059192
 31
0.0
  0
ATTDEF
  5
D27
  8
DEFPOINTS
 10
16.998804848963871
 20
3.9266843376484859
 30
0.0
 40
0.001
  1
METAL
  3

  2
MATERIAL
 70
     0
1001
ACDBATTR
1070
     0
1070
     1
  0
ATTDEF
  5
D28
  8
DEFPOINTS
 10
16.998804848963871
 20
3.9283510043151511
 30
0.0
 40
0.001
  1
TISSUE HOLDER
  3

  2
PRODUCT
 70
     0
1001
ACDBATTR
1070
     0
1070
     1
  0
ATTDEF
  5
D29
  8
DEFPOINTS
 10
16.998804848963871
 20
3.9300176709818171
 30
0.0
 40
0.001
  1
KELSTON
  3

  2
TRADENAME
 70
     0
1001
ACDBATTR
1070
     0
1070
     1
  0
ATTDEF
  5
D2A
  8
DEFPOINTS
 10
16.998804848963871
 20
3.9316843376484818
 30
0.0
 40
0.001
  1
K-13504
  3

  2
MODELNUMBER
 70
     0
1001
ACDBATTR
1070
     0
1070
     1
  0
ENDSEC
  0
EOF
