  0
SECTION
  2
HEADER
  9
$ACADVER
  1
AC1009
  9
$INSBASE
 10
5.9184106334999997
 20
9.1656621573999981
 30
0.0
  9
$EXTMIN
 10
4.71285793525744
 20
5.4538377396854969
 30
0.0
  9
$EXTMAX
 10
17.307685493202289
 20
16.771959184027828
 30
0.0
  9
$LIMMIN
 10
0.0
 20
0.0
  9
$LIMMAX
 10
22.0
 20
17.0
  9
$ORTHOMODE
 70
     1
  9
$REGENMODE
 70
     1
  9
$FILLMODE
 70
     1
  9
$QTEXTMODE
 70
     0
  9
$MIRRTEXT
 70
     0
  9
$DRAGMODE
 70
     2
  9
$LTSCALE
 40
1.2099999999999991
  9
$OSMODE
 70
    39
  9
$ATTMODE
 70
     1
  9
$TEXTSIZE
 40
0.2
  9
$TRACEWID
 40
0.05
  9
$TEXTSTYLE
  7
STANDARD
  9
$CLAYER
  8
0
  9
$CELTYPE
  6
BYLAYER
  9
$CECOLOR
 62
   256
  9
$DIMSCALE
 40
1.0
  9
$DIMASZ
 40
0.1875
  9
$DIMEXO
 40
0.0625
  9
$DIMDLI
 40
0.8359999999999999
  9
$DIMRND
 40
0.0
  9
$DIMDLE
 40
0.0
  9
$DIMEXE
 40
0.125
  9
$DIMTP
 40
0.0
  9
$DIMTM
 40
0.0
  9
$DIMTXT
 40
1.0
  9
$DIMCEN
 40
0.198
  9
$DIMTSZ
 40
0.0
  9
$DIMTOL
 70
     0
  9
$DIMLIM
 70
     0
  9
$DIMTIH
 70
     1
  9
$DIMTOH
 70
     1
  9
$DIMSE1
 70
     0
  9
$DIMSE2
 70
     0
  9
$DIMTAD
 70
     0
  9
$DIMZIN
 70
     0
  9
$DIMBLK
  1

  9
$DIMASO
 70
     1
  9
$DIMSHO
 70
     1
  9
$DIMPOST
  1

  9
$DIMAPOST
  1

  9
$DIMALT
 70
     1
  9
$DIMALTD
 70
     2
  9
$DIMALTF
 40
25.399999999999999
  9
$DIMLFAC
 40
1.0
  9
$DIMTOFL
 70
     0
  9
$DIMTVP
 40
0.0
  9
$DIMTIX
 70
     0
  9
$DIMSOXD
 70
     0
  9
$DIMSAH
 70
     0
  9
$DIMBLK1
  1

  9
$DIMBLK2
  1

  9
$DIMSTYLE
  2
STANDARD
  9
$DIMCLRD
 70
     0
  9
$DIMCLRE
 70
     0
  9
$DIMCLRT
 70
     0
  9
$DIMTFAC
 40
1.0
  9
$DIMGAP
 40
0.09
  9
$LUNITS
 70
     2
  9
$LUPREC
 70
     4
  9
$SKETCHINC
 40
0.1
  9
$FILLETRAD
 40
0.0
  9
$AUNITS
 70
     0
  9
$AUPREC
 70
     0
  9
$MENU
  1
.
  9
$ELEVATION
 40
0.0
  9
$PELEVATION
 40
0.0
  9
$THICKNESS
 40
0.0
  9
$LIMCHECK
 70
     0
  9
$BLIPMODE
 70
     0
  9
$CHAMFERA
 40
0.0
  9
$CHAMFERB
 40
0.0
  9
$SKPOLY
 70
     0
  9
$TDCREATE
 40
2457968.7607333451
  9
$TDUPDATE
 40
2457968.819948229
  9
$TDINDWG
 40
0.058663912
  9
$TDUSRTIMER
 40
0.058663912
  9
$USRTIMER
 70
     1
  9
$ANGBASE
 50
0.0
  9
$ANGDIR
 70
     0
  9
$PDMODE
 70
     0
  9
$PDSIZE
 40
0.3125
  9
$PLINEWID
 40
0.0
  9
$COORDS
 70
     1
  9
$SPLFRAME
 70
     0
  9
$SPLINETYPE
 70
     6
  9
$SPLINESEGS
 70
     8
  9
$ATTDIA
 70
     0
  9
$ATTREQ
 70
     1
  9
$HANDLING
 70
     1
  9
$HANDSEED
  5
CC8
  9
$SURFTAB1
 70
     6
  9
$SURFTAB2
 70
     6
  9
$SURFTYPE
 70
     6
  9
$SURFU
 70
     6
  9
$SURFV
 70
     6
  9
$UCSNAME
  2

  9
$UCSORG
 10
0.0
 20
0.0
 30
0.0
  9
$UCSXDIR
 10
1.0
 20
0.0
 30
0.0
  9
$UCSYDIR
 10
0.0
 20
1.0
 30
0.0
  9
$PUCSNAME
  2

  9
$PUCSORG
 10
0.0
 20
0.0
 30
0.0
  9
$PUCSXDIR
 10
1.0
 20
0.0
 30
0.0
  9
$PUCSYDIR
 10
0.0
 20
1.0
 30
0.0
  9
$USERI1
 70
     0
  9
$USERI2
 70
     0
  9
$USERI3
 70
     0
  9
$USERI4
 70
     0
  9
$USERI5
 70
     0
  9
$USERR1
 40
0.0
  9
$USERR2
 40
0.0
  9
$USERR3
 40
0.0
  9
$USERR4
 40
0.0
  9
$USERR5
 40
0.0
  9
$WORLDVIEW
 70
     1
  9
$SHADEDGE
 70
     3
  9
$SHADEDIF
 70
    70
  9
$TILEMODE
 70
     1
  9
$MAXACTVP
 70
    48
  9
$PLIMCHECK
 70
     0
  9
$PEXTMIN
 10
1.0000000000000000E+020
 20
1.0000000000000000E+020
 30
1.0000000000000000E+020
  9
$PEXTMAX
 10
-1.0000000000000000E+020
 20
-1.0000000000000000E+020
 30
-1.0000000000000000E+020
  9
$PLIMMIN
 10
0.0
 20
0.0
  9
$PLIMMAX
 10
12.0
 20
9.0
  9
$UNITMODE
 70
     0
  9
$VISRETAIN
 70
     1
  9
$PLINEGEN
 70
     0
  9
$PSLTSCALE
 70
     1
  0
ENDSEC
  0
SECTION
  2
TABLES
  0
TABLE
  2
VPORT
 70
     1
  0
VPORT
  2
*ACTIVE
 70
     0
 10
0.0
 20
0.0
 11
1.0
 21
1.0
 12
7.0638186897270456
 22
8.6025012671458256
 13
0.0
 23
0.0
 14
1.0
 24
1.0
 15
0.0
 25
0.0
 16
0.0
 26
0.0
 36
1.0
 17
0.0
 27
0.0
 37
0.0
 40
7.1277062889490423
 41
1.9501018329938891
 42
50.0
 43
0.0
 44
0.0
 50
0.0
 51
0.0
 71
     0
 72
   100
 73
     1
 74
     1
 75
     0
 76
     0
 77
     0
 78
     0
  0
ENDTAB
  0
TABLE
  2
LTYPE
 70
     2
  0
LTYPE
  2
CONTINUOUS
 70
     0
  3
Solid line
 72
    65
 73
     0
 40
0.0
  0
LTYPE
  2
PHANTOM2
 70
     0
  3
___ _ _ ___ _ _ ___ _ _ ___ _ _
 72
    65
 73
     6
 40
1.25
 49
0.625
 49
-0.125
 49
0.125
 49
-0.125
 49
0.125
 49
-0.125
  0
ENDTAB
  0
TABLE
  2
LAYER
 70
     2
  0
LAYER
  2
0
 70
     0
 62
     7
  6
CONTINUOUS
  0
LAYER
  2
DEFPOINTS
 70
     0
 62
     7
  6
CONTINUOUS
  0
ENDTAB
  0
TABLE
  2
STYLE
 70
     1
  0
STYLE
  2
STANDARD
 70
     0
 40
0.0
 41
0.8
 50
0.0
 71
     0
 42
0.2
  3
txt
  4

  0
ENDTAB
  0
TABLE
  2
VIEW
 70
     1
  0
ENDTAB
  0
TABLE
  2
UCS
 70
     0
  0
ENDTAB
  0
TABLE
  2
APPID
 70
     7
  0
APPID
  2
ACAD
 70
     0
  0
APPID
  2
ACAD_MLEADERVER
 70
     0
  0
APPID
  2
ACAD_NAV_VCDISPLAY
 70
     0
  0
APPID
  2
ACAD_EXEMPT_FROM_CAD_STANDARDS
 70
     0
  0
APPID
  2
ACAD_DSTYLE_DIMJAG
 70
     0
  0
APPID
  2
ACAD_DSTYLE_DIMTALN
 70
     0
  0
APPID
  2
AcDbAttr
 70
     0
  0
ENDTAB
  0
TABLE
  2
DIMSTYLE
 70
     1
  0
DIMSTYLE
  2
STANDARD
 70
     0
  3

  4

  5

  6

  7

 40
1.0
 41
0.1875
 42
0.0625
 43
0.38
 44
0.125
 45
0.0
 46
0.0
 47
1.5
 48
1.5
140
0.15625
141
0.09
142
0.0
143
25.399999999999999
144
1.0
145
0.0
146
1.0
147
0.09
 71
     0
 72
     0
 73
     1
 74
     1
 75
     0
 76
     0
 77
     0
 78
     4
170
     0
171
     2
172
     0
173
     0
174
     0
175
     0
176
     0
177
     0
178
     0
  0
ENDTAB
  0
ENDSEC
  0
SECTION
  2
BLOCKS
  0
BLOCK
  8
0
  2
$MODEL_SPACE
 70
     0
 10
0.0
 20
0.0
 30
0.0
  3
$MODEL_SPACE
  1

  0
ENDBLK
  5
21
  8
0
  0
BLOCK
 67
     1
  8
0
  2
$PAPER_SPACE
 70
     0
 10
0.0
 20
0.0
 30
0.0
  3
$PAPER_SPACE
  1

  0
ENDBLK
  5
1D
 67
     1
  8
0
  0
ENDSEC
  0
SECTION
  2
ENTITIES
  0
LINE
  5
249
  8
0
 10
6.646070740399999
 20
9.4670688424999998
 30
0.0
 11
6.3394207915831551
 21
9.3400584108896805
 31
0.0
  0
LINE
  5
24A
  8
0
 10
5.188372095833758
 20
8.8632703571653515
 30
0.0
 11
5.4974004753807844
 21
8.9912659039974319
 31
0.0
  0
LINE
  5
25F
  8
0
 10
5.5961389859544637
 20
8.8433905098498986
 30
0.0
 11
5.3597962762999991
 21
8.6070478003000002
 31
0.0
  0
LINE
  5
260
  8
0
 10
6.240682281050101
 20
9.4879338049455342
 30
0.0
 11
6.4770249905999986
 21
9.7242765145999996
 31
0.0
  0
LINE
  5
26F
  8
0
 10
6.1583135974858587
 20
8.8363196353738331
 30
0.0
 11
6.2365582953000001
 21
8.8943676807000003
 31
0.0
  0
LINE
  5
297
  8
0
 10
5.6159616892781647
 20
8.4354858143914608
 30
0.0
 11
5.6788341789529966
 21
8.5872734317308641
 31
0.0
  0
LINE
  5
298
  8
0
 10
6.2206646598921473
 20
9.8953680530101895
 30
0.0
 11
6.0928066075936602
 21
9.5866724311423575
 31
0.0
  0
LINE
  5
2E8
  8
0
 10
5.7154687644999997
 20
6.5956507068999999
 30
0.0
 11
5.7153175896767223
 21
6.1558591509824812
 31
0.0
  0
LINE
  5
33E
  8
0
 10
5.9184106312000173
 20
9.6213424146000008
 30
0.0
 11
5.9184106334999997
 21
9.9556621574000008
 31
0.0
  0
LINE
  5
455
  8
0
 10
6.2208595777221554
 20
8.4354858143915941
 30
0.0
 11
6.1579904357992516
 21
8.5872653494884261
 31
0.0
  0
LINE
  5
456
  8
0
 10
5.6161566089718669
 20
9.8953680537819988
 30
0.0
 11
5.7440143799939172
 21
9.5866723154763651
 31
0.0
  0
LINE
  5
468
  8
0
 10
5.678508692480337
 20
8.8363188764573852
 30
0.0
 11
5.6002629716999994
 21
8.8943676807000003
 31
0.0
  0
LINE
  5
478
  8
0
 10
6.2406822810478184
 20
8.843390509852183
 30
0.0
 11
6.4770249905999986
 21
8.6070478003000002
 31
0.0
  0
LINE
  5
479
  8
0
 10
5.5961389860044868
 20
9.4879338050000772
 30
0.0
 11
5.3598757028882993
 21
9.7241970880117368
 31
0.0
  0
LINE
  5
491
  8
0
 10
5.4627303762999988
 20
9.1656621551000175
 30
0.0
 11
5.1284106334999997
 21
9.1656621573999981
 31
0.0
  0
LINE
  5
492
  8
0
 10
6.3740908906999989
 20
9.1656621596999823
 30
0.0
 11
6.7084106334999998
 21
9.1656621573999981
 31
0.0
  0
LINE
  5
493
  8
0
 10
6.3394209072642926
 20
8.9912661833593326
 30
0.0
 11
6.646070740399999
 21
8.8642554722999982
 31
0.0
  0
LINE
  5
494
  8
0
 10
5.1885669717784522
 20
9.4679732448756955
 30
0.0
 11
5.4974003597576431
 21
9.3400581314936595
 31
0.0
  0
ARC
  5
83F
  8
0
 10
5.8342265708000003
 20
6.8227220116999989
 30
0.0
 40
0.2562771585
 50
126.5541241366
 51
234.42101442399999
  0
ARC
  5
840
  8
0
 10
5.9164428302075436
 20
9.0058171748752116
 30
0.0
 40
0.5361997747948846
 50
89.571809963957023
 51
125.3917208707033
  0
ARC
  5
841
  8
0
 10
5.9181350410000002
 20
9.1656621573999981
 30
0.0
 40
0.4559558497
 50
301.75195185665262
 51
44.938261819499999
  0
ARC
  5
842
  8
0
 10
5.8022304460000003
 20
9.1666056851000004
 30
0.0
 40
0.3389755031
 50
125.3943524613
 51
233.4290813682
  0
ARC
  5
844
  8
0
 10
5.9184106334999997
 20
6.7091782561000004
 30
0.0
 40
0.3976247473
 50
53.445875863500007
 51
126.55412413649999
  0
ARC
  5
845
  8
0
 10
6.0034489897275849
 20
6.823147558714707
 30
0.0
 40
0.2554268838077225
 50
307.03944003929172
 51
53.542959219982059
  0
ARC
  5
846
  8
0
 10
5.9184106334999997
 20
9.1656621573999981
 30
0.0
 40
1.204499999999999
 50
281.43179752182698
 51
258.56842547612121
  0
ARC
  5
847
  8
0
 10
5.9184106334999997
 20
9.1656621573999981
 30
0.0
 40
1.107935694
 50
282.45079977958579
 51
257.5494328523713
  0
ARC
  5
849
  8
0
 10
5.9184106334999997
 20
9.1656621573999981
 30
0.0
 40
0.8873871627999999
 50
285.63725751123451
 51
254.36300577303871
  0
ARC
  5
84C
  8
0
 10
5.9204499885999988
 20
9.0059603991999992
 30
0.0
 40
0.536041577
 50
54.605647538699991
 51
90.0
  0
ARC
  5
84F
  8
0
 10
5.9186862260000002
 20
9.1656621573999981
 30
0.0
 40
0.4559558497
 50
135.04898033329999
 51
238.2481723254175
  0
ARC
  5
850
  8
0
 10
5.9184106334999997
 20
9.1653865649000004
 30
0.0
 40
0.4559558497
 50
45.000036160299992
 51
134.99996250410001
  0
ARC
  5
851
  8
0
 10
6.0345908210000001
 20
9.1666056851000004
 30
0.0
 40
0.3389755031
 50
306.5709186318
 51
54.605647538699991
  0
ARC
  5
9AE
  8
0
 10
5.9184106334999997
 20
9.1653865649000004
 30
0.0
 40
0.7900825712884897
 50
287.63324357050539
 51
252.3670394391722
  0
LINE
  5
9AF
  8
0
 10
5.6784692670999997
 20
8.8465588376999982
 30
0.0
 11
5.6810278312999989
 21
7.0285900547000004
 31
0.0
  0
LINE
  5
9B8
  8
0
 10
6.1583548289000003
 20
8.8465598548000006
 30
0.0
 11
6.1557999901000002
 21
7.028590026499999
 31
0.0
  0
ARC
  5
9B9
  8
0
 10
5.6797309800665197
 20
8.8455920260423202
 30
0.0
 40
0.00158954219551
 50
114.34174848144779
 51
142.53816963778959
  0
LINE
  5
9BA
  8
0
 10
5.679075805199993
 20
8.8470402629999985
 30
0.0
 11
5.6804398560999996
 21
8.8470033169000004
 31
0.0
  0
ARC
  5
9BB
  8
0
 10
5.692605945328391
 20
8.9406611617660676
 30
0.0
 40
0.0944447226268863
 50
262.59876129668498
 51
277.60452050692737
  0
ARC
  5
9BC
  8
0
 10
5.7187040569886891
 20
8.8155922569964442
 30
0.0
 40
0.0342689375071015
 50
65.094495381016188
 51
113.3817312759444
  0
ARC
  5
9BD
  8
0
 10
5.7877517880913008
 20
9.0072411855903951
 30
0.0
 40
0.169601482050846
 50
251.21443265341571
 51
265.21954394786951
  0
ARC
  5
9BE
  8
0
 10
5.9363761508344934
 20
21.531492877087089
 30
0.0
 40
12.694306626641319
 50
269.2653685948938
 51
270.52128911838628
  0
ARC
  5
9BF
  8
0
 10
6.0416679663975561
 20
9.0545002574978621
 30
0.0
 40
0.2170285317354876
 50
272.694352929405
 51
286.68651586932151
  0
ARC
  5
9C0
  8
0
 10
6.1184021088607574
 20
8.8153863966411663
 30
0.0
 40
0.0343922965612353
 50
66.911325326535135
 51
114.7847942333065
  0
ARC
  5
9C1
  8
0
 10
6.1444881079944098
 20
8.9991496878188322
 30
0.0
 40
0.1526466712525934
 50
265.26563773559423
 51
274.72583336714757
  0
ARC
  5
9C2
  8
0
 10
6.1574374981897897
 20
8.8458441282335727
 30
0.0
 40
0.0012355328922773
 50
43.525727584418881
 51
107.57905439567701
  0
LINE
  5
9C3
  8
0
 10
6.1583548289000003
 20
8.8465598548000006
 30
0.0
 11
6.158333340099996
 21
8.8466950153000035
 31
0.0
  0
LINE
  5
9C4
  8
0
 10
6.1039841144964857
 20
8.8466106683564778
 30
0.0
 11
6.1041175038999986
 21
7.0605071303999987
 31
0.0
  0
LINE
  5
9C5
  8
0
 10
5.7331351847000001
 20
8.8466743908000005
 30
0.0
 11
5.7331351847000001
 21
7.0609998696164906
 31
0.0
  0
ARC
  5
9CF
  8
0
 10
5.919015844209909
 20
7.4833044504532804
 30
0.0
 40
0.9251840648954862
 50
264.8067391283621
 51
276.19186605448061
  0
ARC
  5
9D0
  8
0
 10
5.9960314366514851
 20
6.8200452504552986
 30
0.0
 40
0.2575364580376744
 50
275.07310624080338
 51
308.77269925341648
  0
ARC
  5
9D1
  8
0
 10
5.849131476335665
 20
6.8406599592486979
 30
0.0
 40
0.279097212937951
 50
233.0575083130538
 51
267.20896997457282
  0
LINE
  5
9D2
  8
0
 10
5.6794938550490031
 20
6.6184286720015271
 30
0.0
 11
5.6702133632000002
 21
5.7762751073
 31
0.0
  0
LINE
  5
9D3
  8
0
 10
6.157309109599999
 20
6.6192604416999981
 30
0.0
 11
6.1667192660000003
 21
5.7810397206999999
 31
0.0
  0
ARC
  5
9D4
  8
0
 10
6.2544411948876268
 20
5.8919819994303531
 30
0.0
 40
0.5955755570915349
 50
191.20251650892061
 51
219.1527756241592
  0
ARC
  5
9D5
  8
0
 10
5.9184794975448147
 20
5.613028870162112
 30
0.0
 40
0.1580668919888824
 50
250.71971807127821
 51
303.30782931109451
  0
ARC
  5
9D6
  8
0
 10
5.7390831429376341
 20
5.7960717770805514
 30
0.0
 40
0.4125245460619143
 50
310.18678447045983
 51
333.29720955919879
  0
ARC
  5
9D7
  8
0
 10
5.6273143665971901
 20
5.8727851504401158
 30
0.0
 40
0.5471515963404965
 50
331.3797910235146
 51
350.34714424326489
  0
ARC
  5
9D8
  8
0
 10
5.9134074830411913
 20
5.6086219504165911
 30
0.0
 40
0.1522688793989933
 50
217.4929795670935
 51
251.97374587924389
  0
ARC
  5
9D9
  8
0
 10
5.6537701318307692
 20
6.5319166789674998
 30
0.0
 40
0.0946467563640271
 50
8.3176146931204542
 51
36.639873142551039
  0
ARC
  5
9DA
  8
0
 10
3.7390225179551648
 20
6.5926022558410171
 30
0.0
 40
2.0089485387953272
 50
356.4758340256958
 51
358.65959734418612
  0
ARC
  5
9DB
  8
0
 10
-3.9673846352783548
 20
7.1712361234682387
 30
0.0
 40
9.7369045414734998
 50
354.77240976743582
 51
355.86484305569871
  0
ARC
  5
9DC
  8
0
 10
-56.312022937851417
 20
12.84928510847182
 30
0.0
 40
62.387442037371002
 50
353.48189952523012
 51
353.95942633592932
  0
LINE
  5
9DD
  8
0
 10
6.1213527065007849
 20
6.5950572362368751
 30
0.0
 11
6.121503677323278
 21
6.1558591509824812
 31
0.0
  0
ARC
  5
9DE
  8
0
 10
6.1830511351692321
 20
6.5319166789674998
 30
0.0
 40
0.0946467563640271
 50
144.17477394990141
 51
171.6823853068795
  0
ARC
  5
9DF
  8
0
 10
8.0977987490448342
 20
6.5926022558410171
 30
0.0
 40
2.0089485387953272
 50
181.3404026558139
 51
183.5241659743042
  0
ARC
  5
9E0
  8
0
 10
15.804205902278349
 20
7.1712361234682387
 30
0.0
 40
9.7369045414734998
 50
184.13515694430129
 51
185.2275902325641
  0
ARC
  5
9E1
  8
0
 10
68.148844204851414
 20
12.84928510847182
 30
0.0
 40
62.387442037371002
 50
186.04057366407071
 51
186.5166619906004
  0
ATTDEF
  5
B4F
  8
DEFPOINTS
 10
5.9137324674910383
 20
9.1522671529552149
 30
0.0
 40
0.001
  1
METAL
  3

  2
MATERIAL
 70
     0
1001
AcDbAttr
1070
     0
1070
     1
  0
ATTDEF
  5
B50
  8
DEFPOINTS
 10
5.9137324674910383
 20
9.15393381962188
 30
0.0
 40
0.001
  1
ROBE HOOK
  3

  2
PRODUCT
 70
     0
1001
AcDbAttr
1070
     0
1070
     1
  0
ATTDEF
  5
B51
  8
DEFPOINTS
 10
5.9137324674910383
 20
9.1556004862885452
 30
0.0
 40
0.001
  1
KELSTON
  3

  2
TRADENAME
 70
     0
1001
AcDbAttr
1070
     0
1070
     1
  0
ATTDEF
  5
B52
  8
DEFPOINTS
 10
5.9137324674910383
 20
9.1572671529552103
 30
0.0
 40
0.001
  1
K-13505
  3

  2
MODELNUMBER
 70
     0
1001
AcDbAttr
1070
     0
1070
     1
  0
ENDSEC
  0
EOF
