  0
SECTION
  2
HEADER
  9
$ACADVER
  1
AC1009
  9
$INSBASE
 10
5.9184106334499971
 20
16.611731534699999
 30
0.0
  9
$EXTMIN
 10
4.7139106334499941
 20
5.4543542829999971
 30
0.0
  9
$EXTMAX
 10
17.307685493202289
 20
16.771959184027828
 30
0.0
  9
$LIMMIN
 10
0.0
 20
0.0
  9
$LIMMAX
 10
22.0
 20
17.0
  9
$ORTHOMODE
 70
     1
  9
$REGENMODE
 70
     1
  9
$FILLMODE
 70
     1
  9
$QTEXTMODE
 70
     0
  9
$MIRRTEXT
 70
     0
  9
$DRAGMODE
 70
     2
  9
$LTSCALE
 40
1.2099999999999991
  9
$OSMODE
 70
    39
  9
$ATTMODE
 70
     1
  9
$TEXTSIZE
 40
0.2
  9
$TRACEWID
 40
0.05
  9
$TEXTSTYLE
  7
STANDARD
  9
$CLAYER
  8
0
  9
$CELTYPE
  6
BYLAYER
  9
$CECOLOR
 62
   256
  9
$DIMSCALE
 40
1.0
  9
$DIMASZ
 40
0.1875
  9
$DIMEXO
 40
0.0625
  9
$DIMDLI
 40
0.8359999999999999
  9
$DIMRND
 40
0.0
  9
$DIMDLE
 40
0.0
  9
$DIMEXE
 40
0.125
  9
$DIMTP
 40
0.0
  9
$DIMTM
 40
0.0
  9
$DIMTXT
 40
1.0
  9
$DIMCEN
 40
0.198
  9
$DIMTSZ
 40
0.0
  9
$DIMTOL
 70
     0
  9
$DIMLIM
 70
     0
  9
$DIMTIH
 70
     1
  9
$DIMTOH
 70
     1
  9
$DIMSE1
 70
     0
  9
$DIMSE2
 70
     0
  9
$DIMTAD
 70
     0
  9
$DIMZIN
 70
     0
  9
$DIMBLK
  1

  9
$DIMASO
 70
     1
  9
$DIMSHO
 70
     1
  9
$DIMPOST
  1

  9
$DIMAPOST
  1

  9
$DIMALT
 70
     1
  9
$DIMALTD
 70
     2
  9
$DIMALTF
 40
25.399999999999999
  9
$DIMLFAC
 40
1.0
  9
$DIMTOFL
 70
     0
  9
$DIMTVP
 40
0.0
  9
$DIMTIX
 70
     0
  9
$DIMSOXD
 70
     0
  9
$DIMSAH
 70
     0
  9
$DIMBLK1
  1

  9
$DIMBLK2
  1

  9
$DIMSTYLE
  2
STANDARD
  9
$DIMCLRD
 70
     0
  9
$DIMCLRE
 70
     0
  9
$DIMCLRT
 70
     0
  9
$DIMTFAC
 40
1.0
  9
$DIMGAP
 40
0.09
  9
$LUNITS
 70
     2
  9
$LUPREC
 70
     4
  9
$SKETCHINC
 40
0.1
  9
$FILLETRAD
 40
0.0
  9
$AUNITS
 70
     0
  9
$AUPREC
 70
     0
  9
$MENU
  1
.
  9
$ELEVATION
 40
0.0
  9
$PELEVATION
 40
0.0
  9
$THICKNESS
 40
0.0
  9
$LIMCHECK
 70
     0
  9
$BLIPMODE
 70
     0
  9
$CHAMFERA
 40
0.0
  9
$CHAMFERB
 40
0.0
  9
$SKPOLY
 70
     0
  9
$TDCREATE
 40
2457968.7607333451
  9
$TDUPDATE
 40
2457968.8205482638
  9
$TDINDWG
 40
0.0595356366
  9
$TDUSRTIMER
 40
0.0595356366
  9
$USRTIMER
 70
     1
  9
$ANGBASE
 50
0.0
  9
$ANGDIR
 70
     0
  9
$PDMODE
 70
     0
  9
$PDSIZE
 40
0.3125
  9
$PLINEWID
 40
0.0
  9
$COORDS
 70
     1
  9
$SPLFRAME
 70
     0
  9
$SPLINETYPE
 70
     6
  9
$SPLINESEGS
 70
     8
  9
$ATTDIA
 70
     0
  9
$ATTREQ
 70
     1
  9
$HANDLING
 70
     1
  9
$HANDSEED
  5
D54
  9
$SURFTAB1
 70
     6
  9
$SURFTAB2
 70
     6
  9
$SURFTYPE
 70
     6
  9
$SURFU
 70
     6
  9
$SURFV
 70
     6
  9
$UCSNAME
  2

  9
$UCSORG
 10
0.0
 20
0.0
 30
0.0
  9
$UCSXDIR
 10
1.0
 20
0.0
 30
0.0
  9
$UCSYDIR
 10
0.0
 20
1.0
 30
0.0
  9
$PUCSNAME
  2

  9
$PUCSORG
 10
0.0
 20
0.0
 30
0.0
  9
$PUCSXDIR
 10
1.0
 20
0.0
 30
0.0
  9
$PUCSYDIR
 10
0.0
 20
1.0
 30
0.0
  9
$USERI1
 70
     0
  9
$USERI2
 70
     0
  9
$USERI3
 70
     0
  9
$USERI4
 70
     0
  9
$USERI5
 70
     0
  9
$USERR1
 40
0.0
  9
$USERR2
 40
0.0
  9
$USERR3
 40
0.0
  9
$USERR4
 40
0.0
  9
$USERR5
 40
0.0
  9
$WORLDVIEW
 70
     1
  9
$SHADEDGE
 70
     3
  9
$SHADEDIF
 70
    70
  9
$TILEMODE
 70
     1
  9
$MAXACTVP
 70
    48
  9
$PLIMCHECK
 70
     0
  9
$PEXTMIN
 10
1.0000000000000000E+020
 20
1.0000000000000000E+020
 30
1.0000000000000000E+020
  9
$PEXTMAX
 10
-1.0000000000000000E+020
 20
-1.0000000000000000E+020
 30
-1.0000000000000000E+020
  9
$PLIMMIN
 10
0.0
 20
0.0
  9
$PLIMMAX
 10
12.0
 20
9.0
  9
$UNITMODE
 70
     0
  9
$VISRETAIN
 70
     1
  9
$PLINEGEN
 70
     0
  9
$PSLTSCALE
 70
     1
  0
ENDSEC
  0
SECTION
  2
TABLES
  0
TABLE
  2
VPORT
 70
     1
  0
VPORT
  2
*ACTIVE
 70
     0
 10
0.0
 20
0.0
 11
1.0
 21
1.0
 12
7.8965894320659906
 22
14.25121513117041
 13
0.0
 23
0.0
 14
1.0
 24
1.0
 15
0.0
 25
0.0
 16
0.0
 26
0.0
 36
1.0
 17
0.0
 27
0.0
 37
0.0
 40
7.12896417268351
 41
1.9501018329938891
 42
50.0
 43
0.0
 44
0.0
 50
0.0
 51
0.0
 71
     0
 72
   100
 73
     1
 74
     1
 75
     0
 76
     0
 77
     0
 78
     0
  0
ENDTAB
  0
TABLE
  2
LTYPE
 70
     8
  0
LTYPE
  2
CONTINUOUS
 70
     0
  3
Solid line
 72
    65
 73
     0
 40
0.0
  0
LTYPE
  2
PHANTOM2
 70
     0
  3
___ _ _ ___ _ _ ___ _ _ ___ _ _
 72
    65
 73
     6
 40
1.25
 49
0.625
 49
-0.125
 49
0.125
 49
-0.125
 49
0.125
 49
-0.125
  0
ENDTAB
  0
TABLE
  2
LAYER
 70
    18
  0
LAYER
  2
0
 70
     0
 62
     7
  6
CONTINUOUS
  0
LAYER
  2
DEFPOINTS
 70
     0
 62
     7
  6
CONTINUOUS
  0
ENDTAB
  0
TABLE
  2
STYLE
 70
     2
  0
STYLE
  2
STANDARD
 70
     0
 40
0.0
 41
0.8
 50
0.0
 71
     0
 42
0.2
  3
txt
  4

  0
ENDTAB
  0
TABLE
  2
VIEW
 70
     3
  0
ENDTAB
  0
TABLE
  2
UCS
 70
     0
  0
ENDTAB
  0
TABLE
  2
APPID
 70
     7
  0
APPID
  2
ACAD
 70
     0
  0
APPID
  2
ACAD_MLEADERVER
 70
     0
  0
APPID
  2
ACAD_NAV_VCDISPLAY
 70
     0
  0
APPID
  2
ACAD_EXEMPT_FROM_CAD_STANDARDS
 70
     0
  0
APPID
  2
ACAD_DSTYLE_DIMJAG
 70
     0
  0
APPID
  2
ACAD_DSTYLE_DIMTALN
 70
     0
  0
APPID
  2
AcDbAttr
 70
     0
  0
ENDTAB
  0
TABLE
  2
DIMSTYLE
 70
     2
  0
DIMSTYLE
  2
STANDARD
 70
     0
  3

  4

  5

  6

  7

 40
1.0
 41
0.1875
 42
0.0625
 43
0.38
 44
0.125
 45
0.0
 46
0.0
 47
1.5
 48
1.5
140
0.15625
141
0.09
142
0.0
143
25.399999999999999
144
1.0
145
0.0
146
1.0
147
0.09
 71
     0
 72
     0
 73
     1
 74
     1
 75
     0
 76
     0
 77
     0
 78
     4
170
     0
171
     2
172
     0
173
     0
174
     0
175
     0
176
     0
177
     0
178
     0
  0
ENDTAB
  0
ENDSEC
  0
SECTION
  2
BLOCKS
  0
BLOCK
  8
0
  2
$MODEL_SPACE
 70
     0
 10
0.0
 20
0.0
 30
0.0
  3
$MODEL_SPACE
  1

  0
ENDBLK
  5
21
  8
0
  0
BLOCK
 67
     1
  8
0
  2
$PAPER_SPACE
 70
     0
 10
0.0
 20
0.0
 30
0.0
  3
$PAPER_SPACE
  1

  0
ENDBLK
  5
1D
 67
     1
  8
0
  0
ENDSEC
  0
SECTION
  2
ENTITIES
  0
ARC
  5
865
  8
0
 10
5.9184106334999997
 20
13.1486106284
 30
0.0
 40
0.4551556906
 50
127.27643490280001
 51
52.726162453299999
  0
CIRCLE
  5
868
  8
0
 10
5.9184106334999997
 20
11.6627060622
 30
0.0
 40
0.3404612212
  0
LINE
  5
ABA
  8
0
 10
5.9184106312499969
 20
14.2684334287
 30
0.0
 11
5.9184106334499944
 21
15.968731534699989
 31
0.0
  0
LINE
  5
ABB
  8
0
 10
5.1309806707499979
 20
16.094663365900001
 30
0.0
 11
5.1289261323863968
 21
15.99623728562535
 31
0.0
  0
LINE
  5
ABC
  8
0
 10
6.7529493196963601
 20
16.180694144699999
 30
0.0
 11
5.0838719467499942
 21
16.180694145
 31
0.0
  0
LINE
  5
ABD
  8
0
 10
5.0354647886223773
 20
16.245731534699999
 30
0.0
 11
6.8013570514515358
 21
16.245731534699999
 31
0.0
  0
LINE
  5
ABE
  8
0
 10
7.029722393848826
 20
16.490996738500002
 30
0.0
 11
4.8070988730511699
 21
16.490996738500002
 31
0.0
  0
LINE
  5
ABF
  8
0
 10
7.1229106334499974
 20
16.611731534699999
 30
0.0
 11
4.7139106334499976
 21
16.611731534699999
 31
0.0
  0
ARC
  5
AC0
  8
0
 10
4.82515025261847
 20
16.596391662941649
 30
0.0
 40
0.1122923173610295
 50
172.14846790637171
 51
234.34645519629171
  0
ARC
  5
AC1
  8
0
 10
4.8550399962524926
 20
16.73805151022944
 30
0.0
 40
0.2516632899890081
 50
247.73744855514209
 51
263.25615096800652
  0
ARC
  5
AC2
  8
0
 10
4.685063653775245
 20
16.175245828339509
 30
0.0
 40
0.3429502554089777
 50
38.227255380643619
 51
65.829281714997251
  0
ARC
  5
AC3
  8
0
 10
5.1496812542634771
 20
16.28021020121755
 30
0.0
 40
0.1193076292635958
 50
195.5707497518259
 51
236.5236004928189
  0
ARC
  5
AC4
  8
0
 10
4.634121655720846
 20
16.110026533994791
 30
0.0
 40
0.4237836066646599
 50
19.026841965457251
 51
40.893269195990442
  0
ARC
  5
AC5
  8
0
 10
5.0325078835475869
 20
16.096654932903039
 30
0.0
 40
0.0984929244084965
 50
358.84137706514338
 51
58.567075453237322
  0
ARC
  5
AC6
  8
0
 10
3.7225880251529371
 20
15.392941811141201
 30
0.0
 40
1.5191678681946461
 50
1.6838314647163799
 51
22.27277714158701
  0
ARC
  5
AC7
  8
0
 10
-3.0195311401397289
 20
15.247726460296869
 30
0.0
 40
8.2628124821968161
 50
357.77680973998298
 51
1.3166023772937689
  0
ARC
  5
AC8
  8
0
 10
6.9636889397655208
 20
14.940630227004331
 30
0.0
 40
1.7266793227243811
 50
180.44587590011989
 51
188.5255508242426
  0
ARC
  5
AC9
  8
0
 10
6.3451822202572963
 20
14.95324240842683
 30
0.0
 40
1.1217240481157189
 50
193.85388836421211
 51
212.14471093323871
  0
ARC
  5
ACA
  8
0
 10
23.445146264705841
 20
25.12552329790244
 30
0.0
 40
21.018243847249309
 50
210.82178294212989
 51
211.10148486237989
  0
ARC
  5
ACB
  8
0
 10
5.3754118661273216
 20
14.232489006691541
 30
0.0
 40
0.0811771567489824
 50
3.3248292459720239
 51
26.282002010608551
  0
ARC
  5
ACC
  8
0
 10
4.6838482796516061
 20
14.124362156978441
 30
0.0
 40
0.7808001060629846
 50
357.75069021883371
 51
8.3090114542889708
  0
ARC
  5
ACD
  8
0
 10
5.5566488819810331
 20
14.108119779000219
 30
0.0
 40
0.0937153889102418
 50
188.84031706021361
 51
228.06192397558661
  0
ARC
  5
ACE
  8
0
 10
4.7344161516304828
 20
13.24837504833144
 30
0.0
 40
1.0959673519806661
 50
37.197398771577063
 51
46.125066699764673
  0
ARC
  5
ACF
  8
0
 10
5.3382576627718796
 20
13.751804787530981
 30
0.0
 40
0.3126914847674386
 50
352.33560335398101
 51
30.59544492925713
  0
ARC
  5
AD0
  8
0
 10
12.21270466445883
 20
12.27582739269041
 30
0.0
 40
6.7194080567764098
 50
167.67525255185279
 51
168.44985406093741
  0
ARC
  5
AD2
  8
0
 10
5.3174341581717144
 20
15.97894665703474
 30
0.0
 40
0.1892993439569615
 50
153.79423650025601
 51
183.09334313349771
  0
ARC
  5
AD3
  8
0
 10
5.1927375532582332
 20
16.03147191018887
 30
0.0
 40
0.0548029722867715
 50
66.86141116362576
 51
145.46465563700559
  0
ARC
  5
AD4
  8
0
 10
5.1415313117067143
 20
15.86264539529561
 30
0.0
 40
0.230974351062676
 50
44.326482203910011
 51
71.643235580266506
  0
ARC
  5
AD5
  8
0
 10
4.5595648353841609
 20
15.254473551668619
 30
0.0
 40
1.0726298640604159
 50
41.750961005366811
 51
45.844803505441227
  0
ARC
  5
AD6
  8
0
 10
5.616623051849281
 20
15.74888821121864
 30
0.0
 40
0.3380696371223752
 50
106.7965773548745
 51
139.43652552658591
  0
ARC
  5
AD7
  8
0
 10
5.6210845412261534
 20
15.68231339752329
 30
0.0
 40
0.4033711905983515
 50
65.555348334628775
 51
104.6701016093165
  0
ARC
  5
AD8
  8
0
 10
5.5330193405333432
 20
15.49233857673967
 30
0.0
 40
0.612761535224069
 50
51.027912476418038
 51
65.409769652076037
  0
ARC
  5
AD9
  8
0
 10
3.46700439051402
 20
15.425647348028191
 30
0.0
 40
1.9691626536477189
 50
3.1155081141709209
 51
16.009365466146221
  0
ARC
  5
ADA
  8
0
 10
-1.348583323769698
 20
15.19220090871875
 30
0.0
 40
6.7903808312127083
 50
357.76335485885738
 51
2.8740064097231639
  0
ARC
  5
ADB
  8
0
 10
6.9063441490727611
 20
14.8968767860404
 30
0.0
 40
1.4700324683777211
 50
178.81830247371971
 51
190.40269909725461
  0
ARC
  5
ADC
  8
0
 10
7.0559643284410853
 20
14.973259181954759
 30
0.0
 40
1.631694787242139
 50
192.0923147971437
 51
205.94321054194361
  0
LINE
  5
ADD
  8
0
 10
6.7058405961499972
 20
16.094663365900001
 30
0.0
 11
6.7078364748365678
 21
15.9968653075397
 31
0.0
  0
ARC
  5
ADE
  8
0
 10
7.0116710142815171
 20
16.596391662941649
 30
0.0
 40
0.1122923173610295
 50
305.65354480370831
 51
7.8515320936283244
  0
ARC
  5
ADF
  8
0
 10
6.9817812706475122
 20
16.738051510229361
 30
0.0
 40
0.2516632899889262
 50
276.74384903199262
 51
292.26255144486151
  0
ARC
  5
AE0
  8
0
 10
7.151757613124734
 20
16.175245828339509
 30
0.0
 40
0.3429502554089649
 50
114.1707182850008
 51
141.77274461935599
  0
ARC
  5
AE1
  8
0
 10
6.6871400126365179
 20
16.28021020121755
 30
0.0
 40
0.1193076292635958
 50
303.4763995071811
 51
344.42925024817401
  0
ARC
  5
AE2
  8
0
 10
7.2026996111791446
 20
16.110026533994791
 30
0.0
 40
0.4237836066646599
 50
139.10673080400949
 51
160.97315803454271
  0
ARC
  5
AE3
  8
0
 10
6.8043133833524037
 20
16.096654932903039
 30
0.0
 40
0.0984929244084965
 50
121.43292454676271
 51
181.15862293485651
  0
ARC
  5
AE4
  8
0
 10
8.1142332417470548
 20
15.392941811141201
 30
0.0
 40
1.5191678681946461
 50
157.72722285841311
 51
178.31616853528359
  0
ARC
  5
AE5
  8
0
 10
14.85635240703972
 20
15.247726460296869
 30
0.0
 40
8.2628124821968161
 50
178.6833976227062
 51
182.22319026001699
  0
ARC
  5
AE6
  8
0
 10
4.8731323271344698
 20
14.940630227004331
 30
0.0
 40
1.7266793227243811
 50
351.47444917575717
 51
359.55412409988003
  0
ARC
  5
AE7
  8
0
 10
5.4916390466426961
 20
14.95324240842683
 30
0.0
 40
1.1217240481157189
 50
327.8552890667612
 51
346.14611163578809
  0
ARC
  5
AE8
  8
0
 10
-11.60832499780585
 20
25.12552329790244
 30
0.0
 40
21.018243847249309
 50
328.89851513761988
 51
329.17821705786992
  0
ARC
  5
AE9
  8
0
 10
6.4614094007726663
 20
14.232489006691541
 30
0.0
 40
0.0811771567489824
 50
153.71799798939139
 51
176.67517075402799
  0
ARC
  5
AEA
  8
0
 10
7.1529729872483818
 20
14.124362156978441
 30
0.0
 40
0.7808001060629846
 50
171.69098854571101
 51
182.2493097811662
  0
ARC
  5
AEB
  8
0
 10
6.2801723849189548
 20
14.108119779000219
 30
0.0
 40
0.0937153889102418
 50
311.93807602441342
 51
351.15968293978642
  0
ARC
  5
AEC
  8
0
 10
7.1024051152695078
 20
13.24837504833144
 30
0.0
 40
1.0959673519806661
 50
133.87493330023531
 51
142.8026012284229
  0
ARC
  5
AED
  8
0
 10
6.4985636041281154
 20
13.751804787530981
 30
0.0
 40
0.3126914847674386
 50
149.40455507074299
 51
187.6643966460189
  0
ARC
  5
AEE
  8
0
 10
-0.3758833975588409
 20
12.27582739269041
 30
0.0
 40
6.7194080567764098
 50
11.55014593906245
 51
12.32474744814705
  0
ARC
  5
AF0
  8
0
 10
6.5193871087282771
 20
15.97894665703474
 30
0.0
 40
0.1892993439569615
 50
356.9066568665022
 51
26.205763499744108
  0
ARC
  5
AF1
  8
0
 10
6.6440837136417592
 20
16.03147191018887
 30
0.0
 40
0.0548029722867715
 50
34.535344362994252
 51
113.1385888363742
  0
ARC
  5
AF2
  8
0
 10
6.6952899551932736
 20
15.86264539529561
 30
0.0
 40
0.230974351062676
 50
108.35676441973339
 51
135.67351779609001
  0
ARC
  5
AF3
  8
0
 10
7.2772564315158297
 20
15.254473551668619
 30
0.0
 40
1.0726298640604159
 50
134.15519649455871
 51
138.2490389946332
  0
ARC
  5
AF4
  8
0
 10
6.2201982150507069
 20
15.74888821121864
 30
0.0
 40
0.3380696371223752
 50
40.563474473413997
 51
73.203422645125471
  0
ARC
  5
AF5
  8
0
 10
6.2157367256738381
 20
15.68231339752329
 30
0.0
 40
0.4033711905983515
 50
75.329898390683454
 51
114.4446516653712
  0
ARC
  5
AF6
  8
0
 10
6.3038019263666492
 20
15.49233857673967
 30
0.0
 40
0.612761535224069
 50
114.59023034792391
 51
128.97208752358191
  0
ARC
  5
AF7
  8
0
 10
8.3698168763859702
 20
15.425647348028191
 30
0.0
 40
1.9691626536477189
 50
163.99063453385369
 51
176.88449188582911
  0
ARC
  5
AF8
  8
0
 10
13.185404590669689
 20
15.19220090871875
 30
0.0
 40
6.7903808312127083
 50
177.12599359027669
 51
182.23664514114239
  0
ARC
  5
AF9
  8
0
 10
4.9304771178272304
 20
14.8968767860404
 30
0.0
 40
1.4700324683777211
 50
349.5973009027453
 51
1.1816975262801579
  0
ARC
  5
AFA
  8
0
 10
4.780856938458907
 20
14.973259181954759
 30
0.0
 40
1.631694787242139
 50
334.0567894580563
 51
347.90768520285633
  0
LINE
  5
AFB
  8
0
 10
5.4519897324111142
 20
14.25942524943752
 30
0.0
 11
6.3848315344888737
 21
14.25942524943753
 31
0.0
  0
ARC
  5
AFC
  8
0
 10
6.0362701880312217
 20
13.59438878432514
 30
0.0
 40
0.1732760132033578
 50
332.67367468721022
 51
8.9093193855122887
  0
ARC
  5
AFD
  8
0
 10
5.8005510786664276
 20
13.59438878443706
 30
0.0
 40
0.173276012986125
 50
171.09068064068089
 51
207.326325391561
  0
LINE
  5
AFE
  8
0
 10
5.646611631499999
 20
13.514845079500001
 30
0.0
 11
6.1902097079441489
 21
13.514845079500001
 31
0.0
  0
ARC
  5
AFF
  8
0
 10
6.182110337913004
 20
13.495160469629729
 30
0.0
 40
0.0196846098702719
 50
52.703228536438239
 51
89.999954922167788
  0
ARC
  5
B00
  8
0
 10
5.6547098946420942
 20
13.4951589604717
 30
0.0
 40
0.0196861190294066
 50
90.000607536760569
 51
127.4458855524567
  0
ARC
  5
B01
  8
0
 10
-4.8854163343495021
 20
12.757473205429299
 30
0.0
 40
11.05202888398669
 50
356.82996822954061
 51
0.0498104580190794
  0
LINE
  5
B02
  8
0
 10
6.1497010083000001
 20
12.146304090999999
 30
0.0
 11
6.1315280466261921
 21
11.92821465219926
 31
0.0
  0
ARC
  5
B0C
  8
0
 10
14.35851673247088
 20
12.710744444541451
 30
0.0
 40
8.6884772026843677
 50
179.6285257751405
 51
185.16707583791879
  0
ARC
  5
B0D
  8
0
 10
2.1009574096363171
 20
12.611505927649651
 30
0.0
 40
4.006738132519394
 50
350.84264753441511
 51
1.749513707264194
  0
ARC
  5
B0E
  8
0
 10
9.9095081455832545
 20
12.61310354639792
 30
0.0
 40
4.1821102890754256
 50
178.3343774534996
 51
188.8162119295373
  0
ATTDEF
  5
B4B
  8
DEFPOINTS
 10
5.9140080599410361
 20
16.601013879565489
 30
0.0
 40
0.001
  1
METAL
  3

  2
MATERIAL
 70
     0
1001
AcDbAttr
1070
     0
1070
     1
  0
ATTDEF
  5
B4C
  8
DEFPOINTS
 10
5.9140080599410361
 20
16.602680546232161
 30
0.0
 40
0.001
  1
ROBE HOOK
  3

  2
PRODUCT
 70
     0
1001
AcDbAttr
1070
     0
1070
     1
  0
ATTDEF
  5
B4D
  8
DEFPOINTS
 10
5.9140080599410361
 20
16.604347212898819
 30
0.0
 40
0.001
  1
KELSTON
  3

  2
TRADENAME
 70
     0
1001
AcDbAttr
1070
     0
1070
     1
  0
ATTDEF
  5
B4E
  8
DEFPOINTS
 10
5.9140080599410361
 20
16.606013879565491
 30
0.0
 40
0.001
  1
K-13505
  3

  2
MODELNUMBER
 70
     0
1001
AcDbAttr
1070
     0
1070
     1
  0
ENDSEC
  0
EOF
