  0
SECTION
  2
HEADER
  9
$ACADVER
  1
AC1009
  9
$INSBASE
 10
16.5210133856
 20
9.1656621573999981
 30
0.0
  9
$EXTMIN
 10
4.71285793525744
 20
5.4538377396854969
 30
0.0
  9
$EXTMAX
 10
17.307685493202289
 20
16.771959184027828
 30
0.0
  9
$LIMMIN
 10
0.0
 20
0.0
  9
$LIMMAX
 10
22.0
 20
17.0
  9
$ORTHOMODE
 70
     1
  9
$REGENMODE
 70
     1
  9
$FILLMODE
 70
     1
  9
$QTEXTMODE
 70
     0
  9
$MIRRTEXT
 70
     0
  9
$DRAGMODE
 70
     2
  9
$LTSCALE
 40
1.2099999999999991
  9
$OSMODE
 70
    39
  9
$ATTMODE
 70
     1
  9
$TEXTSIZE
 40
0.2
  9
$TRACEWID
 40
0.05
  9
$TEXTSTYLE
  7
STANDARD
  9
$CLAYER
  8
0
  9
$CELTYPE
  6
BYLAYER
  9
$CECOLOR
 62
   256
  9
$DIMSCALE
 40
1.0
  9
$DIMASZ
 40
0.1875
  9
$DIMEXO
 40
0.0625
  9
$DIMDLI
 40
0.8359999999999999
  9
$DIMRND
 40
0.0
  9
$DIMDLE
 40
0.0
  9
$DIMEXE
 40
0.125
  9
$DIMTP
 40
0.0
  9
$DIMTM
 40
0.0
  9
$DIMTXT
 40
1.0
  9
$DIMCEN
 40
0.198
  9
$DIMTSZ
 40
0.0
  9
$DIMTOL
 70
     0
  9
$DIMLIM
 70
     0
  9
$DIMTIH
 70
     1
  9
$DIMTOH
 70
     1
  9
$DIMSE1
 70
     0
  9
$DIMSE2
 70
     0
  9
$DIMTAD
 70
     0
  9
$DIMZIN
 70
     0
  9
$DIMBLK
  1

  9
$DIMASO
 70
     1
  9
$DIMSHO
 70
     1
  9
$DIMPOST
  1

  9
$DIMAPOST
  1

  9
$DIMALT
 70
     1
  9
$DIMALTD
 70
     2
  9
$DIMALTF
 40
25.399999999999999
  9
$DIMLFAC
 40
1.0
  9
$DIMTOFL
 70
     0
  9
$DIMTVP
 40
0.0
  9
$DIMTIX
 70
     0
  9
$DIMSOXD
 70
     0
  9
$DIMSAH
 70
     0
  9
$DIMBLK1
  1

  9
$DIMBLK2
  1

  9
$DIMSTYLE
  2
STANDARD
  9
$DIMCLRD
 70
     0
  9
$DIMCLRE
 70
     0
  9
$DIMCLRT
 70
     0
  9
$DIMTFAC
 40
1.0
  9
$DIMGAP
 40
0.09
  9
$LUNITS
 70
     2
  9
$LUPREC
 70
     4
  9
$SKETCHINC
 40
0.1
  9
$FILLETRAD
 40
0.0
  9
$AUNITS
 70
     0
  9
$AUPREC
 70
     0
  9
$MENU
  1
.
  9
$ELEVATION
 40
0.0
  9
$PELEVATION
 40
0.0
  9
$THICKNESS
 40
0.0
  9
$LIMCHECK
 70
     0
  9
$BLIPMODE
 70
     0
  9
$CHAMFERA
 40
0.0
  9
$CHAMFERB
 40
0.0
  9
$SKPOLY
 70
     0
  9
$TDCREATE
 40
2457968.7607333451
  9
$TDUPDATE
 40
2457968.820269166
  9
$TDINDWG
 40
0.059070787
  9
$TDUSRTIMER
 40
0.059070787
  9
$USRTIMER
 70
     1
  9
$ANGBASE
 50
0.0
  9
$ANGDIR
 70
     0
  9
$PDMODE
 70
     0
  9
$PDSIZE
 40
0.3125
  9
$PLINEWID
 40
0.0
  9
$COORDS
 70
     1
  9
$SPLFRAME
 70
     0
  9
$SPLINETYPE
 70
     6
  9
$SPLINESEGS
 70
     8
  9
$ATTDIA
 70
     0
  9
$ATTREQ
 70
     1
  9
$HANDLING
 70
     1
  9
$HANDSEED
  5
D0A
  9
$SURFTAB1
 70
     6
  9
$SURFTAB2
 70
     6
  9
$SURFTYPE
 70
     6
  9
$SURFU
 70
     6
  9
$SURFV
 70
     6
  9
$UCSNAME
  2

  9
$UCSORG
 10
0.0
 20
0.0
 30
0.0
  9
$UCSXDIR
 10
1.0
 20
0.0
 30
0.0
  9
$UCSYDIR
 10
0.0
 20
1.0
 30
0.0
  9
$PUCSNAME
  2

  9
$PUCSORG
 10
0.0
 20
0.0
 30
0.0
  9
$PUCSXDIR
 10
1.0
 20
0.0
 30
0.0
  9
$PUCSYDIR
 10
0.0
 20
1.0
 30
0.0
  9
$USERI1
 70
     0
  9
$USERI2
 70
     0
  9
$USERI3
 70
     0
  9
$USERI4
 70
     0
  9
$USERI5
 70
     0
  9
$USERR1
 40
0.0
  9
$USERR2
 40
0.0
  9
$USERR3
 40
0.0
  9
$USERR4
 40
0.0
  9
$USERR5
 40
0.0
  9
$WORLDVIEW
 70
     1
  9
$SHADEDGE
 70
     3
  9
$SHADEDIF
 70
    70
  9
$TILEMODE
 70
     1
  9
$MAXACTVP
 70
    48
  9
$PLIMCHECK
 70
     0
  9
$PEXTMIN
 10
1.0000000000000000E+020
 20
1.0000000000000000E+020
 30
1.0000000000000000E+020
  9
$PEXTMAX
 10
-1.0000000000000000E+020
 20
-1.0000000000000000E+020
 30
-1.0000000000000000E+020
  9
$PLIMMIN
 10
0.0
 20
0.0
  9
$PLIMMAX
 10
12.0
 20
9.0
  9
$UNITMODE
 70
     0
  9
$VISRETAIN
 70
     1
  9
$PLINEGEN
 70
     0
  9
$PSLTSCALE
 70
     1
  0
ENDSEC
  0
SECTION
  2
TABLES
  0
TABLE
  2
VPORT
 70
     1
  0
VPORT
  2
*ACTIVE
 70
     0
 10
0.0
 20
0.0
 11
1.0
 21
1.0
 12
15.518800404358389
 22
7.8478841172109046
 13
0.0
 23
0.0
 14
1.0
 24
1.0
 15
0.0
 25
0.0
 16
0.0
 26
0.0
 36
1.0
 17
0.0
 27
0.0
 37
0.0
 40
7.1337252536097377
 41
1.9501018329938891
 42
50.0
 43
0.0
 44
0.0
 50
0.0
 51
0.0
 71
     0
 72
   100
 73
     1
 74
     1
 75
     0
 76
     0
 77
     0
 78
     0
  0
ENDTAB
  0
TABLE
  2
LTYPE
 70
     2
  0
LTYPE
  2
CONTINUOUS
 70
     0
  3
Solid line
 72
    65
 73
     0
 40
0.0
  0
LTYPE
  2
PHANTOM2
 70
     0
  3
___ _ _ ___ _ _ ___ _ _ ___ _ _
 72
    65
 73
     6
 40
1.25
 49
0.625
 49
-0.125
 49
0.125
 49
-0.125
 49
0.125
 49
-0.125
  0
ENDTAB
  0
TABLE
  2
LAYER
 70
     2
  0
LAYER
  2
0
 70
     0
 62
     7
  6
CONTINUOUS
  0
LAYER
  2
DEFPOINTS
 70
     0
 62
     7
  6
CONTINUOUS
  0
ENDTAB
  0
TABLE
  2
STYLE
 70
     1
  0
STYLE
  2
STANDARD
 70
     0
 40
0.0
 41
0.8
 50
0.0
 71
     0
 42
0.2
  3
txt
  4

  0
ENDTAB
  0
TABLE
  2
VIEW
 70
     1
  0
ENDTAB
  0
TABLE
  2
UCS
 70
     0
  0
ENDTAB
  0
TABLE
  2
APPID
 70
     7
  0
APPID
  2
ACAD
 70
     0
  0
APPID
  2
ACAD_MLEADERVER
 70
     0
  0
APPID
  2
ACAD_NAV_VCDISPLAY
 70
     0
  0
APPID
  2
ACAD_EXEMPT_FROM_CAD_STANDARDS
 70
     0
  0
APPID
  2
ACAD_DSTYLE_DIMJAG
 70
     0
  0
APPID
  2
ACAD_DSTYLE_DIMTALN
 70
     0
  0
APPID
  2
AcDbAttr
 70
     0
  0
ENDTAB
  0
TABLE
  2
DIMSTYLE
 70
     1
  0
DIMSTYLE
  2
STANDARD
 70
     0
  3

  4

  5

  6

  7

 40
1.0
 41
0.1875
 42
0.0625
 43
0.38
 44
0.125
 45
0.0
 46
0.0
 47
1.5
 48
1.5
140
0.15625
141
0.09
142
0.0
143
25.399999999999999
144
1.0
145
0.0
146
1.0
147
0.09
 71
     0
 72
     0
 73
     1
 74
     1
 75
     0
 76
     0
 77
     0
 78
     4
170
     0
171
     2
172
     0
173
     0
174
     0
175
     0
176
     0
177
     0
178
     0
  0
ENDTAB
  0
ENDSEC
  0
SECTION
  2
BLOCKS
  0
BLOCK
  8
0
  2
$MODEL_SPACE
 70
     0
 10
0.0
 20
0.0
 30
0.0
  3
$MODEL_SPACE
  1

  0
ENDBLK
  5
21
  8
0
  0
BLOCK
 67
     1
  8
0
  2
$PAPER_SPACE
 70
     0
 10
0.0
 20
0.0
 30
0.0
  3
$PAPER_SPACE
  1

  0
ENDBLK
  5
1D
 67
     1
  8
0
  0
ENDSEC
  0
SECTION
  2
ENTITIES
  0
LINE
  5
59D
  8
0
 10
13.4241269305
 20
9.3955963148000006
 30
0.0
 11
13.4241269305
 21
8.9357280000000028
 31
0.0
  0
LINE
  5
6CB
  8
0
 10
12.845366046600001
 20
8.8371986219000007
 30
0.0
 11
12.883659380699999
 21
8.8371986219000007
 31
0.0
  0
LINE
  5
708
  8
0
 10
14.177715279599999
 20
9.1656621596000001
 30
0.0
 11
15.878013385599999
 21
9.1656621573999981
 31
0.0
  0
LINE
  5
72A
  8
0
 10
16.003945216799998
 20
9.9530921200999991
 30
0.0
 11
15.906147158439699
 21
9.9550879987865741
 31
0.0
  0
LINE
  5
72E
  8
0
 10
16.0899759956
 20
8.3310889318000001
 30
0.0
 11
16.089975995900001
 21
10.0002008441
 31
0.0
  0
LINE
  5
730
  8
0
 10
16.1550133856
 20
10.04860800222761
 30
0.0
 11
16.1550133856
 21
8.2826621574000008
 31
0.0
  0
LINE
  5
734
  8
0
 10
16.400278589399999
 20
8.0577264634999999
 30
0.0
 11
16.400278589399999
 21
10.27697391779882
 31
0.0
  0
LINE
  5
735
  8
0
 10
16.5210133856
 20
7.9611621574000004
 30
0.0
 11
16.5210133856
 21
10.370162157399999
 31
0.0
  0
ARC
  5
857
  8
0
 10
11.570043370200001
 20
6.9376820146
 30
0.0
 40
0.3976247473
 50
234.4211164475
 51
252.6636516847
  0
ARC
  5
858
  8
0
 10
11.571987913099999
 20
6.7091782561000004
 30
0.0
 40
0.3976247473
 50
53.445875863500007
 51
126.55412413649999
  0
ARC
  5
859
  8
0
 10
11.573932456
 20
6.9376820146
 30
0.0
 40
0.3976247473
 50
299.72291062969998
 51
305.57888355199998
  0
ARC
  5
85A
  8
0
 10
12.9417122918
 20
9.1666056851000004
 30
0.0
 40
0.3389755031
 50
125.3946619508
 51
233.428772299
  0
ARC
  5
85D
  8
0
 10
11.487803850400001
 20
6.8227220116999989
 30
0.0
 40
0.2562771585
 50
126.55443238319999
 51
234.4207058042
  0
ARC
  5
85E
  8
0
 10
11.6561719758
 20
6.8227220116999989
 30
0.0
 40
0.2562771585
 50
305.57929419800001
 51
53.445567619199991
  0
ARC
  5
9EB
  8
0
 10
16.50567351384165
 20
10.25892253823152
 30
0.0
 40
0.1122923173610295
 50
82.148467906371664
 51
144.34645519629171
  0
ARC
  5
9EC
  8
0
 10
16.647333361129441
 20
10.229032794597501
 30
0.0
 40
0.2516632899890081
 50
157.73744855514201
 51
173.25615096800641
  0
ARC
  5
9ED
  8
0
 10
16.08452767923951
 20
10.399009137074749
 30
0.0
 40
0.3429502554089777
 50
308.22725538064373
 51
335.82928171499731
  0
ARC
  5
9EE
  8
0
 10
16.189492052117551
 20
9.9343915365865207
 30
0.0
 40
0.1193076292635958
 50
105.5707497518259
 51
146.52360049281879
  0
ARC
  5
9EF
  8
0
 10
16.019308384894789
 20
10.449951135129149
 30
0.0
 40
0.4237836066646599
 50
289.02684196545732
 51
310.89326919599051
  0
ARC
  5
9F0
  8
0
 10
16.00593678380304
 20
10.05156490730241
 30
0.0
 40
0.0984929244084965
 50
268.84137706514338
 51
328.56707545323741
  0
ARC
  5
9F1
  8
0
 10
15.3022236620412
 20
11.36148476569706
 30
0.0
 40
1.5191678681946461
 50
271.68383146471638
 51
292.27277714158703
  0
ARC
  5
9F2
  8
0
 10
15.15700831119687
 20
18.103603930989721
 30
0.0
 40
8.2628124821968161
 50
267.77680973998298
 51
271.3166023772938
  0
ARC
  5
9F3
  8
0
 10
14.849912077904319
 20
8.1203838510844744
 30
0.0
 40
1.7266793227243811
 50
90.445875900119944
 51
98.525550824242714
  0
ARC
  5
9F4
  8
0
 10
14.862524259326831
 20
8.7388905705926998
 30
0.0
 40
1.1217240481157189
 50
103.8538883642121
 51
122.1447109332387
  0
ARC
  5
9F5
  8
0
 10
25.034805148802452
 20
-8.3610734738558445
 30
0.0
 40
21.018243847249309
 50
120.82178294213
 51
121.10148486238
  0
ARC
  5
9F6
  8
0
 10
14.14177085759154
 20
9.7086609247226718
 30
0.0
 40
0.0811771567489824
 50
273.32482924597201
 51
296.28200201060861
  0
ARC
  5
9F7
  8
0
 10
14.03364400787844
 20
10.40022451119839
 30
0.0
 40
0.7808001060629846
 50
267.75069021883371
 51
278.30901145428902
  0
ARC
  5
9F8
  8
0
 10
14.01740162990022
 20
9.5274239088689612
 30
0.0
 40
0.0937153889102418
 50
98.840317060213636
 51
138.06192397558669
  0
ARC
  5
9F9
  8
0
 10
13.157656899231441
 20
10.349656639219511
 30
0.0
 40
1.0959673519806661
 50
307.19739877157713
 51
316.12506669976472
  0
ARC
  5
9FA
  8
0
 10
13.66108663843098
 20
9.7458151280781173
 30
0.0
 40
0.3126914847674386
 50
262.33560335398113
 51
300.59544492925698
  0
ARC
  5
9FB
  8
0
 10
12.185109243590411
 20
2.8713681263911619
 30
0.0
 40
6.7194080567764098
 50
77.675252551852836
 51
78.449854060937511
  0
ARC
  5
9FC
  8
0
 10
13.52180076898803
 20
9.3450952749381724
 30
0.0
 40
0.109956963181563
 50
85.459132336042487
 51
152.65933961834031
  0
ARC
  5
9FD
  8
0
 10
15.888228507934739
 20
9.7666386326782817
 30
0.0
 40
0.1892993439569615
 50
63.794236500255963
 51
93.093343133497811
  0
ARC
  5
9FE
  8
0
 10
15.940753761088869
 20
9.8913352375917611
 30
0.0
 40
0.0548029722867715
 50
336.8614111636258
 51
55.464655637005613
  0
ARC
  5
9FF
  8
0
 10
15.771927246195609
 20
9.94254147914328
 30
0.0
 40
0.230974351062676
 50
314.32648220391002
 51
341.64323558026649
  0
ARC
  5
A00
  8
0
 10
15.16375540256862
 20
10.524507955465831
 30
0.0
 40
1.0726298640604159
 50
311.75096100536689
 51
315.84480350544129
  0
ARC
  5
A01
  8
0
 10
15.658170062118639
 20
9.4674497390007133
 30
0.0
 40
0.3380696371223752
 50
16.796577354874511
 51
49.436525526585903
  0
ARC
  5
A02
  8
0
 10
15.591595248423291
 20
9.4629882496238427
 30
0.0
 40
0.4033711905983515
 50
335.55534833462877
 51
14.6701016093165
  0
ARC
  5
A03
  8
0
 10
15.401620427639671
 20
9.5510534503166529
 30
0.0
 40
0.612761535224069
 50
321.02791247641812
 51
335.40976965207608
  0
ARC
  5
A04
  8
0
 10
15.33492919892819
 20
11.61706840033597
 30
0.0
 40
1.9691626536477189
 50
273.11550811417101
 51
286.00936546614622
  0
ARC
  5
A05
  8
0
 10
15.101482759618751
 20
16.432656114619689
 30
0.0
 40
6.7903808312127083
 50
267.7633548588575
 51
272.87400640972322
  0
ARC
  5
A06
  8
0
 10
14.806158636940401
 20
8.1777286417772341
 30
0.0
 40
1.4700324683777211
 50
88.818302473719768
 51
100.4026990972546
  0
ARC
  5
A07
  8
0
 10
14.88254103285476
 20
8.0281084624089107
 30
0.0
 40
1.631694787242139
 50
102.0923147971437
 51
115.9432105419437
  0
ARC
  5
A11
  8
0
 10
11.826554807118031
 20
6.4945896120831561
 30
0.0
 40
0.1124235677861153
 50
119.5680615344273
 51
191.59392072185349
  0
ARC
  5
A12
  8
0
 10
12.37444655249449
 20
6.6547756342046167
 30
0.0
 40
0.6829453589397071
 50
195.52820374405101
 51
223.55173596226919
  0
ARC
  5
A13
  8
0
 10
12.617040392280069
 20
6.92265717364661
 30
0.0
 40
1.0441992087631859
 50
225.01452092521231
 51
279.43725401188271
  0
ARC
  5
A14
  8
0
 10
12.634987141313941
 20
6.8387504423415111
 30
0.0
 40
0.9584935318360776
 50
279.20138056304597
 51
331.14226989284242
  0
ARC
  5
A15
  8
0
 10
12.726630102064959
 20
6.8177484856016433
 30
0.0
 40
0.8684787948176225
 50
329.43753284241348
 51
30.61914969311783
  0
ARC
  5
A16
  8
0
 10
17.037945681560821
 20
9.7580624269222032
 30
0.0
 40
4.3521766549331362
 50
203.30944606412089
 51
215.02674740909589
  0
ARC
  5
A17
  8
0
 10
15.03787074895946
 20
8.8527445391123152
 30
0.0
 40
2.157484923914692
 50
180.41285255017721
 51
202.24702489986669
  0
ARC
  5
A18
  8
0
 10
12.879061598949461
 20
9.0256064800876707
 30
0.0
 40
0.1913972603644062
 50
223.2892882545024
 51
259.86021293307238
  0
ARC
  5
A19
  8
0
 10
13.055899084577479
 20
9.0058163623743415
 30
0.0
 40
0.5361856157954571
 50
47.209375783282098
 51
125.38963691752789
  0
ARC
  5
A1A
  8
0
 10
13.39517564239155
 20
9.3801529942217474
 30
0.0
 40
0.0314573412090717
 50
23.024912809617241
 51
37.473283143650313
  0
ARC
  5
A1B
  8
0
 10
13.40214909213536
 20
8.9464477399321396
 30
0.0
 40
0.0219971768859489
 50
318.58151914024302
 51
357.5973107209573
  0
ARC
  5
A1C
  8
0
 10
12.95818536195528
 20
9.4116990198217856
 30
0.0
 40
0.6650070157338134
 50
301.51072196986212
 51
313.82136319925843
  0
ARC
  5
A1D
  8
0
 10
13.202181665120371
 20
9.5095165906529004
 30
0.0
 40
0.6727847080201563
 50
273.625825085185
 51
278.855887842328
  0
ARC
  5
A1E
  8
0
 10
13.161348961583281
 20
12.73452530896849
 30
0.0
 40
3.8973387444435859
 50
268.21162713994693
 51
271.2258821250756
  0
ARC
  5
A1F
  8
0
 10
13.0979212133076
 20
9.5319340976847773
 30
0.0
 40
0.6952893347602344
 50
260.1626717032002
 51
265.1983624966137
  0
ARC
  5
A20
  8
0
 10
12.95456975343471
 20
9.3278232873392426
 30
0.0
 40
0.4815822280854102
 50
263.3518165157401
 51
272.9233017065352
  0
ARC
  5
A21
  8
0
 10
12.894697717434051
 20
8.8429825560975015
 30
0.0
 40
0.0076919795666044
 50
57.630958530429332
 51
172.4064600259278
  0
ARC
  5
A22
  8
0
 10
12.855158722381891
 20
8.8523006724661943
 30
0.0
 40
0.0329765225968447
 50
334.73223954131242
 51
345.41922539919238
  0
LINE
  5
A23
  8
0
 10
12.883659380699999
 20
8.8371986219000007
 30
0.0
 11
12.88498014609997
 21
8.8382246740999282
 31
0.0
  0
ARC
  5
A24
  8
0
 10
15.200795448979351
 20
8.8641212434725212
 30
0.0
 40
2.215687994181188
 50
180.47259562866401
 51
195.09869661948539
  0
ARC
  5
A25
  8
0
 10
15.053715243025129
 20
8.8504479137010073
 30
0.0
 40
2.0702758346986401
 50
195.79365816001439
 51
212.3629218951541
  0
ARC
  5
A26
  8
0
 10
483.04647572309102
 20
292.28222969952958
 30
0.0
 40
549.19945099368852
 50
211.20485567988561
 51
211.25357337340239
  0
ARC
  5
A27
  8
0
 10
12.739968608215131
 20
6.8191261355146917
 30
0.0
 40
0.9622304541563492
 50
345.16665657384942
 51
32.98330571886153
  0
ARC
  5
A28
  8
0
 10
12.62876964829467
 20
6.8512133991613489
 30
0.0
 40
1.0779412847518151
 50
314.29282633640622
 51
345.03111221258149
  0
ARC
  5
A29
  8
0
 10
12.616908678993751
 20
6.8731496622194301
 30
0.0
 40
1.101946805675555
 50
273.67428745150937
 51
313.93775979699302
  0
ARC
  5
A2A
  8
0
 10
12.619707262037799
 20
6.9686882282651217
 30
0.0
 40
1.1971428421281449
 50
249.1775695541989
 51
273.24759006454292
  0
ARC
  5
A2B
  8
0
 10
12.5900458391583
 20
6.88825234574196
 30
0.0
 40
1.1114170090037181
 50
219.75506955727371
 51
249.13278926867059
  0
ARC
  5
A2C
  8
0
 10
12.30124045358448
 20
6.6144109948378826
 30
0.0
 40
0.7147311901732905
 50
187.9128570521454
 51
217.68381005259539
  0
ARC
  5
A2D
  8
0
 10
11.68759740540874
 20
6.5170486668741736
 30
0.0
 40
0.094288550231274
 50
121.0695613502977
 51
180.62738670820241
  0
ARC
  5
A2E
  8
0
 10
11.225514795053851
 20
7.809149763380872
 30
0.0
 40
1.271286737156432
 50
280.24207119208307
 51
285.00568075081378
  0
ARC
  5
A2F
  8
0
 10
11.82823684157656
 20
5.4144673609786897
 30
0.0
 40
1.198388904609502
 50
99.088454961393992
 51
103.19577326142149
  0
ARC
  5
A30
  8
0
 10
11.68285334960636
 20
6.8643809603987558
 30
0.0
 40
0.2701614038978249
 50
260.64522164752248
 51
288.90353789683758
  0
ARC
  5
A31
  8
0
 10
11.74546013515709
 20
6.5995017899873032
 30
0.0
 40
0.0265920228306041
 50
344.4483267240343
 51
20.441915173663599
  0
ARC
  5
A32
  8
0
 10
11.43982828698203
 20
6.5205400821797257
 30
0.0
 40
0.039368799200759
 50
3.9057842076066951
 51
72.664379799573254
  0
ARC
  5
A33
  8
0
 10
12.62344144311502
 20
6.6012827208341891
 30
0.0
 40
1.1469946866242819
 50
183.90239855093191
 51
198.9936063085552
  0
ARC
  5
A34
  8
0
 10
12.62356690696596
 20
6.6012320175398642
 30
0.0
 40
1.1470968209905641
 50
198.98917205222901
 51
229.50047103540339
  0
ARC
  5
A35
  8
0
 10
12.623603487647561
 20
6.6008081206005711
 30
0.0
 40
1.146798282047659
 50
229.4853270628472
 51
268.59568486007248
  0
ARC
  5
A36
  8
0
 10
12.63331126698276
 20
6.8381189665911881
 30
0.0
 40
1.3842812269056901
 50
268.43471889145042
 51
326.36012439821388
  0
ARC
  5
A37
  8
0
 10
12.710570133412929
 20
6.8185873181227112
 30
0.0
 40
1.3094094384539301
 50
325.19880597411071
 51
26.760522758292549
  0
ARC
  5
A38
  8
0
 10
18.375130620180059
 20
10.47372503805636
 30
0.0
 40
5.441159945081754
 50
204.3391716528248
 51
214.29138965796099
  0
ARC
  5
A39
  8
0
 10
15.146989745958219
 20
8.8633575633976047
 30
0.0
 40
1.841327069657291
 50
180.57893989730931
 51
200.07839608187561
  0
LINE
  5
A90
  8
0
 10
16.003945216799998
 20
8.3782321947000007
 30
0.0
 11
15.906147158439699
 21
8.3762363160134257
 31
0.0
  0
ARC
  5
A91
  8
0
 10
16.50567351384165
 20
8.0724017765684764
 30
0.0
 40
0.1122923173610295
 50
215.65354480370829
 51
277.85153209362829
  0
ARC
  5
A92
  8
0
 10
16.647333361129441
 20
8.1022915202024972
 30
0.0
 40
0.2516632899890081
 50
186.74384903199351
 51
202.26255144485799
  0
ARC
  5
A93
  8
0
 10
16.08452767923951
 20
7.9323151777252461
 30
0.0
 40
0.3429502554089777
 50
24.170718285002739
 51
51.772744619356352
  0
ARC
  5
A94
  8
0
 10
16.189492052117551
 20
8.3969327782134791
 30
0.0
 40
0.1193076292635958
 50
213.4763995071811
 51
254.4292502481741
  0
ARC
  5
A95
  8
0
 10
16.019308384894789
 20
7.8813731796708479
 30
0.0
 40
0.4237836066646599
 50
49.10673080400953
 51
70.973158034542706
  0
ARC
  5
A96
  8
0
 10
16.00593678380304
 20
8.2797594074975915
 30
0.0
 40
0.0984929244084965
 50
31.432924546762671
 51
91.158622934856524
  0
ARC
  5
A97
  8
0
 10
15.3022236620412
 20
6.9698395491029386
 30
0.0
 40
1.5191678681946461
 50
67.727222858413086
 51
88.316168535283609
  0
ARC
  5
A98
  8
0
 10
15.15700831119687
 20
0.2277203838102757
 30
0.0
 40
8.2628124821968161
 50
88.683397622706195
 51
92.223190260017034
  0
ARC
  5
A99
  8
0
 10
14.849912077904319
 20
10.21094046371552
 30
0.0
 40
1.7266793227243811
 50
261.47444917575729
 51
269.55412409988003
  0
ARC
  5
A9A
  8
0
 10
14.862524259326831
 20
9.5924337442072982
 30
0.0
 40
1.1217240481157189
 50
237.85528906676129
 51
256.14611163578797
  0
ARC
  5
A9B
  8
0
 10
25.034805148802452
 20
26.69239778865585
 30
0.0
 40
21.018243847249309
 50
238.89851513762
 51
239.17821705787
  0
ARC
  5
A9C
  8
0
 10
14.14177085759154
 20
8.6226633900773262
 30
0.0
 40
0.0811771567489824
 50
63.717997989391463
 51
86.675170754027974
  0
ARC
  5
A9D
  8
0
 10
14.03364400787844
 20
7.9310998036016107
 30
0.0
 40
0.7808001060629846
 50
81.690988545711036
 51
92.249309781166261
  0
ARC
  5
A9E
  8
0
 10
14.01740162990022
 20
8.8039004059310386
 30
0.0
 40
0.0937153889102418
 50
221.93807602441331
 51
261.15968293978642
  0
ARC
  5
A9F
  8
0
 10
13.157656899231441
 20
7.9816676755804874
 30
0.0
 40
1.0959673519806661
 50
43.87493330023532
 51
52.802601228422922
  0
ARC
  5
AA0
  8
0
 10
13.66108663843098
 20
8.5855091867218825
 30
0.0
 40
0.3126914847674386
 50
59.404555070742987
 51
97.664396646018915
  0
ARC
  5
AA1
  8
0
 10
12.185109243590411
 20
15.459956188408841
 30
0.0
 40
6.7194080567764098
 50
281.55014593906247
 51
282.32474744814721
  0
ARC
  5
AA2
  8
0
 10
13.52180076898803
 20
8.9862290398618274
 30
0.0
 40
0.109956963181563
 50
207.34066038165969
 51
274.5408676639575
  0
ARC
  5
AA3
  8
0
 10
15.888228507934739
 20
8.5646856821217181
 30
0.0
 40
0.1892993439569615
 50
266.9066568665022
 51
296.20576349974402
  0
ARC
  5
AA4
  8
0
 10
15.940753761088869
 20
8.4399890772082369
 30
0.0
 40
0.0548029722867715
 50
304.53534436299429
 51
23.13858883637424
  0
ARC
  5
AA5
  8
0
 10
15.771927246195609
 20
8.3887828356567198
 30
0.0
 40
0.230974351062676
 50
18.356764419733491
 51
45.673517796089968
  0
ARC
  5
AA6
  8
0
 10
15.16375540256862
 20
7.8068163593341646
 30
0.0
 40
1.0726298640604159
 50
44.155196494558737
 51
48.249038994633203
  0
ARC
  5
AA7
  8
0
 10
15.658170062118639
 20
8.8638745757992865
 30
0.0
 40
0.3380696371223752
 50
310.56347447341398
 51
343.20342264512539
  0
ARC
  5
AA8
  8
0
 10
15.591595248423291
 20
8.8683360651761571
 30
0.0
 40
0.4033711905983515
 50
345.32989839068352
 51
24.444651665371211
  0
ARC
  5
AA9
  8
0
 10
15.401620427639671
 20
8.7802708644833452
 30
0.0
 40
0.612761535224069
 50
24.59023034792396
 51
38.972087523581919
  0
ARC
  5
AAA
  8
0
 10
15.33492919892819
 20
6.7142559144640241
 30
0.0
 40
1.9691626536477189
 50
73.990634533853751
 51
86.884491885829064
  0
ARC
  5
AAB
  8
0
 10
15.101482759618751
 20
1.8986682001803059
 30
0.0
 40
6.7903808312127083
 50
87.125993590276792
 51
92.236645141142489
  0
ARC
  5
AAC
  8
0
 10
14.806158636940401
 20
10.15359567302276
 30
0.0
 40
1.4700324683777211
 50
259.5973009027453
 51
271.18169752628017
  0
ARC
  5
AAD
  8
0
 10
14.88254103285476
 20
10.303215852391091
 30
0.0
 40
1.631694787242139
 50
244.05678945805639
 51
257.90768520285633
  0
LINE
  5
AAF
  8
0
 10
14.16870710033753
 20
9.6320830584388801
 30
0.0
 11
14.16870710033753
 21
8.6992412563611197
 31
0.0
  0
ATTDEF
  5
B53
  8
DEFPOINTS
 10
16.52676870331462
 20
9.1581617027986937
 30
0.0
 40
0.001
  1
METAL
  3

  2
MATERIAL
 70
     0
1001
AcDbAttr
1070
     0
1070
     1
  0
ATTDEF
  5
B54
  8
DEFPOINTS
 10
16.52676870331462
 20
9.1598283694653588
 30
0.0
 40
0.001
  1
ROBE HOOK
  3

  2
PRODUCT
 70
     0
1001
AcDbAttr
1070
     0
1070
     1
  0
ATTDEF
  5
B55
  8
DEFPOINTS
 10
16.52676870331462
 20
9.1614950361320222
 30
0.0
 40
0.001
  1
KELSTON
  3

  2
TRADENAME
 70
     0
1001
AcDbAttr
1070
     0
1070
     1
  0
ATTDEF
  5
B56
  8
DEFPOINTS
 10
16.52676870331462
 20
9.1631617027986891
 30
0.0
 40
0.001
  1
K-13505
  3

  2
MODELNUMBER
 70
     0
1001
AcDbAttr
1070
     0
1070
     1
  0
ENDSEC
  0
EOF
