  0
SECTION
  2
HEADER
  9
$ACADVER
  1
AC1009
  9
$INSBASE
 10
2903.6589420078239527
 20
175.9334970244819942
 30
0.0
  9
$EXTMIN
 10
2900.1159176005498921
 20
169.0948970244820089
 30
0.0
  9
$EXTMAX
 10
2907.2019664150989229
 20
177.138497026482014
 30
0.0
  9
$LIMMIN
 10
0.0
 20
0.0
  9
$LIMMAX
 10
11.6929133858000007
 20
8.2677165353999982
  9
$ORTHOMODE
 70
     0
  9
$REGENMODE
 70
     1
  9
$FILLMODE
 70
     1
  9
$QTEXTMODE
 70
     0
  9
$MIRRTEXT
 70
     0
  9
$DRAGMODE
 70
     2
  9
$LTSCALE
 40
0.6431102362
  9
$OSMODE
 70
  4095
  9
$ATTMODE
 70
     1
  9
$TEXTSIZE
 40
0.2
  9
$TRACEWID
 40
0.05
  9
$TEXTSTYLE
  7
STANDARD
  9
$CLAYER
  8
0
  9
$CELTYPE
  6
BYLAYER
  9
$CECOLOR
 62
   256
  9
$DIMSCALE
 40
1.0
  9
$DIMASZ
 40
0.1875
  9
$DIMEXO
 40
0.0625
  9
$DIMDLI
 40
0.4443307087
  9
$DIMRND
 40
0.0
  9
$DIMDLE
 40
0.0
  9
$DIMEXE
 40
0.125
  9
$DIMTP
 40
0.01
  9
$DIMTM
 40
0.01
  9
$DIMTXT
 40
2.0
  9
$DIMCEN
 40
0.1052362205
  9
$DIMTSZ
 40
0.0
  9
$DIMTOL
 70
     1
  9
$DIMLIM
 70
     0
  9
$DIMTIH
 70
     1
  9
$DIMTOH
 70
     1
  9
$DIMSE1
 70
     0
  9
$DIMSE2
 70
     0
  9
$DIMTAD
 70
     0
  9
$DIMZIN
 70
     0
  9
$DIMBLK
  1

  9
$DIMASO
 70
     1
  9
$DIMSHO
 70
     1
  9
$DIMPOST
  1
\X
  9
$DIMAPOST
  1

  9
$DIMALT
 70
     1
  9
$DIMALTD
 70
     2
  9
$DIMALTF
 40
25.3999999999999986
  9
$DIMLFAC
 40
1.0
  9
$DIMTOFL
 70
     0
  9
$DIMTVP
 40
0.0
  9
$DIMTIX
 70
     0
  9
$DIMSOXD
 70
     0
  9
$DIMSAH
 70
     0
  9
$DIMBLK1
  1

  9
$DIMBLK2
  1

  9
$DIMSTYLE
  2
STANDARD
  9
$DIMCLRD
 70
     0
  9
$DIMCLRE
 70
     0
  9
$DIMCLRT
 70
     0
  9
$DIMTFAC
 40
1.0
  9
$DIMGAP
 40
0.09
  9
$LUNITS
 70
     2
  9
$LUPREC
 70
     4
  9
$SKETCHINC
 40
0.1
  9
$FILLETRAD
 40
0.0
  9
$AUNITS
 70
     0
  9
$AUPREC
 70
     0
  9
$MENU
  1
.
  9
$ELEVATION
 40
0.0
  9
$PELEVATION
 40
0.0
  9
$THICKNESS
 40
0.0
  9
$LIMCHECK
 70
     0
  9
$BLIPMODE
 70
     0
  9
$CHAMFERA
 40
0.0
  9
$CHAMFERB
 40
0.0
  9
$SKPOLY
 70
     0
  9
$TDCREATE
 40
2458060.468368056230247
  9
$TDUPDATE
 40
2458782.6265277778729796
  9
$TDINDWG
 40
1.2254920949000001
  9
$TDUSRTIMER
 40
1.2254920949000001
  9
$USRTIMER
 70
     1
  9
$ANGBASE
 50
0.0
  9
$ANGDIR
 70
     0
  9
$PDMODE
 70
     0
  9
$PDSIZE
 40
0.3125
  9
$PLINEWID
 40
0.0
  9
$COORDS
 70
     1
  9
$SPLFRAME
 70
     0
  9
$SPLINETYPE
 70
     6
  9
$SPLINESEGS
 70
     8
  9
$ATTDIA
 70
     1
  9
$ATTREQ
 70
     1
  9
$HANDLING
 70
     1
  9
$HANDSEED
  5
6448
  9
$SURFTAB1
 70
     6
  9
$SURFTAB2
 70
     6
  9
$SURFTYPE
 70
     6
  9
$SURFU
 70
     6
  9
$SURFV
 70
     6
  9
$UCSNAME
  2

  9
$UCSORG
 10
0.0
 20
0.0
 30
0.0
  9
$UCSXDIR
 10
1.0
 20
0.0
 30
0.0
  9
$UCSYDIR
 10
0.0
 20
1.0
 30
0.0
  9
$PUCSNAME
  2

  9
$PUCSORG
 10
0.0
 20
0.0
 30
0.0
  9
$PUCSXDIR
 10
1.0
 20
0.0
 30
0.0
  9
$PUCSYDIR
 10
0.0
 20
1.0
 30
0.0
  9
$USERI1
 70
     0
  9
$USERI2
 70
     0
  9
$USERI3
 70
     0
  9
$USERI4
 70
     0
  9
$USERI5
 70
     0
  9
$USERR1
 40
0.0
  9
$USERR2
 40
0.0
  9
$USERR3
 40
0.0
  9
$USERR4
 40
0.0
  9
$USERR5
 40
0.0
  9
$WORLDVIEW
 70
     1
  9
$SHADEDGE
 70
     3
  9
$SHADEDIF
 70
    70
  9
$TILEMODE
 70
     1
  9
$MAXACTVP
 70
    64
  9
$PLIMCHECK
 70
     0
  9
$PEXTMIN
 10
1.0000000000000000E+20
 20
1.0000000000000000E+20
 30
1.0000000000000000E+20
  9
$PEXTMAX
 10
-1.0000000000000000E+20
 20
-1.0000000000000000E+20
 30
-1.0000000000000000E+20
  9
$PLIMMIN
 10
0.0
 20
0.0
  9
$PLIMMAX
 10
12.0
 20
9.0
  9
$UNITMODE
 70
     0
  9
$VISRETAIN
 70
     1
  9
$PLINEGEN
 70
     0
  9
$PSLTSCALE
 70
     1
  0
ENDSEC
  0
SECTION
  2
TABLES
  0
TABLE
  2
VPORT
 70
     1
  0
VPORT
  2
*ACTIVE
 70
     0
 10
0.0
 20
0.0
 11
1.0
 21
1.0
 12
0.0
 22
0.0
 13
0.0
 23
0.0
 14
1.0
 24
1.0
 15
0.0
 25
0.0
 16
0.0
 26
0.0
 36
30.7210656846682895
 17
2903.658935546875
 27
173.11669921875
 37
0.0
 40
10.7196159427023208
 41
2.1491525423728808
 42
50.0
 43
0.0
 44
0.0
 50
0.0
 51
0.0
 71
     0
 72
   100
 73
     1
 74
     1
 75
     0
 76
     0
 77
     0
 78
     0
  0
ENDTAB
  0
TABLE
  2
LTYPE
 70
     3
  0
LTYPE
  2
CONTINUOUS
 70
     0
  3
Solid line
 72
    65
 73
     0
 40
0.0
  0
LTYPE
  2
PHANTOM2
 70
     0
  3
___ _ _ ___ _ _ ___ _ _ ___ _ _
 72
    65
 73
     6
 40
1.25
 49
0.625
 49
-0.125
 49
0.125
 49
-0.125
 49
0.125
 49
-0.125
  0
ENDTAB
  0
TABLE
  2
LAYER
 70
     2
  0
LAYER
  2
0
 70
     0
 62
   255
  6
CONTINUOUS
  0
LAYER
  2
DEFPOINTS
 70
     0
 62
     7
  6
CONTINUOUS
  0
ENDTAB
  0
TABLE
  2
STYLE
 70
     1
  0
STYLE
  2
STANDARD
 70
     0
 40
0.0
 41
0.8
 50
0.0
 71
     0
 42
0.2
  3
txt
  4

  0
ENDTAB
  0
TABLE
  2
VIEW
 70
     0
  0
ENDTAB
  0
TABLE
  2
UCS
 70
     0
  0
ENDTAB
  0
TABLE
  2
APPID
 70
     9
  0
APPID
  2
ACAD
 70
     0
  0
APPID
  2
ACAD_MLEADERVER
 70
     0
  0
APPID
  2
ACAD_EXEMPT_FROM_CAD_STANDARDS
 70
     0
  0
APPID
  2
ACAD_NAV_VCDISPLAY
 70
     0
  0
APPID
  2
ACAECLAYERSTANDARD
 70
     0
  0
APPID
  2
ACCMTRANSPARENCY
 70
     0
  0
APPID
  2
ACAD_DSTYLE_DIMJAG
 70
     0
  0
APPID
  2
ACAD_DSTYLE_DIMTALN
 70
     0
  0
APPID
  2
ACDBATTR
 70
     0
  0
ENDTAB
  0
TABLE
  2
DIMSTYLE
 70
     2
  0
DIMSTYLE
  2
STANDARD
 70
     0
  3

  4

  5

  6

  7

 40
1.0
 41
0.1875
 42
0.0625
 43
0.38
 44
0.125
 45
0.0
 46
0.0
 47
0.01
 48
0.01
140
0.15625
141
0.09
142
0.0
143
25.3999999999999986
144
1.0
145
0.0
146
1.0
147
0.09
 71
     1
 72
     0
 73
     1
 74
     1
 75
     0
 76
     0
 77
     0
 78
     4
170
     0
171
     2
172
     0
173
     0
174
     0
175
     0
176
     0
177
     0
178
     0
  0
ENDTAB
  0
ENDSEC
  0
SECTION
  2
BLOCKS
  0
BLOCK
  8
0
  2
$MODEL_SPACE
 70
     0
 10
0.0
 20
0.0
 30
0.0
  3
$MODEL_SPACE
  1

  0
ENDBLK
  5
21
  8
0
  0
BLOCK
 67
     1
  8
0
  2
$PAPER_SPACE
 70
     0
 10
0.0
 20
0.0
 30
0.0
  3
$PAPER_SPACE
  1

  0
ENDBLK
  5
1D
 67
     1
  8
0
  0
BLOCK
  8
0
  2
_CLOSED
 70
     0
 10
0.0
 20
0.0
 30
0.0
  3
_CLOSED
  1

  0
LINE
  5
57DF
  8
0
  6
BYBLOCK
 62
     0
 10
0.0
 20
0.0
 30
0.0
 11
-1.0
 21
0.1666666667
 31
0.0
  0
LINE
  5
57E0
  8
0
  6
BYBLOCK
 62
     0
 10
-1.0
 20
0.1666666667
 30
0.0
 11
-1.0
 21
-0.1666666667
 31
0.0
  0
LINE
  5
57E1
  8
0
  6
BYBLOCK
 62
     0
 10
-1.0
 20
-0.1666666667
 30
0.0
 11
0.0
 21
0.0
 31
0.0
  0
LINE
  5
57E2
  8
0
  6
BYBLOCK
 62
     0
 10
-1.0
 20
0.0
 30
0.0
 11
0.0
 21
0.0
 31
0.0
  0
ENDBLK
  5
57E3
  8
0
  6
BYBLOCK
 62
     0
  0
BLOCK
  8
0
  2
A$C052458D3
 70
     0
 10
0.0
 20
0.0
 30
0.0
  3
A$C052458D3
  1

  0
ARC
  5
6154
  8
0
 10
3.543024320987429
 20
6.8385999759548408
 30
0.0
 40
1.205000002
 50
1.7650472687203209
 51
178.2445362514924057
  0
ARC
  5
6155
  8
0
 10
3.543024320987429
 20
6.8385999759548408
 30
0.0
 40
1.205000002
 50
201.272101127809691
 51
338.7374823924030807
  0
ARC
  5
6156
  8
0
 10
3.543024320987429
 20
6.8385999759548408
 30
0.0
 40
1.1082402416999999
 50
3.6767632587931218
 51
176.332820261419613
  0
ARC
  5
6157
  8
0
 10
3.543024320987429
 20
6.8385999759548408
 30
0.0
 40
1.1082402416999999
 50
201.3350748731708961
 51
338.6745086470419892
  0
ARC
  5
6158
  8
0
 10
3.543024320987429
 20
6.8385999759548408
 30
0.0
 40
0.8876630277000002
 50
8.9338921323635976
 51
171.0756913878491048
  0
ARC
  5
6159
  8
0
 10
3.543024320987429
 20
6.8385999759548408
 30
0.0
 40
0.8876630277000002
 50
202.2689587875645998
 51
337.7406247326482003
  0
ARC
  5
615A
  8
0
 10
3.543024320987429
 20
6.8385999759548408
 30
0.0
 40
0.7901788845911404
 50
11.8792653049645498
 51
168.1303182152481952
  0
ARC
  5
615B
  8
0
 10
3.543024320987429
 20
6.8385999759548408
 30
0.0
 40
0.7901788845911404
 50
203.2216210783145982
 51
336.7879624418981734
  0
LINE
  5
615C
  8
0
 10
3.0682792885737151
 20
7.3240457376687358
 30
0.0
 11
3.535654596087431
 21
7.517638835054842
 31
0.0
  0
ARC
  5
615D
  8
0
 10
3.5430244341830468
 20
7.4998464633599147
 30
0.0
 40
0.0192583229821843
 50
67.4944276930605156
 51
112.4999901950022974
  0
LINE
  5
615E
  8
0
 10
3.5503960056874302
 20
7.5176381169548421
 30
0.0
 11
4.0192590285874292
 21
7.3233560062548442
 31
0.0
  0
ARC
  5
615F
  8
0
 10
4.013261896197009
 20
7.3088830647618108
 30
0.0
 40
0.0156662577653042
 50
17.5975894501307586
 51
67.4924186843516054
  0
LINE
  5
6160
  8
0
 10
4.0281950261803319
 20
7.3136194411478419
 30
0.0
 11
4.1502954721814396
 21
7.0342212414270007
 31
0.0
  0
ARC
  5
6161
  8
0
 10
3.0742026484234701
 20
7.3076975451065032
 30
0.0
 40
0.0173882026662208
 50
109.9167209848294959
 51
160.0776379106962963
  0
LINE
  5
6162
  8
0
 10
3.0578550391298789
 20
7.3136225145026819
 30
0.0
 11
2.9425721560508271
 21
7.0353052811405581
 31
0.0
  0
LINE
  5
6163
  8
0
 10
2.976153181415742
 20
6.5613740960354612
 30
0.0
 11
3.0578536158874279
 21
6.3641316958548391
 31
0.0
  0
ARC
  5
6164
  8
0
 10
3.0756644844107219
 20
6.3715091952937994
 30
0.0
 40
0.0192783436924932
 50
202.4999893983872141
 51
242.5900194087925001
  0
LINE
  5
6165
  8
0
 10
3.0667896134874302
 20
6.3543951308548419
 30
0.0
 11
3.5356506924664979
 21
6.1601137345049519
 31
0.0
  0
ARC
  5
6166
  8
0
 10
3.5430243525379921
 20
6.1782676656635962
 30
0.0
 40
0.0195942869062069
 50
247.894275192362187
 51
292.1074258407688262
  0
LINE
  5
6167
  8
0
 10
3.550398551571563
 20
6.1601139534268112
 30
0.0
 11
4.017769353487429
 21
6.3537053993548431
 31
0.0
  0
ARC
  5
6168
  8
0
 10
4.010397774858963
 20
6.371501953321661
 30
0.0
 40
0.0192628529706672
 50
292.5000126735372987
 51
337.4943460702252196
  0
LINE
  5
6169
  8
0
 10
4.0281936029449819
 20
6.3641286225070024
 30
0.0
 11
4.1160117680374357
 21
6.5603230023266796
 31
0.0
  0
ARC
  5
616A
  8
0
 10
3.543024320987429
 20
6.838875568554843
 30
0.0
 40
0.5144981522511534
 50
209.9956718950218999
 51
330.0139108237686969
  0
ARC
  5
616B
  8
0
 10
3.543299913487429
 20
6.9616220079805737
 30
0.0
 40
0.3297338734742681
 50
22.279435479829381
 51
157.7205645201701998
  0
ARC
  5
616C
  8
0
 10
3.5432999134912722
 20
6.7155773263356
 30
0.0
 40
0.3297336392887366
 50
202.279227170738892
 51
337.7206638398679956
  0
LINE
  5
616D
  8
0
 10
3.8484177857874289
 20
7.0866320528548412
 30
0.0
 11
3.8484177857874289
 21
6.5905678991548404
 31
0.0
  0
LINE
  5
616E
  8
0
 10
3.23818204118743
 20
7.0866320528548421
 30
0.0
 11
3.2381818033997658
 21
6.5905684795575317
 31
0.0
  0
ARC
  5
616F
  8
0
 10
3.543299913487429
 20
3.5432999759548411
 30
0.0
 40
3.0708999999999991
 50
95.7021966515141429
 51
84.2978037333383838
  0
ARC
  5
6170
  8
0
 10
3.543299913487429
 20
3.5432999759548411
 30
0.0
 40
3.543299999999999
 50
94.9399347292276445
 51
85.0600647085976362
  0
LINE
  5
6171
  8
0
 10
2.9880358714848501
 20
7.4010681888988472
 30
0.0
 11
3.2214252459801882
 21
7.1611420961590202
 31
0.0
  0
LINE
  5
6172
  8
0
 10
4.1057519834037439
 20
7.3933253563054873
 30
0.0
 11
3.865231793134555
 21
7.1605343314434711
 31
0.0
  0
LINE
  5
6173
  8
0
 10
3.5487851853002161
 20
7.6287578602387782
 30
0.0
 11
3.5430119085210459
 21
7.2940770710949261
 31
0.0
  0
LINE
  5
6174
  8
0
 10
2.9802373962498372
 20
6.2839347192476058
 30
0.0
 11
3.2213156537092749
 21
6.51616716473763
 31
0.0
  0
LINE
  5
6175
  8
0
 10
3.543304838149743
 20
6.3829197188814373
 30
0.0
 11
3.5432081908641231
 21
6.048421112756408
 31
0.0
  0
LINE
  5
6176
  8
0
 10
3.8652279676200192
 20
6.516661791751754
 30
0.0
 11
4.1019953883129903
 21
6.2800894428879861
 31
0.0
  0
ARC
  5
6177
  8
0
 10
3.543024320987429
 20
6.8385999759548408
 30
0.0
 40
0.4554770953092147
 50
213.0298431183605032
 51
326.9797404018523252
  0
ARC
  5
6178
  8
0
 10
3.543024320987429
 20
6.8385999759548408
 30
0.0
 40
0.4554770953092147
 50
29.7314299651181102
 51
150.2781535550946899
  0
ARC
  5
6179
  8
0
 10
3.5439272729828168
 20
6.4524408144944321
 30
0.0
 40
0.0919248648330303
 50
224.7791216400480039
 51
315.4888261354444126
  0
LINE
  5
617A
  8
0
 62
     6
 10
3.543024320987429
 20
6.8385999759548408
 30
0.0
 11
5.9267769347445656
 21
8.914885440608451
 31
0.0
  0
ENDBLK
  5
617E
  8
0
  0
ENDSEC
  0
SECTION
  2
ENTITIES
  0
ATTDEF
  5
3930
  8
DEFPOINTS
 10
2903.6565064609108049
 20
175.9386481596870055
 30
0.0
 40
0.001
  1
K-13507
  3

  2
MODELNUMBER
 70
     0
1001
ACDBATTR
1070
     0
1070
     1
  0
ATTDEF
  5
3931
  8
DEFPOINTS
 10
2903.6565064609108049
 20
175.9369814930203972
 30
0.0
 40
0.001
  1
KELSTON
  3

  2
TRADENAME
 70
     0
1001
ACDBATTR
1070
     0
1070
     1
  0
ATTDEF
  5
3932
  8
DEFPOINTS
 10
2903.6565064609108049
 20
175.9353148263537037
 30
0.0
 40
0.001
  1
TOWEL RING
  3

  2
PRODUCT
 70
     0
1001
ACDBATTR
1070
     0
1070
     1
  0
ARC
  5
6398
  8
0
 10
2903.6589420078239527
 20
175.9334970244819942
 30
0.0
 40
1.205000002
 50
1.7554636874686751
 51
178.2445362514928036
  0
ARC
  5
6399
  8
0
 10
2903.6589420078239527
 20
175.9334970244819942
 30
0.0
 40
1.205000002
 50
201.2721011278084973
 51
338.7278988721914743
  0
ARC
  5
639A
  8
0
 10
2903.6589420078239527
 20
175.9334970244819942
 30
0.0
 40
1.1082402416999999
 50
3.6671796783926318
 51
176.3328202614185045
  0
ARC
  5
639B
  8
0
 10
2903.6589420078239527
 20
175.9334970244819942
 30
0.0
 40
1.1082402416999999
 50
201.335074873171294
 51
338.6649251268286775
  0
ARC
  5
639C
  8
0
 10
2903.6589420078239527
 20
175.9334970244819942
 30
0.0
 40
0.8876630277000002
 50
8.9243085559205433
 51
171.0756913878499859
  0
ARC
  5
639D
  8
0
 10
2903.6589420078239527
 20
175.9334970244819942
 30
0.0
 40
0.8876630277000002
 50
202.2689587875671009
 51
337.7310412124327854
  0
ARC
  5
639E
  8
0
 10
2903.6589420078239527
 20
175.9334970244819942
 30
0.0
 40
0.7901788845911404
 50
11.8696817317067893
 51
168.130318215246092
  0
ARC
  5
639F
  8
0
 10
2903.6589420078239527
 20
175.9334970244819942
 30
0.0
 40
0.7901788845911404
 50
203.2216210783128076
 51
336.7783789216856007
  0
LINE
  5
63A0
  8
0
 10
2903.1841969754100319
 20
176.4189427861959132
 30
0.0
 11
2903.6515722829240076
 21
176.6125358835820123
 31
0.0
  0
ARC
  5
63A1
  8
0
 10
2903.6589421210201181
 20
176.5947435118870033
 30
0.0
 40
0.0192583229821843
 50
67.4944276930547744
 51
112.4999901950015015
  0
LINE
  5
63A2
  8
0
 10
2903.6663136925239996
 20
176.6125351654820008
 30
0.0
 11
2904.1351767154242225
 21
176.4182530547818999
 31
0.0
  0
ARC
  5
63A3
  8
0
 10
2904.1291795830338742
 20
176.4037801132890024
 30
0.0
 40
0.0156662577653042
 50
17.5975894501302292
 51
67.4924186843633862
  0
LINE
  5
63A4
  8
0
 10
2904.1441127130169662
 20
176.4085164896750086
 30
0.0
 11
2904.2662585112138913
 21
176.1290145121043906
 31
0.0
  0
ARC
  5
63A5
  8
0
 10
2903.1901203352599623
 20
176.4025945936336086
 30
0.0
 40
0.0173882026662208
 50
109.9167209848182978
 51
160.0776379106955005
  0
LINE
  5
63A6
  8
0
 10
2903.1737727259669555
 20
176.4085195630298131
 30
0.0
 11
2903.058489842887866
 21
176.1302023296676964
 31
0.0
  0
LINE
  5
63A7
  8
0
 10
2903.0920708682519944
 20
175.6562711445625951
 30
0.0
 11
2903.1737713027241625
 21
175.4590287443820102
 31
0.0
  0
ARC
  5
63A8
  8
0
 10
2903.1915821712477737
 20
175.4664062438208987
 30
0.0
 40
0.0192783436924932
 50
202.4999893983836898
 51
242.5900194087917043
  0
LINE
  5
63A9
  8
0
 10
2903.1827073003241821
 20
175.449292179382013
 30
0.0
 11
2903.6515683793031712
 21
175.2550107830321053
 31
0.0
  0
ARC
  5
63AA
  8
0
 10
2903.6589420393738692
 20
175.273164714190699
 30
0.0
 40
0.0195942869062069
 50
247.8942751923596859
 51
292.1074258407637103
  0
LINE
  5
63AB
  8
0
 10
2903.6663162384079442
 20
175.2550110019539034
 30
0.0
 11
2904.1336870403238208
 21
175.4486024478819957
 31
0.0
  0
ARC
  5
63AC
  8
0
 10
2904.1263154616949578
 20
175.4663990018487993
 30
0.0
 40
0.0192628529706672
 50
292.5000126735338881
 51
337.4943460702301081
  0
LINE
  5
63AD
  8
0
 10
2904.1441112897809944
 20
175.4590256710341123
 30
0.0
 11
2904.2318862711890688
 21
175.6551235742741994
 31
0.0
  0
ARC
  5
63AE
  8
0
 10
2903.6589420078239527
 20
175.9337726170820133
 30
0.0
 40
0.5144981522511534
 50
209.9956718950240884
 51
330.0043281049759116
  0
ARC
  5
63AF
  8
0
 10
2903.6592174814300051
 20
176.0565188793098059
 30
0.0
 40
0.3297340506721919
 50
22.2794561392545489
 51
157.7205438607454084
  0
ARC
  5
63B0
  8
0
 10
2903.6592176003277928
 20
175.8104743748627072
 30
0.0
 40
0.3297336392887366
 50
202.2792271707371867
 51
337.7206638398650966
  0
LINE
  5
63B1
  8
0
 10
2903.9643354726240432
 20
176.1815291013820115
 30
0.0
 11
2903.9643354726240432
 21
175.685464947681993
 31
0.0
  0
LINE
  5
63B2
  8
0
 10
2903.3540994902368766
 20
176.1815291013820115
 30
0.0
 11
2903.3540994902368766
 21
175.6854655280847055
 31
0.0
  0
ARC
  5
63B3
  8
0
 10
2903.6592176003241548
 20
172.6381970244819968
 30
0.0
 40
3.0708999999999991
 50
95.7021966515218878
 51
269.9948580913824117
  0
ARC
  5
63B4
  8
0
 10
2903.6592176061499231
 20
172.6381970193642985
 30
0.0
 40
3.5433000056003601
 50
94.9399311208890566
 51
269.9955435269648092
  0
LINE
  5
63B5
  8
0
 10
2903.1039535583217912
 20
176.4959652374259917
 30
0.0
 11
2903.3373429328171369
 21
176.2560391446862127
 31
0.0
  0
LINE
  5
63B6
  8
0
 10
2904.2216696702412264
 20
176.4882224048326123
 30
0.0
 11
2903.981149479971009
 21
176.2554313799705881
 31
0.0
  0
LINE
  5
63B7
  8
0
 10
2903.664702872136786
 20
176.7236549087658943
 30
0.0
 11
2903.6589295953581313
 21
176.3889741196221053
 31
0.0
  0
LINE
  5
63B8
  8
0
 10
2903.0961550830870692
 20
175.3788317677746988
 30
0.0
 11
2903.3372333405459358
 21
175.6110642132647968
 31
0.0
  0
LINE
  5
63B9
  8
0
 10
2903.6592160524460269
 20
175.4554151495603094
 30
0.0
 11
2903.6591258777011717
 21
175.1433181612835028
 31
0.0
  0
LINE
  5
63BA
  8
0
 10
2903.9811456544571229
 20
175.6115588402788887
 30
0.0
 11
2904.2179130751501361
 21
175.3749864914150862
 31
0.0
  0
ARC
  5
63BB
  8
0
 10
2903.6589420078239527
 20
175.9334970244819942
 30
0.0
 40
0.4554770953092147
 50
213.0298431183657044
 51
326.9701568816344093
  0
ARC
  5
63BC
  8
0
 10
2903.6589420078239527
 20
175.9334970244819942
 30
0.0
 40
0.4554770953092147
 50
29.7218464236959115
 51
150.2781535550934109
  0
ARC
  5
63BD
  8
0
 10
2903.659844959819111
 20
175.5473378630215961
 30
0.0
 40
0.0919248648330303
 50
224.7791216400472081
 51
315.4888261354378187
  0
ARC
  5
63BF
  8
0
 10
2903.6586664153242054
 20
172.6381970244819968
 30
0.0
 40
3.0708999999999991
 50
270.005141908617702
 51
84.2978033484781264
  0
ARC
  5
63C0
  8
0
 10
2903.6586664094979824
 20
172.6381970193642985
 30
0.0
 40
3.5433000056003601
 50
270.0044564730351908
 51
85.0600688791109434
  0
ENDSEC
  0
EOF
