  0
SECTION
  2
HEADER
  9
$ACADVER
  1
AC1009
  9
$INSBASE
 10
2945.2265983330808012
 20
204.4131590960406015
 30
0.0
  9
$EXTMIN
 10
2941.6835739255811859
 20
200.4895009873492882
 30
0.0
  9
$EXTMAX
 10
2948.7696227405808713
 20
204.4198533173365888
 30
0.0
  9
$LIMMIN
 10
0.0
 20
0.0
  9
$LIMMAX
 10
11.6929133858000007
 20
8.2677165353999982
  9
$ORTHOMODE
 70
     0
  9
$REGENMODE
 70
     1
  9
$FILLMODE
 70
     1
  9
$QTEXTMODE
 70
     0
  9
$MIRRTEXT
 70
     0
  9
$DRAGMODE
 70
     2
  9
$LTSCALE
 40
0.6431102362
  9
$OSMODE
 70
  4095
  9
$ATTMODE
 70
     1
  9
$TEXTSIZE
 40
0.2
  9
$TRACEWID
 40
0.05
  9
$TEXTSTYLE
  7
STANDARD
  9
$CLAYER
  8
0
  9
$CELTYPE
  6
BYLAYER
  9
$CECOLOR
 62
   256
  9
$DIMSCALE
 40
1.0
  9
$DIMASZ
 40
0.1875
  9
$DIMEXO
 40
0.0625
  9
$DIMDLI
 40
0.4443307087
  9
$DIMRND
 40
0.0
  9
$DIMDLE
 40
0.0
  9
$DIMEXE
 40
0.125
  9
$DIMTP
 40
0.01
  9
$DIMTM
 40
0.01
  9
$DIMTXT
 40
2.0
  9
$DIMCEN
 40
0.1052362205
  9
$DIMTSZ
 40
0.0
  9
$DIMTOL
 70
     1
  9
$DIMLIM
 70
     0
  9
$DIMTIH
 70
     1
  9
$DIMTOH
 70
     1
  9
$DIMSE1
 70
     0
  9
$DIMSE2
 70
     0
  9
$DIMTAD
 70
     0
  9
$DIMZIN
 70
     0
  9
$DIMBLK
  1

  9
$DIMASO
 70
     1
  9
$DIMSHO
 70
     1
  9
$DIMPOST
  1
\X
  9
$DIMAPOST
  1

  9
$DIMALT
 70
     1
  9
$DIMALTD
 70
     2
  9
$DIMALTF
 40
25.3999999999999986
  9
$DIMLFAC
 40
1.0
  9
$DIMTOFL
 70
     0
  9
$DIMTVP
 40
0.0
  9
$DIMTIX
 70
     0
  9
$DIMSOXD
 70
     0
  9
$DIMSAH
 70
     0
  9
$DIMBLK1
  1

  9
$DIMBLK2
  1

  9
$DIMSTYLE
  2
STANDARD
  9
$DIMCLRD
 70
     0
  9
$DIMCLRE
 70
     0
  9
$DIMCLRT
 70
     0
  9
$DIMTFAC
 40
1.0
  9
$DIMGAP
 40
0.09
  9
$LUNITS
 70
     2
  9
$LUPREC
 70
     4
  9
$SKETCHINC
 40
0.1
  9
$FILLETRAD
 40
0.0
  9
$AUNITS
 70
     0
  9
$AUPREC
 70
     0
  9
$MENU
  1
.
  9
$ELEVATION
 40
0.0
  9
$PELEVATION
 40
0.0
  9
$THICKNESS
 40
0.0
  9
$LIMCHECK
 70
     0
  9
$BLIPMODE
 70
     0
  9
$CHAMFERA
 40
0.0
  9
$CHAMFERB
 40
0.0
  9
$SKPOLY
 70
     0
  9
$TDCREATE
 40
2458060.468368056230247
  9
$TDUPDATE
 40
2458782.6273611108772457
  9
$TDINDWG
 40
1.1572778472
  9
$TDUSRTIMER
 40
1.1572778472
  9
$USRTIMER
 70
     1
  9
$ANGBASE
 50
0.0
  9
$ANGDIR
 70
     0
  9
$PDMODE
 70
     0
  9
$PDSIZE
 40
0.3125
  9
$PLINEWID
 40
0.0
  9
$COORDS
 70
     1
  9
$SPLFRAME
 70
     0
  9
$SPLINETYPE
 70
     6
  9
$SPLINESEGS
 70
     8
  9
$ATTDIA
 70
     1
  9
$ATTREQ
 70
     1
  9
$HANDLING
 70
     1
  9
$HANDSEED
  5
66B9
  9
$SURFTAB1
 70
     6
  9
$SURFTAB2
 70
     6
  9
$SURFTYPE
 70
     6
  9
$SURFU
 70
     6
  9
$SURFV
 70
     6
  9
$UCSNAME
  2

  9
$UCSORG
 10
0.0
 20
0.0
 30
0.0
  9
$UCSXDIR
 10
1.0
 20
0.0
 30
0.0
  9
$UCSYDIR
 10
0.0
 20
1.0
 30
0.0
  9
$PUCSNAME
  2

  9
$PUCSORG
 10
0.0
 20
0.0
 30
0.0
  9
$PUCSXDIR
 10
1.0
 20
0.0
 30
0.0
  9
$PUCSYDIR
 10
0.0
 20
1.0
 30
0.0
  9
$USERI1
 70
     0
  9
$USERI2
 70
     0
  9
$USERI3
 70
     0
  9
$USERI4
 70
     0
  9
$USERI5
 70
     0
  9
$USERR1
 40
0.0
  9
$USERR2
 40
0.0
  9
$USERR3
 40
0.0
  9
$USERR4
 40
0.0
  9
$USERR5
 40
0.0
  9
$WORLDVIEW
 70
     1
  9
$SHADEDGE
 70
     3
  9
$SHADEDIF
 70
    70
  9
$TILEMODE
 70
     1
  9
$MAXACTVP
 70
    64
  9
$PLIMCHECK
 70
     0
  9
$PEXTMIN
 10
1.0000000000000000E+20
 20
1.0000000000000000E+20
 30
1.0000000000000000E+20
  9
$PEXTMAX
 10
-1.0000000000000000E+20
 20
-1.0000000000000000E+20
 30
-1.0000000000000000E+20
  9
$PLIMMIN
 10
0.0
 20
0.0
  9
$PLIMMAX
 10
12.0
 20
9.0
  9
$UNITMODE
 70
     0
  9
$VISRETAIN
 70
     1
  9
$PLINEGEN
 70
     0
  9
$PSLTSCALE
 70
     1
  0
ENDSEC
  0
SECTION
  2
TABLES
  0
TABLE
  2
VPORT
 70
     1
  0
VPORT
  2
*ACTIVE
 70
     0
 10
0.0
 20
0.0
 11
1.0
 21
1.0
 12
0.0
 22
0.0
 13
0.0
 23
0.0
 14
1.0
 24
1.0
 15
0.0
 25
0.0
 16
0.0
 26
0.0
 36
23.2153149026893608
 17
2945.2265625
 27
202.4553566513440899
 37
0.0
 40
8.1006063494053784
 41
2.1491525423728808
 42
50.0
 43
0.0
 44
0.0
 50
0.0
 51
0.0
 71
     0
 72
   100
 73
     1
 74
     1
 75
     0
 76
     0
 77
     0
 78
     0
  0
ENDTAB
  0
TABLE
  2
LTYPE
 70
     2
  0
LTYPE
  2
CONTINUOUS
 70
     0
  3
Solid line
 72
    65
 73
     0
 40
0.0
  0
LTYPE
  2
PHANTOM2
 70
     0
  3
___ _ _ ___ _ _ ___ _ _ ___ _ _
 72
    65
 73
     6
 40
1.25
 49
0.625
 49
-0.125
 49
0.125
 49
-0.125
 49
0.125
 49
-0.125
  0
ENDTAB
  0
TABLE
  2
LAYER
 70
     2
  0
LAYER
  2
0
 70
     0
 62
   255
  6
CONTINUOUS
  0
LAYER
  2
DEFPOINTS
 70
     0
 62
     7
  6
CONTINUOUS
  0
ENDTAB
  0
TABLE
  2
STYLE
 70
     1
  0
STYLE
  2
STANDARD
 70
     0
 40
0.0
 41
0.8
 50
0.0
 71
     0
 42
0.2
  3
txt
  4

  0
ENDTAB
  0
TABLE
  2
VIEW
 70
     0
  0
ENDTAB
  0
TABLE
  2
UCS
 70
     0
  0
ENDTAB
  0
TABLE
  2
APPID
 70
     9
  0
APPID
  2
ACAD
 70
     0
  0
APPID
  2
ACAD_MLEADERVER
 70
     0
  0
APPID
  2
ACAD_EXEMPT_FROM_CAD_STANDARDS
 70
     0
  0
APPID
  2
ACAD_NAV_VCDISPLAY
 70
     0
  0
APPID
  2
ACAECLAYERSTANDARD
 70
     0
  0
APPID
  2
ACCMTRANSPARENCY
 70
     0
  0
APPID
  2
ACAD_DSTYLE_DIMJAG
 70
     0
  0
APPID
  2
ACAD_DSTYLE_DIMTALN
 70
     0
  0
APPID
  2
ACDBATTR
 70
     0
  0
ENDTAB
  0
TABLE
  2
DIMSTYLE
 70
     1
  0
DIMSTYLE
  2
STANDARD
 70
     0
  3

  4

  5

  6

  7

 40
1.0
 41
0.1875
 42
0.0625
 43
0.38
 44
0.125
 45
0.0
 46
0.0
 47
0.01
 48
0.01
140
0.15625
141
0.09
142
0.0
143
25.3999999999999986
144
1.0
145
0.0
146
1.0
147
0.09
 71
     1
 72
     0
 73
     1
 74
     1
 75
     0
 76
     0
 77
     0
 78
     4
170
     0
171
     2
172
     0
173
     0
174
     0
175
     0
176
     0
177
     0
178
     0
  0
ENDTAB
  0
ENDSEC
  0
SECTION
  2
BLOCKS
  0
BLOCK
  8
0
  2
$MODEL_SPACE
 70
     0
 10
0.0
 20
0.0
 30
0.0
  3
$MODEL_SPACE
  1

  0
ENDBLK
  5
21
  8
0
  0
BLOCK
 67
     1
  8
0
  2
$PAPER_SPACE
 70
     0
 10
0.0
 20
0.0
 30
0.0
  3
$PAPER_SPACE
  1

  0
ENDBLK
  5
1D
 67
     1
  8
0
  0
BLOCK
  8
0
  2
_CLOSED
 70
     0
 10
0.0
 20
0.0
 30
0.0
  3
_CLOSED
  1

  0
LINE
  5
57DF
  8
0
  6
BYBLOCK
 62
     0
 10
0.0
 20
0.0
 30
0.0
 11
-1.0
 21
0.1666666667
 31
0.0
  0
LINE
  5
57E0
  8
0
  6
BYBLOCK
 62
     0
 10
-1.0
 20
0.1666666667
 30
0.0
 11
-1.0
 21
-0.1666666667
 31
0.0
  0
LINE
  5
57E1
  8
0
  6
BYBLOCK
 62
     0
 10
-1.0
 20
-0.1666666667
 30
0.0
 11
0.0
 21
0.0
 31
0.0
  0
LINE
  5
57E2
  8
0
  6
BYBLOCK
 62
     0
 10
-1.0
 20
0.0
 30
0.0
 11
0.0
 21
0.0
 31
0.0
  0
ENDBLK
  5
57E3
  8
0
  6
BYBLOCK
 62
     0
  0
ENDSEC
  0
SECTION
  2
ENTITIES
  0
ATTDEF
  5
3930
  8
DEFPOINTS
 10
2945.2242062605309911
 20
204.4188533173366125
 30
0.0
 40
0.001
  1
K-13507
  3

  2
MODELNUMBER
 70
     0
1001
ACDBATTR
1070
     0
1070
     1
  0
ATTDEF
  5
3931
  8
DEFPOINTS
 10
2945.2242062605309911
 20
204.4171866506698905
 30
0.0
 40
0.001
  1
KELSTON
  3

  2
TRADENAME
 70
     0
1001
ACDBATTR
1070
     0
1070
     1
  0
ATTDEF
  5
3932
  8
DEFPOINTS
 10
2945.2242062605309911
 20
204.4155199840031969
 30
0.0
 40
0.001
  1
TOWEL RING
  3

  2
PRODUCT
 70
     0
1001
ACDBATTR
1070
     0
1070
     1
  0
LINE
  5
65DD
  8
0
 10
2946.4315983350811621
 20
204.4131590960406015
 30
0.0
 11
2944.0215983310799857
 21
204.4131590960406015
 31
0.0
  0
LINE
  5
65DE
  8
0
 10
2946.3348385747808607
 20
204.2924114331391934
 30
0.0
 11
2944.1183580913811966
 21
204.292411433140586
 31
0.0
  0
ARC
  5
65DF
  8
0
 10
2946.4908122025190096
 20
203.9226951523569937
 30
0.0
 40
0.4012703587672867
 50
112.873608855329806
 51
159.7840485106603126
  0
ARC
  5
65E0
  8
0
 10
2946.2317978248911459
 20
204.0172619067257926
 30
0.0
 40
0.1255359677083261
 50
159.4354748537884916
 51
166.2222471607286138
  0
ARC
  5
65E1
  8
0
 10
2946.0060159432578075
 20
204.0739436853934876
 30
0.0
 40
0.1072562104854697
 50
301.1185935275942143
 51
345.5387425369492007
  0
ARC
  5
65E2
  8
0
 10
2946.1243425191628376
 20
203.8948519993535058
 30
0.0
 40
0.1075724361872928
 50
125.7803313120141979
 51
179.3401013217734885
  0
LINE
  5
65E3
  8
0
 10
2946.0167772176719154
 20
203.8960909272406923
 30
0.0
 11
2946.0167772176719154
 21
203.776579400363886
 31
0.0
  0
ARC
  5
65E4
  8
0
 10
2945.9929442125230707
 20
203.775910534690297
 30
0.0
 40
0.0238423890523473
 50
336.5822127836524942
 51
1.60756577824993
  0
ARC
  5
65E5
  8
0
 10
2947.6070086202271341
 20
203.1393734276362011
 30
0.0
 40
1.711216480524552
 50
158.503655439453496
 51
183.6840362704782024
  0
ARC
  5
65E6
  8
0
 10
3678.4868562947931423
 20
220.5424046543404017
 30
0.0
 40
732.7968278024984556
 50
181.3694322695832
 51
181.3950468061566141
  0
ARC
  5
65E7
  8
0
 10
2944.830446981392015
 20
202.709867931535797
 30
0.0
 40
1.0768131955339371
 50
323.8601143395296162
 51
359.5767309955144242
  0
ARC
  5
65E8
  8
0
 10
2945.748708299844111
 20
202.0425859109716953
 30
0.0
 40
0.0583522977021552
 50
146.4819888647666914
 51
162.0258108763167968
  0
ARC
  5
65E9
  8
0
 10
2946.0405333429011989
 20
201.9685028842883128
 30
0.0
 40
0.3593303804895346
 50
165.1504423778592923
 51
176.006507947413013
  0
ARC
  5
65EA
  8
0
 10
2945.5803965296408933
 20
201.9130154971009006
 30
0.0
 40
0.1021740064896509
 50
314.9699578465301215
 51
354.3572240645382863
  0
ARC
  5
65EB
  8
0
 10
2948.5745671062841211
 20
198.9157033791323101
 30
0.0
 40
4.1344446186118846
 50
134.9699578465300931
 51
136.5276265243304863
  0
ARC
  5
65EC
  8
0
 10
2945.801962859867217
 20
201.5505386422586867
 30
0.0
 40
0.3096028541257104
 50
137.3699502136036017
 51
200.6663915536202012
  0
ARC
  5
65ED
  8
0
 10
2945.4104856812878097
 20
201.411645738822898
 30
0.0
 40
0.106020311437462
 50
297.238091606184696
 51
16.2265983719503204
  0
ARC
  5
65EE
  8
0
 10
2943.9626478018781199
 20
203.9220361670610941
 30
0.0
 40
0.4017754745879192
 50
20.2483803169967906
 51
67.1975201059472909
  0
ARC
  5
65EF
  8
0
 10
2944.2334596500281805
 20
204.0208508806371981
 30
0.0
 40
0.1135052175466629
 50
13.40187805563124
 51
20.7619269007673992
  0
ARC
  5
65F0
  8
0
 10
2944.4480244046599182
 20
204.0739138958522005
 30
0.0
 40
0.1075320493459838
 50
194.4069681003522021
 51
238.8700623911736045
  0
ARC
  5
65F1
  8
0
 10
2944.3310232990402255
 20
203.8962088982036107
 30
0.0
 40
0.1053961644898752
 50
359.9693908549659227
 51
54.3628271466250794
  0
LINE
  5
65F2
  8
0
 10
2944.4364194484901418
 20
203.8961525923751026
 30
0.0
 11
2944.4364194484901418
 21
203.7765794024707873
 31
0.0
  0
ARC
  5
65F3
  8
0
 10
2942.8491205725449618
 20
203.1387378461257924
 30
0.0
 40
1.7092343132180381
 50
356.326136897613992
 51
21.5454196579946817
  0
ARC
  5
65F4
  8
0
 10
2211.9619985165049911
 20
220.318403450790413
 30
0.0
 40
732.796827802498683
 50
358.6224562363616997
 51
358.6480707729346022
  0
ARC
  5
65F5
  8
0
 10
2945.6238197302400295
 20
202.7099888741958864
 30
0.0
 40
1.0768117417813281
 50
180.4407598936529951
 51
216.1573410485657973
  0
ARC
  5
65F6
  8
0
 10
2944.7057602761769886
 20
202.0424252130279967
 30
0.0
 40
0.0583560343637671
 50
17.9919413991946691
 51
33.5363063544062499
  0
ARC
  5
65F7
  8
0
 10
2944.2468110553099905
 20
201.9580006952118083
 30
0.0
 40
0.5245535607557291
 50
1.7454219160797231
 51
11.2627401657748099
  0
ARC
  5
65F8
  8
0
 10
2944.8790388345942119
 20
201.9161717156393081
 30
0.0
 40
0.1079691357322905
 50
181.7704053386879934
 51
224.4222215117287078
  0
ARC
  5
65F9
  8
0
 10
2941.8808602950812201
 20
198.9146809631984922
 30
0.0
 40
4.1344446186118864
 50
43.4898765181925029
 51
45.0475451959827424
  0
ARC
  5
65FA
  8
0
 10
2944.6553764193699863
 20
201.5517371617225137
 30
0.0
 40
0.3066746811295746
 50
338.887597422792112
 51
42.8026206388256369
  0
ARC
  5
65FB
  8
0
 10
2945.0466539638600807
 20
201.4131107033252874
 30
0.0
 40
0.1088930447099516
 50
165.0114242137559017
 51
241.5382505111741978
  0
LINE
  5
65FC
  8
0
 10
2945.7000592728300035
 20
202.0748079968406046
 30
0.0
 11
2944.7544021264611729
 21
202.0746648958387937
 31
0.0
  0
ARC
  5
65FD
  8
0
 10
2945.7106542691831237
 20
203.7743046653860972
 30
0.0
 40
0.3061313999100466
 50
0.4257450008865785
 51
12.4146033095324793
  0
ARC
  5
65FE
  8
0
 10
2945.9563510173129544
 20
203.8448470766759897
 30
0.0
 40
0.0480918343990624
 50
39.3288765985884723
 51
92.2959060491676127
  0
ARC
  5
65FF
  8
0
 10
2945.9232892313611956
 20
203.821969383325893
 30
0.0
 40
0.0882251784533855
 50
11.8710052768077805
 51
37.2130698669447568
  0
ARC
  5
6600
  8
0
 10
2945.9610682221318712
 20
203.7701828834150888
 30
0.0
 40
0.1228971342899516
 50
93.0989035785165555
 51
120.2585898440893999
  0
ARC
  5
6601
  8
0
 10
2946.1202225396727954
 20
203.5135995576328014
 30
0.0
 40
0.4248006783177701
 50
121.3616671516552969
 51
142.012590803898803
  0
ARC
  5
6602
  8
0
 10
2945.5397103842910838
 20
203.5749840869401908
 30
0.0
 40
0.3168629900173572
 50
39.1553586941590765
 51
72.5319267263201652
  0
ARC
  5
6603
  8
0
 10
2945.5326669386709
 20
203.5526017444944955
 30
0.0
 40
0.3403274179788158
 50
72.5319219618380657
 51
90.7461231937620028
  0
ARC
  5
6604
  8
0
 10
2945.5341454914041606
 20
203.4390681573237032
 30
0.0
 40
0.4538706323689984
 50
90.7461231937620028
 51
109.9135563212067979
  0
ARC
  5
6605
  8
0
 10
2945.5285782062028375
 20
203.4544362509797111
 30
0.0
 40
0.4375252058794989
 50
109.9135563212067979
 51
124.3778289985237961
  0
ARC
  5
6606
  8
0
 10
2945.7941035869548614
 20
203.066324129656806
 30
0.0
 40
0.9077748699318043
 50
124.3778289985237961
 51
128.671706954014013
  0
ARC
  5
6607
  8
0
 10
2944.4819811626421142
 20
203.7824511605923021
 30
0.0
 40
0.0459385169544798
 50
187.3435068809014865
 51
200.4046414466214117
  0
ARC
  5
6608
  8
0
 10
2944.8026041946559417
 20
203.7644340830181875
 30
0.0
 40
0.3663861038709363
 50
168.0786372838365139
 51
178.1003563033052046
  0
ARC
  5
6609
  8
0
 10
2944.4973953584958508
 20
203.8448490051571014
 30
0.0
 40
0.0480894728538974
 50
87.7021261993448036
 51
140.6717853468369128
  0
ARC
  5
660A
  8
0
 10
2944.5304586188999565
 20
203.8219693851835927
 30
0.0
 40
0.0882251784533855
 50
142.7869299802171099
 51
168.1289945703603905
  0
ARC
  5
660B
  8
0
 10
2944.4926831725829288
 20
203.7701910495864013
 30
0.0
 40
0.122888296241215
 50
59.7409193770586882
 51
86.9024904192421133
  0
ARC
  5
660C
  8
0
 10
2944.333525273145824
 20
203.5135995105731013
 30
0.0
 40
0.4248007395943877
 50
37.987407848824752
 51
58.6383319487612624
  0
ARC
  5
660D
  8
0
 10
2944.9140373342161183
 20
203.5749843588104966
 30
0.0
 40
0.3168626921290607
 50
107.4680652204472011
 51
140.8446648562706116
  0
ARC
  5
660E
  8
0
 10
2944.9210809108708418
 20
203.5526017453101986
 30
0.0
 40
0.3403274179788158
 50
89.253876653411865
 51
107.4680778853105068
  0
ARC
  5
660F
  8
0
 10
2944.9196023578351742
 20
203.4390681581434137
 30
0.0
 40
0.4538706323689984
 50
70.086443525961684
 51
89.253876653411865
  0
ARC
  5
6610
  8
0
 10
2944.9251696430769698
 20
203.4544362517843865
 30
0.0
 40
0.4375252058794989
 50
55.6221708486487927
 51
70.086443525961684
  0
ARC
  5
6611
  8
0
 10
2944.6596442612899409
 20
203.0663241311698073
 30
0.0
 40
0.9077748699318043
 50
51.32829289314666
 51
55.6221708486478832
  0
ARC
  5
6612
  8
0
 10
2945.7619920972310865
 20
203.7877683035212044
 30
0.0
 40
0.0266508737752074
 50
314.9147070290819102
 51
331.5190720301496867
  0
ARC
  5
6613
  8
0
 10
2947.9370563295638021
 20
203.1478529252549947
 30
0.0
 40
2.2439019513751899
 50
163.9325416478160093
 51
183.0258974445268052
  0
LINE
  5
6614
  8
0
 10
2945.696282877629983
 20
203.0294033389405968
 30
0.0
 11
2945.6996028259309242
 21
202.8701221279407036
 31
0.0
  0
ARC
  5
6615
  8
0
 10
2942.1121525001308328
 20
202.7159730132777042
 30
0.0
 40
3.590760614358766
 50
357.9963994641727822
 51
2.46042822419356
  0
ARC
  5
6616
  8
0
 10
2944.50595309352002
 20
202.6515959482306073
 30
0.0
 40
1.196329324271233
 50
335.6253094312783105
 51
357.0693871588176762
  0
LINE
  5
6617
  8
0
 10
2945.5956488641309079
 20
202.1578683111405894
 30
0.0
 11
2945.5614575779618463
 21
202.074787023022111
 31
0.0
  0
ARC
  5
6618
  8
0
 10
2944.6917555507848192
 20
203.7877681270315975
 30
0.0
 40
0.0266506051110385
 50
208.4808517671912114
 51
225.0853348912339982
  0
ARC
  5
6619
  8
0
 10
2942.5166915219519979
 20
203.1478529252549947
 30
0.0
 40
2.2439019513751899
 50
356.9741025554732232
 51
16.0674583521823706
  0
LINE
  5
661A
  8
0
 10
2944.757464973883998
 20
203.0294033389405968
 30
0.0
 11
2944.7541450255839663
 21
202.8701221279407036
 31
0.0
  0
ARC
  5
661B
  8
0
 10
2948.3415953513840577
 20
202.7159730132777042
 30
0.0
 40
3.590760614358766
 50
177.5395717758063938
 51
182.0036005358271041
  0
ARC
  5
661C
  8
0
 10
2945.9477947579948705
 20
202.6515959482306073
 30
0.0
 40
1.196329324271233
 50
182.9306128411822101
 51
204.3746905687216895
  0
LINE
  5
661D
  8
0
 10
2944.8580989873848921
 20
202.1578683111405894
 30
0.0
 11
2944.8923332756589843
 21
202.0746857681874076
 31
0.0
  0
ARC
  5
661E
  8
0
 10
2945.4543242044801445
 20
201.3267200945429067
 30
0.0
 40
0.0104480184223866
 50
269.4042312863613802
 51
296.6467792727219148
  0
LINE
  5
661F
  8
0
 10
2945.454215566629955
 20
201.3162726409406105
 30
0.0
 11
2944.9993150086302194
 21
201.3162726409406105
 31
0.0
  0
ARC
  5
6620
  8
0
 10
2944.9995896998648277
 20
201.3273399609940952
 30
0.0
 40
0.0110707284511278
 50
244.1264993450957093
 51
268.5782088467159952
  0
ARC
  5
6621
  8
0
 10
2944.2172355829939079
 20
204.4176569513780066
 30
0.0
 40
0.1956889497103544
 50
181.3170433208038048
 51
206.8009644238890132
  0
ARC
  5
6622
  8
0
 10
2944.1187694712461962
 20
204.3893602759376051
 30
0.0
 40
0.0969497155904168
 50
218.1875918681593873
 51
269.7568801450756268
  0
ARC
  5
6623
  8
0
 10
2946.2465397291521185
 20
204.4139259243412994
 30
0.0
 40
0.185060194677489
 50
332.8302706590346816
 51
359.7625845414946184
  0
ARC
  5
6624
  8
0
 10
2946.3345909554677746
 20
204.3901614212188065
 30
0.0
 40
0.0977503017124487
 50
270.1451407969041156
 51
321.5837128778200054
  0
LINE
  5
6625
  8
0
 10
2946.061447151530956
 20
203.9821217063407062
 30
0.0
 11
2944.3924324141380566
 21
203.9818667762534119
 31
0.0
  0
LINE
  5
6626
  8
0
 10
2945.2268739250680483
 20
203.7750594294371922
 30
0.0
 11
2945.2268739254809589
 21
202.0747363923510989
 31
0.0
  0
ARC
  5
6627
  8
0
 10
2945.2268739238911621
 20
201.0652789265020033
 30
0.0
 40
0.3297338634777529
 50
130.4298185540413044
 51
157.7206769707323986
  0
ARC
  5
6628
  8
0
 10
2945.2268768084809381
 20
201.0652815896291088
 30
0.0
 40
0.3297299677916107
 50
22.27910033995418
 51
49.5702624380917101
  0
ARC
  5
6629
  8
0
 10
2945.2268738067518825
 20
200.8192346834462114
 30
0.0
 40
0.3297336960969626
 50
202.2793057290743945
 51
337.7206942114682988
  0
LINE
  5
662A
  8
0
 10
2945.5319917978808917
 20
200.6942253964664076
 30
0.0
 11
2945.5319917978808917
 21
201.1902883690598003
 31
0.0
  0
LINE
  5
662B
  8
0
 10
2944.9217558154928156
 20
201.1902883687519079
 30
0.0
 11
2944.9217558154928156
 21
200.6942253967831107
 31
0.0
  0
LINE
  5
662C
  8
0
 10
2944.9217555997802265
 20
201.1783590960405945
 30
0.0
 11
2941.9198249631808721
 21
201.1783590960405945
 31
0.0
  0
LINE
  5
662D
  8
0
 10
2941.9198249631808721
 20
200.7059590960406013
 30
0.0
 11
2944.9217558153541177
 21
200.7059590960406013
 31
0.0
  0
LINE
  5
662E
  8
0
 10
2945.5319924457808156
 20
201.1783590960405945
 30
0.0
 11
2948.5333717029811851
 21
201.1783590960405945
 31
0.0
  0
LINE
  5
662F
  8
0
 10
2945.5319922452799801
 20
200.7059590960406013
 30
0.0
 11
2948.5333717030212028
 21
200.7059590960406013
 31
0.0
  0
ARC
  5
6630
  8
0
 10
2941.9197739310939141
 20
200.9421590960405979
 30
0.0
 40
0.2362000055128541
 50
89.987620985755342
 51
270.0123790142445728
  0
LINE
  5
6631
  8
0
 10
2944.7711212377707852
 20
201.9739778873405953
 30
0.0
 11
2944.7711212377707852
 21
201.9128360647405884
 31
0.0
  0
LINE
  5
6632
  8
0
 10
2945.6820754283899078
 20
201.9935277892203089
 30
0.0
 11
2945.6820754283899078
 21
201.9029691469496015
 31
0.0
  0
ARC
  5
6634
  8
0
 10
2948.5334227350681431
 20
200.9421590960405979
 30
0.0
 40
0.2362000055128541
 50
269.9876209857554272
 51
90.0123790142446438
  0
ENDSEC
  0
EOF
