  0
SECTION
  2
HEADER
  9
$ACADVER
  1
AC1009
  9
$INSBASE
 10
2878.8915088452959026
 20
166.7140661025420059
 30
0.0
  9
$EXTMIN
 10
2874.9678507365961195
 20
159.8754661025419921
 30
0.0
  9
$EXTMAX
 10
2878.9048878386429351
 20
167.9190661045419972
 30
0.0
  9
$LIMMIN
 10
0.0
 20
0.0
  9
$LIMMAX
 10
11.6929133858000007
 20
8.2677165353999982
  9
$ORTHOMODE
 70
     0
  9
$REGENMODE
 70
     1
  9
$FILLMODE
 70
     1
  9
$QTEXTMODE
 70
     0
  9
$MIRRTEXT
 70
     0
  9
$DRAGMODE
 70
     2
  9
$LTSCALE
 40
0.6431102362
  9
$OSMODE
 70
  4095
  9
$ATTMODE
 70
     1
  9
$TEXTSIZE
 40
0.2
  9
$TRACEWID
 40
0.05
  9
$TEXTSTYLE
  7
STANDARD
  9
$CLAYER
  8
0
  9
$CELTYPE
  6
BYLAYER
  9
$CECOLOR
 62
   256
  9
$DIMSCALE
 40
1.0
  9
$DIMASZ
 40
0.1875
  9
$DIMEXO
 40
0.0625
  9
$DIMDLI
 40
0.4443307087
  9
$DIMRND
 40
0.0
  9
$DIMDLE
 40
0.0
  9
$DIMEXE
 40
0.125
  9
$DIMTP
 40
0.01
  9
$DIMTM
 40
0.01
  9
$DIMTXT
 40
2.0
  9
$DIMCEN
 40
0.1052362205
  9
$DIMTSZ
 40
0.0
  9
$DIMTOL
 70
     1
  9
$DIMLIM
 70
     0
  9
$DIMTIH
 70
     1
  9
$DIMTOH
 70
     1
  9
$DIMSE1
 70
     0
  9
$DIMSE2
 70
     0
  9
$DIMTAD
 70
     0
  9
$DIMZIN
 70
     0
  9
$DIMBLK
  1

  9
$DIMASO
 70
     1
  9
$DIMSHO
 70
     1
  9
$DIMPOST
  1
\X
  9
$DIMAPOST
  1

  9
$DIMALT
 70
     1
  9
$DIMALTD
 70
     2
  9
$DIMALTF
 40
25.3999999999999986
  9
$DIMLFAC
 40
1.0
  9
$DIMTOFL
 70
     0
  9
$DIMTVP
 40
0.0
  9
$DIMTIX
 70
     0
  9
$DIMSOXD
 70
     0
  9
$DIMSAH
 70
     0
  9
$DIMBLK1
  1

  9
$DIMBLK2
  1

  9
$DIMSTYLE
  2
STANDARD
  9
$DIMCLRD
 70
     0
  9
$DIMCLRE
 70
     0
  9
$DIMCLRT
 70
     0
  9
$DIMTFAC
 40
1.0
  9
$DIMGAP
 40
0.09
  9
$LUNITS
 70
     2
  9
$LUPREC
 70
     4
  9
$SKETCHINC
 40
0.1
  9
$FILLETRAD
 40
0.0
  9
$AUNITS
 70
     0
  9
$AUPREC
 70
     0
  9
$MENU
  1
.
  9
$ELEVATION
 40
0.0
  9
$PELEVATION
 40
0.0
  9
$THICKNESS
 40
0.0
  9
$LIMCHECK
 70
     0
  9
$BLIPMODE
 70
     0
  9
$CHAMFERA
 40
0.0
  9
$CHAMFERB
 40
0.0
  9
$SKPOLY
 70
     0
  9
$TDCREATE
 40
2458060.468368056230247
  9
$TDUPDATE
 40
2458782.6279398151673377
  9
$TDINDWG
 40
1.1588315509
  9
$TDUSRTIMER
 40
1.1588315509
  9
$USRTIMER
 70
     1
  9
$ANGBASE
 50
0.0
  9
$ANGDIR
 70
     0
  9
$PDMODE
 70
     0
  9
$PDSIZE
 40
0.3125
  9
$PLINEWID
 40
0.0
  9
$COORDS
 70
     1
  9
$SPLFRAME
 70
     0
  9
$SPLINETYPE
 70
     6
  9
$SPLINESEGS
 70
     8
  9
$ATTDIA
 70
     1
  9
$ATTREQ
 70
     1
  9
$HANDLING
 70
     1
  9
$HANDSEED
  5
6578
  9
$SURFTAB1
 70
     6
  9
$SURFTAB2
 70
     6
  9
$SURFTYPE
 70
     6
  9
$SURFU
 70
     6
  9
$SURFV
 70
     6
  9
$UCSNAME
  2

  9
$UCSORG
 10
0.0
 20
0.0
 30
0.0
  9
$UCSXDIR
 10
1.0
 20
0.0
 30
0.0
  9
$UCSYDIR
 10
0.0
 20
1.0
 30
0.0
  9
$PUCSNAME
  2

  9
$PUCSORG
 10
0.0
 20
0.0
 30
0.0
  9
$PUCSXDIR
 10
1.0
 20
0.0
 30
0.0
  9
$PUCSYDIR
 10
0.0
 20
1.0
 30
0.0
  9
$USERI1
 70
     0
  9
$USERI2
 70
     0
  9
$USERI3
 70
     0
  9
$USERI4
 70
     0
  9
$USERI5
 70
     0
  9
$USERR1
 40
0.0
  9
$USERR2
 40
0.0
  9
$USERR3
 40
0.0
  9
$USERR4
 40
0.0
  9
$USERR5
 40
0.0
  9
$WORLDVIEW
 70
     1
  9
$SHADEDGE
 70
     3
  9
$SHADEDIF
 70
    70
  9
$TILEMODE
 70
     1
  9
$MAXACTVP
 70
    64
  9
$PLIMCHECK
 70
     0
  9
$PEXTMIN
 10
1.0000000000000000E+20
 20
1.0000000000000000E+20
 30
1.0000000000000000E+20
  9
$PEXTMAX
 10
-1.0000000000000000E+20
 20
-1.0000000000000000E+20
 30
-1.0000000000000000E+20
  9
$PLIMMIN
 10
0.0
 20
0.0
  9
$PLIMMAX
 10
12.0
 20
9.0
  9
$UNITMODE
 70
     0
  9
$VISRETAIN
 70
     1
  9
$PLINEGEN
 70
     0
  9
$PSLTSCALE
 70
     1
  0
ENDSEC
  0
SECTION
  2
TABLES
  0
TABLE
  2
VPORT
 70
     1
  0
VPORT
  2
*ACTIVE
 70
     0
 10
0.0
 20
0.0
 11
1.0
 21
1.0
 12
0.0
 22
0.0
 13
0.0
 23
0.0
 14
1.0
 24
1.0
 15
0.0
 25
0.0
 16
0.0
 26
0.0
 36
25.6604748154285787
 17
2876.9371851304172196
 27
163.8977737426758097
 37
0.0
 40
8.9538051105452645
 41
2.1491525423728808
 42
50.0
 43
0.0
 44
0.0
 50
0.0
 51
0.0
 71
     0
 72
   100
 73
     1
 74
     1
 75
     0
 76
     0
 77
     0
 78
     0
  0
ENDTAB
  0
TABLE
  2
LTYPE
 70
     3
  0
LTYPE
  2
CONTINUOUS
 70
     0
  3
Solid line
 72
    65
 73
     0
 40
0.0
  0
LTYPE
  2
PHANTOM2
 70
     0
  3
___ _ _ ___ _ _ ___ _ _ ___ _ _
 72
    65
 73
     6
 40
1.25
 49
0.625
 49
-0.125
 49
0.125
 49
-0.125
 49
0.125
 49
-0.125
  0
ENDTAB
  0
TABLE
  2
LAYER
 70
     2
  0
LAYER
  2
0
 70
     0
 62
   255
  6
CONTINUOUS
  0
LAYER
  2
DEFPOINTS
 70
     0
 62
     7
  6
CONTINUOUS
  0
ENDTAB
  0
TABLE
  2
STYLE
 70
     1
  0
STYLE
  2
STANDARD
 70
     0
 40
0.0
 41
0.8
 50
0.0
 71
     0
 42
0.2
  3
txt
  4

  0
ENDTAB
  0
TABLE
  2
VIEW
 70
     0
  0
ENDTAB
  0
TABLE
  2
UCS
 70
     0
  0
ENDTAB
  0
TABLE
  2
APPID
 70
     9
  0
APPID
  2
ACAD
 70
     0
  0
APPID
  2
ACAD_MLEADERVER
 70
     0
  0
APPID
  2
ACAD_EXEMPT_FROM_CAD_STANDARDS
 70
     0
  0
APPID
  2
ACAD_NAV_VCDISPLAY
 70
     0
  0
APPID
  2
ACAECLAYERSTANDARD
 70
     0
  0
APPID
  2
ACCMTRANSPARENCY
 70
     0
  0
APPID
  2
ACAD_DSTYLE_DIMJAG
 70
     0
  0
APPID
  2
ACAD_DSTYLE_DIMTALN
 70
     0
  0
APPID
  2
ACDBATTR
 70
     0
  0
ENDTAB
  0
TABLE
  2
DIMSTYLE
 70
     2
  0
DIMSTYLE
  2
STANDARD
 70
     0
  3

  4

  5

  6

  7

 40
1.0
 41
0.1875
 42
0.0625
 43
0.38
 44
0.125
 45
0.0
 46
0.0
 47
0.01
 48
0.01
140
0.15625
141
0.09
142
0.0
143
25.3999999999999986
144
1.0
145
0.0
146
1.0
147
0.09
 71
     1
 72
     0
 73
     1
 74
     1
 75
     0
 76
     0
 77
     0
 78
     4
170
     0
171
     2
172
     0
173
     0
174
     0
175
     0
176
     0
177
     0
178
     0
  0
ENDTAB
  0
ENDSEC
  0
SECTION
  2
BLOCKS
  0
BLOCK
  8
0
  2
$MODEL_SPACE
 70
     0
 10
0.0
 20
0.0
 30
0.0
  3
$MODEL_SPACE
  1

  0
ENDBLK
  5
21
  8
0
  0
BLOCK
 67
     1
  8
0
  2
$PAPER_SPACE
 70
     0
 10
0.0
 20
0.0
 30
0.0
  3
$PAPER_SPACE
  1

  0
ENDBLK
  5
1D
 67
     1
  8
0
  0
BLOCK
  8
0
  2
_CLOSED
 70
     0
 10
0.0
 20
0.0
 30
0.0
  3
_CLOSED
  1

  0
LINE
  5
57DF
  8
0
  6
BYBLOCK
 62
     0
 10
0.0
 20
0.0
 30
0.0
 11
-1.0
 21
0.1666666667
 31
0.0
  0
LINE
  5
57E0
  8
0
  6
BYBLOCK
 62
     0
 10
-1.0
 20
0.1666666667
 30
0.0
 11
-1.0
 21
-0.1666666667
 31
0.0
  0
LINE
  5
57E1
  8
0
  6
BYBLOCK
 62
     0
 10
-1.0
 20
-0.1666666667
 30
0.0
 11
0.0
 21
0.0
 31
0.0
  0
LINE
  5
57E2
  8
0
  6
BYBLOCK
 62
     0
 10
-1.0
 20
0.0
 30
0.0
 11
0.0
 21
0.0
 31
0.0
  0
ENDBLK
  5
57E3
  8
0
  6
BYBLOCK
 62
     0
  0
ENDSEC
  0
SECTION
  2
ENTITIES
  0
ATTDEF
  5
3930
  8
DEFPOINTS
 10
2878.8942211719740953
 20
166.7160385966753893
 30
0.0
 40
0.001
  1
K-13507
  3

  2
MODELNUMBER
 70
     0
1001
ACDBATTR
1070
     0
1070
     1
  0
ATTDEF
  5
3931
  8
DEFPOINTS
 10
2878.8942211719740953
 20
166.7143719300088094
 30
0.0
 40
0.001
  1
KELSTON
  3

  2
TRADENAME
 70
     0
1001
ACDBATTR
1070
     0
1070
     1
  0
ATTDEF
  5
3932
  8
DEFPOINTS
 10
2878.8942211719740953
 20
166.7127052633420874
 30
0.0
 40
0.001
  1
TOWEL RING
  3

  2
PRODUCT
 70
     0
1001
ACDBATTR
1070
     0
1070
     1
  0
LINE
  5
6498
  8
0
 10
2878.8915088452959026
 20
165.5090661005419861
 30
0.0
 11
2878.8915088452959026
 21
167.9190661045419972
 31
0.0
  0
LINE
  5
6499
  8
0
 10
2878.7708306790600545
 20
165.6058258608420033
 30
0.0
 11
2878.7706904620258683
 21
167.8223063442420084
 31
0.0
  0
ARC
  5
649A
  8
0
 10
2878.4014625366698965
 20
165.4506391487958865
 30
0.0
 40
0.4006441565879121
 50
22.789274190366779
 51
69.8062334503850082
  0
ARC
  5
649B
  8
0
 10
2878.4956746900161306
 20
165.7091167128920972
 30
0.0
 40
0.1255359677083261
 50
69.439068697636813
 51
76.2258410045754005
  0
ARC
  5
649C
  8
0
 10
2878.5523423065378665
 20
165.9349021494113003
 30
0.0
 40
0.1072562104854697
 50
211.1221873714447099
 51
255.542336380795291
  0
ARC
  5
649D
  8
0
 10
2878.3679387074789702
 20
165.8056756492186139
 30
0.0
 40
0.118392969869699
 50
38.5545465061634616
 51
86.8278760912868393
  0
LINE
  5
649E
  8
0
 10
2878.3744900685910579
 20
165.9238872179508917
 30
0.0
 11
2878.2549786947870416
 21
165.9238872179508917
 31
0.0
  0
ARC
  5
649F
  8
0
 10
2878.2561501200161729
 20
165.9539199222161017
 30
0.0
 40
0.0300555412951683
 50
247.8824394774547955
 51
267.7663111953280008
  0
ARC
  5
64A0
  8
0
 10
2877.6178724719361526
 20
164.3338508552257053
 30
0.0
 40
1.711216480524552
 50
68.5072492832866118
 51
93.6876301143251169
  0
ARC
  5
64A1
  8
0
 10
2895.0667476699659346
 20
-566.5449037867444986
 30
0.0
 40
732.7968278024984556
 50
91.3730261134239043
 51
91.3986406499830792
  0
ARC
  5
64A2
  8
0
 10
2877.1881928184971002
 20
167.1103855481212861
 30
0.0
 40
1.0768131955339371
 50
233.8637081833682032
 51
269.5803248393477816
  0
ARC
  5
64A3
  8
0
 10
2876.5209683966418197
 20
166.1920823766058959
 30
0.0
 40
0.0583522977021552
 50
56.4855827086036868
 51
72.029404720146573
  0
ARC
  5
64A4
  8
0
 10
2876.4599049838698193
 20
166.0267814384712892
 30
0.0
 40
0.2345358697092597
 50
70.2984817104495647
 51
89.5538266136744454
  0
ARC
  5
64A5
  8
0
 10
2876.4163157688249157
 20
166.4491486176005139
 30
0.0
 40
0.1880514828796744
 50
238.87339473935981
 51
267.2723189330013724
  0
ARC
  5
64A6
  8
0
 10
2873.3942631212730703
 20
163.3660274438701094
 30
0.0
 40
4.1344446186118846
 50
44.973551690371778
 51
46.5312203681656911
  0
ARC
  5
64A7
  8
0
 10
2876.0269709142708052
 20
166.1296576030808865
 30
0.0
 40
0.3176859656798347
 50
48.2306009072134501
 51
109.7494113072984021
  0
ARC
  5
64A8
  8
0
 10
2878.3999707183997998
 20
167.9787988820345106
 30
0.0
 40
0.4023966236172976
 50
290.2703226768173863
 51
337.1138526440137184
  0
ARC
  5
64A9
  8
0
 10
2878.4991383193419097
 20
167.7074551089395982
 30
0.0
 40
0.1135052175466629
 50
283.4054718994777886
 51
290.7655207445960173
  0
ARC
  5
64AA
  8
0
 10
2878.5522147929000312
 20
167.4928936830768009
 30
0.0
 40
0.1075320493459838
 50
104.4105619441965018
 51
148.8736562350119925
  0
ARC
  5
64AB
  8
0
 10
2878.3740681833742201
 20
167.6101471386581068
 30
0.0
 40
0.1059026444105901
 50
270.1748064671522798
 51
324.3874386802306731
  0
LINE
  5
64AC
  8
0
 10
2878.374391286376067
 20
167.5042449871332053
 30
0.0
 11
2878.2548796090632095
 21
167.5042449871332053
 31
0.0
  0
ARC
  5
64AD
  8
0
 10
2877.6169384547170012
 20
169.0917388536817896
 30
0.0
 40
1.7092343132180381
 50
266.3297307414445072
 51
291.5490135018202977
  0
ARC
  5
64AE
  8
0
 10
2894.7507595637448503
 20
899.9799370562882359
 30
0.0
 40
732.796827802498683
 50
268.6260500802002866
 51
268.6516646167680733
  0
ARC
  5
64AF
  8
0
 10
2877.188363524991928
 20
166.3170128084194914
 30
0.0
 40
1.0768117417813281
 50
90.4443537374985738
 51
126.1609348924041001
  0
ARC
  5
64B0
  8
0
 10
2876.5207422804019188
 20
167.2350303881410127
 30
0.0
 40
0.0583560343637671
 50
287.9955352430372955
 51
303.5399001982564755
  0
ARC
  5
64B1
  8
0
 10
2876.4349628178770217
 20
167.5853379294836998
 30
0.0
 40
0.4188758047600433
 50
272.375237000336881
 51
284.3488791032892777
  0
ARC
  5
64B2
  8
0
 10
2876.3912352452380219
 20
167.0666674447614923
 30
0.0
 40
0.1021740064896509
 50
101.410407558227007
 51
135.051139039817599
  0
ARC
  5
64B3
  8
0
 10
2873.3928208465467833
 20
170.0597341777757947
 30
0.0
 40
4.1344446186118864
 50
313.4934703620230039
 51
315.051139039817599
  0
ARC
  5
64B4
  8
0
 10
2876.0271911703598562
 20
167.3012589755342958
 30
0.0
 40
0.3203830699032468
 50
250.3818547349110872
 51
311.2520249943203794
  0
LINE
  5
64B5
  8
0
 10
2876.5531874309658633
 20
166.2407334246350956
 30
0.0
 11
2876.5529850141811039
 21
167.1863905601690021
 31
0.0
  0
ARC
  5
64B6
  8
0
 10
2878.2488987082920175
 20
166.2530626040723121
 30
0.0
 40
0.3292315310901872
 50
271.0581531120719774
 51
282.2077361080151263
  0
ARC
  5
64B7
  8
0
 10
2878.3232425830678949
 20
165.9845527053103069
 30
0.0
 40
0.0480918343990624
 50
309.3324704424105107
 51
2.2994998930102182
  0
ARC
  5
64B8
  8
0
 10
2878.3003628159822256
 20
166.0176130562078072
 30
0.0
 40
0.0882251784533855
 50
281.8745991206532722
 51
307.2166637107878273
  0
ARC
  5
64B9
  8
0
 10
2878.248578685837856
 20
165.9798308172321128
 30
0.0
 40
0.1228971342899516
 50
3.1024974223652642
 51
30.2621836879314401
  0
ARC
  5
64BA
  8
0
 10
2877.9920053434198053
 20
165.8206604059674021
 30
0.0
 40
0.4248006783177701
 50
31.3652609955030997
 51
52.0161846477469823
  0
ARC
  5
64BB
  8
0
 10
2878.05335346032507
 20
166.4011764105156885
 30
0.0
 40
0.3168629900173572
 50
309.1589525380063037
 51
342.5355205701562795
  0
ARC
  5
64BC
  8
0
 10
2878.0309706761281632
 20
166.4082184522029877
 30
0.0
 40
0.3403274179788158
 50
342.5355158056864866
 51
0.7497170375952033
  0
ARC
  5
64BD
  8
0
 10
2877.917437181922196
 20
166.4067327781461927
 30
0.0
 40
0.4538706323689984
 50
0.7497170375952033
 51
19.9171501650525791
  0
ARC
  5
64BE
  8
0
 10
2877.932804926343124
 20
166.4123010272905958
 30
0.0
 40
0.4375252058794989
 50
19.9171501650525791
 51
34.3814228423574093
  0
ARC
  5
64BF
  8
0
 10
2877.5447094607047802
 20
166.1467513029579095
 30
0.0
 40
0.9077748699318043
 50
34.3814228423574093
 51
38.6753007978609489
  0
ARC
  5
64C0
  8
0
 10
2878.2569291229578994
 20
167.471300856103511
 30
0.0
 40
0.0330078214444448
 50
93.5598860443853368
 51
111.6803315670620975
  0
ARC
  5
64C1
  8
0
 10
2878.247398894699927
 20
167.1662904147580946
 30
0.0
 40
0.3380373560371179
 50
77.8720983822800292
 51
88.7319497538447308
  0
ARC
  5
64C2
  8
0
 10
2878.3231529994191078
 20
167.4435083613776101
 30
0.0
 40
0.0480894728538974
 50
357.7057200431891033
 51
50.675379190681042
  0
ARC
  5
64C3
  8
0
 10
2878.3002754533640655
 20
167.4104436659278861
 30
0.0
 40
0.0882251784533855
 50
52.7905238240626673
 51
78.1325884142059977
  0
ARC
  5
64C4
  8
0
 10
2878.2484947484258555
 20
167.4482158644051992
 30
0.0
 40
0.122888296241215
 50
329.7445132208919745
 51
356.9060842630798902
  0
ARC
  5
64C5
  8
0
 10
2877.9918932268328717
 20
167.6073576689767037
 30
0.0
 40
0.4248007395943877
 50
307.991001692663815
 51
328.6419257926016257
  0
ARC
  5
64C6
  8
0
 10
2878.0533144872251796
 20
167.0268494593780133
 30
0.0
 40
0.3168626921290607
 50
17.4716590642844487
 51
50.8482587001176185
  0
ARC
  5
64C7
  8
0
 10
2878.0309323155720449
 20
167.0198044787998981
 30
0.0
 40
0.3403274179788158
 50
359.2574704972490167
 51
17.471671729162729
  0
ARC
  5
64C8
  8
0
 10
2877.9173986358869115
 20
167.0212759105054943
 30
0.0
 40
0.4538706323689984
 50
340.0900373697959935
 51
359.2574704972490167
  0
ARC
  5
64C9
  8
0
 10
2877.9327670787029092
 20
167.0157095892292887
 30
0.0
 40
0.4375252058794989
 50
325.6257646924831874
 51
340.0900373697959935
  0
ARC
  5
64CA
  8
0
 10
2877.5446383039297871
 20
167.2812106263914131
 30
0.0
 40
0.9077748699318043
 50
321.3318867369806071
 51
325.6257646924831874
  0
ARC
  5
64CB
  8
0
 10
2877.6291607121202105
 20
164.0953791242974944
 30
0.0
 40
2.1526153341083951
 50
73.1413478870827447
 51
93.2324157871898649
  0
LINE
  5
64CC
  8
0
 10
2877.507782534315993
 20
166.2445696962550983
 30
0.0
 11
2877.3485015318710794
 21
166.2412397571420115
 31
0.0
  0
ARC
  5
64CD
  8
0
 10
2877.1941273968150199
 20
169.8286804069724951
 30
0.0
 40
3.590760614358766
 50
267.9999933080175083
 51
272.4640220680436187
  0
ARC
  5
64CE
  8
0
 10
2877.1299004816191882
 20
167.434875780278503
 30
0.0
 40
1.196329324271233
 50
245.62890327511019
 51
267.0729810026488167
  0
LINE
  5
64CF
  8
0
 10
2876.6362411960221834
 20
166.3451490430387025
 30
0.0
 11
2876.5531577634387759
 21
166.3793351179153888
 31
0.0
  0
ARC
  5
64D0
  8
0
 10
2878.2660843125340762
 20
167.2491445891068054
 30
0.0
 40
0.0266506051110385
 50
118.4844456110216981
 51
135.0889287350798895
  0
ARC
  5
64D1
  8
0
 10
2877.6260326824130971
 20
169.4241684753592097
 30
0.0
 40
2.2439019513751899
 50
266.977696399297713
 51
286.0710521960156143
  0
LINE
  5
64D2
  8
0
 10
2877.5077236475190148
 20
167.1833875981540984
 30
0.0
 11
2877.3484422285910114
 21
167.1866975556280011
 31
0.0
  0
ARC
  5
64D3
  8
0
 10
2877.1945181349278755
 20
163.5992375679738018
 30
0.0
 40
3.590760614358766
 50
87.543165619648974
 51
92.0071943796682632
  0
ARC
  5
64D4
  8
0
 10
2877.1299909202830349
 20
165.9930341186411056
 30
0.0
 40
1.196329324271233
 50
92.9342066850307162
 51
114.3782844125709062
  0
LINE
  5
64D5
  8
0
 10
2876.6361949336419457
 20
167.0826989183337048
 30
0.0
 11
2876.553014538178104
 21
167.0484594125508977
 31
0.0
  0
ARC
  5
64D6
  8
0
 10
2878.894030471716178
 20
167.7288362433806128
 30
0.0
 40
0.1902465733654446
 50
90.7594501155196696
 51
116.9873631132432052
  0
ARC
  5
64D7
  8
0
 10
2878.8820634458252243
 20
167.8151503041889896
 30
0.0
 40
0.1116026452624309
 50
131.7854950817263955
 51
176.3236321976752095
  0
ARC
  5
64D8
  8
0
 10
2878.8941510694689896
 20
165.6992610793058986
 30
0.0
 40
0.1902133310142909
 50
243.0169947518755009
 51
269.2040875273141864
  0
ARC
  5
64D9
  8
0
 10
2878.8690138009451402
 20
165.6065590996684875
 30
0.0
 40
0.0981858597881745
 50
180.4278811706707017
 51
231.4661642508011141
  0
LINE
  5
64DA
  8
0
 10
2878.4605238045551232
 20
165.8794651817688077
 30
0.0
 11
2878.4601641865069723
 21
167.5484798998876101
 31
0.0
  0
LINE
  5
64DB
  8
0
 10
2878.2534091799479938
 20
166.7140254187312962
 30
0.0
 11
2876.5530861462061694
 21
166.7139187665628981
 31
0.0
  0
ARC
  5
64DC
  8
0
 10
2875.8761606329280767
 20
166.812655156301588
 30
0.0
 40
0.1918075472641469
 50
76.9035198669771489
 51
113.3445650870632022
  0
ARC
  5
64DD
  8
0
 10
2875.8056951997691613
 20
166.9791509633020041
 30
0.0
 40
0.0110926619164132
 50
119.9633147679245013
 51
176.5716170298273937
  0
ARC
  5
64DE
  8
0
 10
2875.8761606329280767
 20
166.615475729183288
 30
0.0
 40
0.1918075472641469
 50
246.6554349130240098
 51
283.0964801331040803
  0
ARC
  5
64DF
  8
0
 10
2875.8056951997691613
 20
166.4489799221827013
 30
0.0
 40
0.0110926619164273
 50
183.4283829703236108
 51
240.0366852321378133
  0
LINE
  5
64E0
  8
0
 10
2875.7946223900958103
 20
166.9798143141420042
 30
0.0
 11
2875.7946223901049052
 21
166.4483165711901052
 31
0.0
  0
ARC
  5
64E1
  8
0
 10
2875.4206066420961179
 20
166.7140661025420059
 30
0.0
 40
0.4527559054999993
 50
34.3011527616722773
 51
238.5395476725495882
  0
ARC
  5
64E2
  8
0
 10
2875.4206066420961179
 20
166.7140661025420059
 30
0.0
 40
0.4527559054999993
 50
301.4314390658872185
 51
325.6988472383276871
  0
ARC
  5
64E3
  8
0
 10
2875.4206066420961179
 20
166.7140661025420059
 30
0.0
 40
0.2480304559000004
 50
342.158572650457188
 51
197.6933617623973873
  0
ARC
  5
64E4
  8
0
 10
2875.4206066420961179
 20
166.7140661025420059
 30
0.0
 40
0.2401574802999997
 50
10.544181204689
 51
169.7139463546299964
  0
ARC
  5
64E5
  8
0
 10
2875.4205088452958989
 20
160.1116661025419887
 30
0.0
 40
0.2361999999999997
 50
180.0
 51
0.0
  0
LINE
  5
64E6
  8
0
 10
2875.6567088452961798
 20
160.1116661025419887
 30
0.0
 11
2875.6567088452961798
 21
166.758013400390098
 31
0.0
  0
LINE
  5
64E7
  8
0
 10
2875.1843088452960728
 20
166.7569492760661944
 30
0.0
 11
2875.1843088452960728
 21
160.1116661025419887
 31
0.0
  0
LINE
  5
64E8
  8
0
 10
2876.3710216098338606
 20
167.1668220080420042
 30
0.0
 11
2876.4523226368041833
 21
167.1668220080420042
 31
0.0
  0
LINE
  5
64E9
  8
0
 10
2876.4073665802948199
 20
166.2613101970420075
 30
0.0
 11
2876.4617313418748381
 21
166.2613101970420075
 31
0.0
  0
ENDSEC
  0
EOF
