  0
SECTION
  2
HEADER
  9
$ACADVER
  1
AC1009
  9
$INSBASE
 10
4.5439367590500002
 20
1.106730565199999
 30
0.0
  9
$EXTMIN
 10
3.4239367589999992
 20
1.0967437676205929
 30
0.0
  9
$EXTMAX
 10
6.6323269923476671
 20
8.8521660530256163
 30
0.0
  9
$LIMMIN
 10
0.0
 20
0.0
  9
$LIMMAX
 10
11.692913385800001
 20
8.2677165353999982
  9
$ORTHOMODE
 70
     1
  9
$REGENMODE
 70
     1
  9
$FILLMODE
 70
     1
  9
$QTEXTMODE
 70
     0
  9
$MIRRTEXT
 70
     0
  9
$DRAGMODE
 70
     2
  9
$LTSCALE
 40
0.6431102362
  9
$OSMODE
 70
    47
  9
$ATTMODE
 70
     1
  9
$TEXTSIZE
 40
0.001
  9
$TRACEWID
 40
0.05
  9
$TEXTSTYLE
  7
STANDARD
  9
$CLAYER
  8
0
  9
$CELTYPE
  6
BYLAYER
  9
$CECOLOR
 62
   256
  9
$DIMSCALE
 40
1.0
  9
$DIMASZ
 40
0.1875
  9
$DIMEXO
 40
0.0625
  9
$DIMDLI
 40
0.4443307087
  9
$DIMRND
 40
0.0
  9
$DIMDLE
 40
0.0
  9
$DIMEXE
 40
0.125
  9
$DIMTP
 40
0.0
  9
$DIMTM
 40
0.0
  9
$DIMTXT
 40
0.15625
  9
$DIMCEN
 40
0.1052362205
  9
$DIMTSZ
 40
0.0
  9
$DIMTOL
 70
     0
  9
$DIMLIM
 70
     0
  9
$DIMTIH
 70
     1
  9
$DIMTOH
 70
     1
  9
$DIMSE1
 70
     0
  9
$DIMSE2
 70
     0
  9
$DIMTAD
 70
     0
  9
$DIMZIN
 70
     0
  9
$DIMBLK
  1

  9
$DIMASO
 70
     1
  9
$DIMSHO
 70
     1
  9
$DIMPOST
  1

  9
$DIMAPOST
  1

  9
$DIMALT
 70
     0
  9
$DIMALTD
 70
     2
  9
$DIMALTF
 40
25.399999999999999
  9
$DIMLFAC
 40
1.0
  9
$DIMTOFL
 70
     0
  9
$DIMTVP
 40
0.0
  9
$DIMTIX
 70
     0
  9
$DIMSOXD
 70
     0
  9
$DIMSAH
 70
     0
  9
$DIMBLK1
  1

  9
$DIMBLK2
  1

  9
$DIMSTYLE
  2
STANDARD
  9
$DIMCLRD
 70
     0
  9
$DIMCLRE
 70
     0
  9
$DIMCLRT
 70
     0
  9
$DIMTFAC
 40
1.0
  9
$DIMGAP
 40
0.09
  9
$LUNITS
 70
     2
  9
$LUPREC
 70
     4
  9
$SKETCHINC
 40
0.1
  9
$FILLETRAD
 40
0.0
  9
$AUNITS
 70
     0
  9
$AUPREC
 70
     0
  9
$MENU
  1
.
  9
$ELEVATION
 40
0.0
  9
$PELEVATION
 40
0.0
  9
$THICKNESS
 40
0.0
  9
$LIMCHECK
 70
     0
  9
$BLIPMODE
 70
     0
  9
$CHAMFERA
 40
0.0
  9
$CHAMFERB
 40
0.0
  9
$SKPOLY
 70
     0
  9
$TDCREATE
 40
2457344.6398201622
  9
$TDUPDATE
 40
2457344.7587036109
  9
$TDINDWG
 40
0.0710681481
  9
$TDUSRTIMER
 40
0.0710681481
  9
$USRTIMER
 70
     1
  9
$ANGBASE
 50
0.0
  9
$ANGDIR
 70
     0
  9
$PDMODE
 70
     0
  9
$PDSIZE
 40
0.3125
  9
$PLINEWID
 40
0.0
  9
$COORDS
 70
     1
  9
$SPLFRAME
 70
     0
  9
$SPLINETYPE
 70
     6
  9
$SPLINESEGS
 70
     8
  9
$ATTDIA
 70
     0
  9
$ATTREQ
 70
     1
  9
$HANDLING
 70
     1
  9
$HANDSEED
  5
830
  9
$SURFTAB1
 70
     6
  9
$SURFTAB2
 70
     6
  9
$SURFTYPE
 70
     6
  9
$SURFU
 70
     6
  9
$SURFV
 70
     6
  9
$UCSNAME
  2

  9
$UCSORG
 10
0.0
 20
0.0
 30
0.0
  9
$UCSXDIR
 10
1.0
 20
0.0
 30
0.0
  9
$UCSYDIR
 10
0.0
 20
1.0
 30
0.0
  9
$PUCSNAME
  2

  9
$PUCSORG
 10
0.0
 20
0.0
 30
0.0
  9
$PUCSXDIR
 10
1.0
 20
0.0
 30
0.0
  9
$PUCSYDIR
 10
0.0
 20
1.0
 30
0.0
  9
$USERI1
 70
     0
  9
$USERI2
 70
     0
  9
$USERI3
 70
     0
  9
$USERI4
 70
     0
  9
$USERI5
 70
     0
  9
$USERR1
 40
0.0
  9
$USERR2
 40
0.0
  9
$USERR3
 40
0.0
  9
$USERR4
 40
0.0
  9
$USERR5
 40
0.0
  9
$WORLDVIEW
 70
     1
  9
$SHADEDGE
 70
     3
  9
$SHADEDIF
 70
    70
  9
$TILEMODE
 70
     1
  9
$MAXACTVP
 70
    48
  9
$PLIMCHECK
 70
     0
  9
$PEXTMIN
 10
1.0000000000000000E+020
 20
1.0000000000000000E+020
 30
1.0000000000000000E+020
  9
$PEXTMAX
 10
-1.0000000000000000E+020
 20
-1.0000000000000000E+020
 30
-1.0000000000000000E+020
  9
$PLIMMIN
 10
0.0
 20
0.0
  9
$PLIMMAX
 10
12.0
 20
9.0
  9
$UNITMODE
 70
     0
  9
$VISRETAIN
 70
     1
  9
$PLINEGEN
 70
     0
  9
$PSLTSCALE
 70
     1
  0
ENDSEC
  0
SECTION
  2
TABLES
  0
TABLE
  2
VPORT
 70
     1
  0
VPORT
  2
*ACTIVE
 70
     0
 10
0.0
 20
0.0
 11
1.0
 21
1.0
 12
-0.5261055742291898
 22
-0.4988160223608693
 13
0.0
 23
0.0
 14
1.0
 24
1.0
 15
0.0
 25
0.0
 16
-0.0000000000000044
 26
0.0
 36
20.867745515101351
 17
4.5439367590000002
 27
4.9790622572159666
 37
0.0
 40
10.76166911637741
 41
2.0329087048832268
 42
50.0
 43
0.0
 44
0.0
 50
0.0
 51
0.0
 71
     0
 72
   100
 73
     1
 74
     1
 75
     0
 76
     0
 77
     0
 78
     0
  0
ENDTAB
  0
TABLE
  2
LTYPE
 70
     1
  0
LTYPE
  2
CONTINUOUS
 70
     0
  3
Solid line
 72
    65
 73
     0
 40
0.0
  0
ENDTAB
  0
TABLE
  2
LAYER
 70
     2
  0
LAYER
  2
0
 70
     0
 62
     7
  6
CONTINUOUS
  0
LAYER
  2
DEFPOINTS
 70
     0
 62
     7
  6
CONTINUOUS
  0
ENDTAB
  0
TABLE
  2
STYLE
 70
     1
  0
STYLE
  2
STANDARD
 70
     0
 40
0.0
 41
0.8
 50
0.0
 71
     0
 42
0.001
  3
txt
  4

  0
ENDTAB
  0
TABLE
  2
VIEW
 70
     0
  0
ENDTAB
  0
TABLE
  2
UCS
 70
     0
  0
ENDTAB
  0
TABLE
  2
APPID
 70
     5
  0
APPID
  2
ACAD
 70
     0
  0
APPID
  2
ACAD_MLEADERVER
 70
     0
  0
APPID
  2
ACAD_NAV_VCDISPLAY
 70
     0
  0
APPID
  2
ACAD_EXEMPT_FROM_CAD_STANDARDS
 70
     0
  0
APPID
  2
ACDBATTR
 70
     0
  0
ENDTAB
  0
TABLE
  2
DIMSTYLE
 70
     1
  0
DIMSTYLE
  2
STANDARD
 70
     0
  3

  4

  5

  6

  7

 40
1.0
 41
0.1875
 42
0.0625
 43
0.38
 44
0.125
 45
0.0
 46
0.0
 47
1.5
 48
1.5
140
0.15625
141
0.09
142
0.0
143
25.399999999999999
144
1.0
145
0.0
146
1.0
147
0.09
 71
     0
 72
     0
 73
     1
 74
     1
 75
     0
 76
     0
 77
     0
 78
     4
170
     0
171
     2
172
     0
173
     0
174
     0
175
     0
176
     0
177
     0
178
     0
  0
ENDTAB
  0
ENDSEC
  0
SECTION
  2
BLOCKS
  0
BLOCK
  8
0
  2
$MODEL_SPACE
 70
     2
 10
0.0
 20
0.0
 30
0.0
  3
$MODEL_SPACE
  1

  0
ENDBLK
  5
21
  8
0
  0
BLOCK
 67
     1
  8
0
  2
$PAPER_SPACE
 70
     0
 10
0.0
 20
0.0
 30
0.0
  3
$PAPER_SPACE
  1

  0
ENDBLK
  5
1D
 67
     1
  8
0
  0
ENDSEC
  0
SECTION
  2
ENTITIES
  0
LINE
  5
22C
  8
0
 10
3.4539459087000002
 20
1.106730565199999
 30
0.0
 11
5.6339276093999997
 21
1.106730565199999
 31
0.0
  0
LINE
  5
22D
  8
0
 10
5.633936759
 20
1.2767305652000001
 30
0.0
 11
3.453936758999999
 21
1.2767305652000001
 31
0.0
  0
LINE
  5
22F
  8
0
 10
3.6339517794999989
 20
1.4867305652
 30
0.0
 11
5.4539217386000001
 21
1.4867305652
 31
0.0
  0
LINE
  5
232
  8
0
 10
3.4239367589999992
 20
1.2467305652
 30
0.0
 11
3.4239367589999992
 21
1.136730565199999
 31
0.0
  0
LINE
  5
234
  8
0
 10
3.6339367589999991
 20
6.5617305651999986
 30
0.0
 11
3.633936759
 21
1.4567305652
 31
0.0
  0
POLYLINE
  5
236
  8
0
 66
     1
 10
0.0
 20
0.0
 30
0.0
  0
VERTEX
  5
6D4
  8
0
 10
3.6345886138000001
 20
6.6051450593999999
 30
0.0
  0
VERTEX
  5
6D5
  8
0
 10
3.6345690833999988
 20
6.6044897909999998
 30
0.0
  0
VERTEX
  5
6D6
  8
0
 10
3.6345585206999989
 20
6.6027395576999988
 30
0.0
  0
VERTEX
  5
6D7
  8
0
 10
3.6346500632999992
 20
6.600899663599999
 30
0.0
  0
SEQEND
  5
6D8
  8
0
  0
LINE
  5
237
  8
0
 10
3.6610392964999989
 20
7.3626056932999999
 30
0.0
 11
3.6345886697999998
 21
6.6051588478999994
 31
0.0
  0
LINE
  5
238
  8
0
 10
3.6345882353999999
 20
6.6051463612000001
 30
0.0
 11
3.6345886936
 21
6.6051595280999988
 31
0.0
  0
LINE
  5
241
  8
0
 10
4.1404367589999991
 20
3.9858352302999989
 30
0.0
 11
4.1389375336000001
 21
3.9945813163000001
 31
0.0
  0
POLYLINE
  5
242
  8
0
 66
     1
 10
0.0
 20
0.0
 30
0.0
  0
VERTEX
  5
6D9
  8
0
 10
3.6346500632999992
 20
6.600899663599999
 30
0.0
  0
VERTEX
  5
6DA
  8
0
 10
3.635029585899999
 20
6.5984522707000002
 30
0.0
  0
VERTEX
  5
6DB
  8
0
 10
3.6362096166999991
 20
6.5950729947999989
 30
0.0
  0
SEQEND
  5
6DC
  8
0
  0
LINE
  5
244
  8
0
 10
4.138936758999999
 20
4.711730565199999
 30
0.0
 11
4.138936758999999
 21
3.9945813162000001
 31
0.0
  0
LINE
  5
245
  8
0
 10
4.1404367589999991
 20
3.9858352302999989
 30
0.0
 11
4.1404367589999991
 21
3.6955908201000001
 31
0.0
  0
LINE
  5
248
  8
0
 10
4.3235937503999997
 20
7.946839613399999
 30
0.0
 11
4.3196648569000002
 21
7.7217534558000001
 31
0.0
  0
LINE
  5
24E
  8
0
 10
4.3239367589999986
 20
7.9864905651999987
 30
0.0
 11
4.3239367589999986
 21
8.6314905652
 31
0.0
  0
LINE
  5
253
  8
0
 10
4.7642797676999988
 20
7.946839613399999
 30
0.0
 11
4.7682086612000001
 21
7.7217534558000001
 31
0.0
  0
LINE
  5
254
  8
0
 10
4.763936758999999
 20
7.9864905651999987
 30
0.0
 11
4.763936758999999
 21
8.6314905652
 31
0.0
  0
POLYLINE
  5
257
  8
0
 66
     1
 10
0.0
 20
0.0
 30
0.0
  0
VERTEX
  5
6DD
  8
0
 10
3.6362096166999991
 20
6.5950729947999989
 30
0.0
  0
VERTEX
  5
6DE
  8
0
 10
3.638719428099999
 20
6.5913768052999986
 30
0.0
  0
VERTEX
  5
6DF
  8
0
 10
3.6424861168999989
 20
6.5884046941999994
 30
0.0
  0
VERTEX
  5
6E0
  8
0
 10
3.6474248061000001
 20
6.5866877940999986
 30
0.0
  0
VERTEX
  5
6E1
  8
0
 10
3.6498341574999991
 20
6.5864941505999992
 30
0.0
  0
SEQEND
  5
6E2
  8
0
  0
LINE
  5
25D
  8
0
 10
4.9474367589999986
 20
3.9858158493000002
 30
0.0
 11
4.9474367589999986
 21
3.6955908201000001
 31
0.0
  0
LINE
  5
25E
  8
0
 10
4.9489367589999986
 20
4.711730565199999
 30
0.0
 11
4.9489367589999986
 21
3.9945813162000001
 31
0.0
  0
LINE
  5
262
  8
0
 10
4.9489359845000003
 20
3.9945813162000001
 30
0.0
 11
4.9474367589999986
 21
3.9858158493000002
 31
0.0
  0
LINE
  5
269
  8
0
 10
5.4268342216000001
 20
7.3626056932999999
 30
0.0
 11
5.453284846099999
 21
6.6051589109000002
 31
0.0
  0
LINE
  5
26A
  8
0
 10
5.453302301299999
 20
6.6045737011999988
 30
0.0
 11
5.4532848549999988
 21
6.6051460400000002
 31
0.0
  0
LINE
  5
26B
  8
0
 10
5.4539367589999994
 20
6.5617305651999986
 30
0.0
 11
5.4539367590000003
 21
1.4567305652
 31
0.0
  0
LINE
  5
270
  8
0
 10
5.6639367589999994
 20
1.2467305652
 30
0.0
 11
5.6639367589999994
 21
1.136730565199999
 31
0.0
  0
POLYLINE
  5
271
  8
0
 66
     1
 10
0.0
 20
0.0
 30
0.0
  0
VERTEX
  5
6E3
  8
0
 10
5.4380393528999988
 20
6.5864941012999987
 30
0.0
  0
VERTEX
  5
6E4
  8
0
 10
5.4402396602999987
 20
6.5866554206999997
 30
0.0
  0
VERTEX
  5
6E5
  8
0
 10
5.4454634069000001
 20
6.5884473062999991
 30
0.0
  0
VERTEX
  5
6E6
  8
0
 10
5.4494940807000001
 20
6.5917591027999993
 30
0.0
  0
VERTEX
  5
6E7
  8
0
 10
5.4519141134999991
 20
6.5956172385
 30
0.0
  0
VERTEX
  5
6E8
  8
0
 10
5.4529235472000002
 20
6.5988200476999994
 30
0.0
  0
VERTEX
  5
6E9
  8
0
 10
5.4532379273
 20
6.6010707649000002
 30
0.0
  0
VERTEX
  5
6EA
  8
0
 10
5.4533165511000004
 20
6.6028462046999996
 30
0.0
  0
VERTEX
  5
6EB
  8
0
 10
5.453302301299999
 20
6.6045737011999988
 30
0.0
  0
SEQEND
  5
6EC
  8
0
  0
LINE
  5
272
  8
0
 10
5.4539217386000001
 20
6.5617305651999986
 30
0.0
 11
3.6339517794999989
 21
6.5617305651999986
 31
0.0
  0
LINE
  5
273
  8
0
 10
3.6498334658
 20
6.5864905652000001
 30
0.0
 11
5.438040052299999
 21
6.5864905652000001
 31
0.0
  0
LINE
  5
274
  8
0
 10
5.3968524966999993
 20
7.3915587083999998
 30
0.0
 11
3.6910210213000001
 21
7.3915587083999998
 31
0.0
  0
LINE
  5
275
  8
0
 10
4.7442791534999991
 20
7.9664905651999991
 30
0.0
 11
4.3435907043000004
 21
7.9664905651999991
 31
0.0
  0
LINE
  5
276
  8
0
 10
4.353725453
 20
7.9664905651999991
 30
0.0
 11
4.734148059499999
 21
7.9664905651999991
 31
0.0
  0
ARC
  5
2CD
  8
0
 10
4.5439367589999984
 20
4.7158319592192903
 30
0.0
 40
0.405020766668702
 50
359.41979127217041
 51
180.58020872782961
  0
ARC
  5
2CF
  8
0
 10
5.1181553546999998
 20
7.7278617884000003
 30
0.0
 40
0.35
 50
181.0
 51
253.9179410824502
  0
ARC
  5
2D0
  8
0
 10
3.9697181633999992
 20
7.7278617884000003
 30
0.0
 40
0.35
 50
286.08205891754977
 51
359.0
  0
CIRCLE
  5
2D1
  8
0
 10
4.5439367590000002
 20
8.6314905652
 30
0.0
 40
0.22
  0
ARC
  5
2D2
  8
0
 10
3.453936758999999
 20
1.4567305652
 30
0.0
 40
0.18
 50
270.0
 51
360.0
  0
ARC
  5
2D3
  8
0
 10
5.633936759
 20
1.4567305652
 30
0.0
 40
0.18
 50
180.0
 51
270.0
  0
ARC
  5
2D5
  8
0
 10
3.7689367589999989
 20
6.6117305652000002
 30
0.0
 40
0.06
 50
303.55730976191978
 51
334.93405030240001
  0
ARC
  5
2D6
  8
0
 10
5.3189367589999987
 20
6.6117305652000002
 30
0.0
 40
0.06
 50
205.0659496975999
 51
236.44269023808019
  0
ARC
  5
2D7
  8
0
 10
5.633936759
 20
1.2467305652
 30
0.0
 40
0.03
 50
0.0
 51
90.0
  0
ARC
  5
2D8
  8
0
 10
3.453936758999999
 20
1.2467305652
 30
0.0
 40
0.03
 50
90.0
 51
180.0
  0
ARC
  5
2D9
  8
0
 10
3.453936758999999
 20
1.136730565199999
 30
0.0
 40
0.03
 50
180.0
 51
269.9998275053
  0
ARC
  5
2DA
  8
0
 10
5.633936759
 20
1.136730565199999
 30
0.0
 40
0.03
 50
270.0001724947
 51
360.0
  0
ARC
  5
2DB
  8
0
 10
3.6910210213000001
 20
7.3615587083999996
 30
0.0
 40
0.03
 50
90.0
 51
177.99997924869999
  0
ARC
  5
2DD
  8
0
 10
4.7439367589999986
 20
7.9864905651999987
 30
0.0
 40
0.02
 50
270.0
 51
360.0
  0
ARC
  5
2DE
  8
0
 10
4.3439367589999991
 20
7.9864905651999987
 30
0.0
 40
0.02
 50
180.0
 51
270.0
  0
ARC
  5
2DF
  8
0
 10
4.7442828137999991
 20
7.9464905651999986
 30
0.0
 40
0.02
 50
1.0000744765
 51
90.0
  0
ARC
  5
2E0
  8
0
 10
4.3435907043000004
 20
7.9464905651999986
 30
0.0
 40
0.02
 50
90.0
 51
178.9999255235
  0
ARC
  5
4C1
  8
0
 10
4.306776783021105
 20
3.9829661167652222
 30
0.0
 40
0.1663647661129521
 50
136.38392440058649
 51
179.01183255213789
  0
ARC
  5
4C2
  8
0
 10
4.4420906083594094
 20
3.8601331692848011
 30
0.0
 40
0.3490899098369029
 50
99.673872675660874
 51
137.10843444382081
  0
ARC
  5
4C3
  8
0
 10
4.5444896694658814
 20
3.5403144848869101
 30
0.0
 40
0.6832004024484588
 50
74.310267962122978
 51
103.6354563005366
  0
ARC
  5
4C4
  8
0
 10
4.6355984661390801
 20
3.8401609851114422
 30
0.0
 40
0.3699471181037811
 50
41.157118531418597
 51
75.336720392566903
  0
ARC
  5
4C5
  8
0
 10
4.7760872481291692
 20
3.9820565524524532
 30
0.0
 40
0.1713907441738344
 50
1.256830519298016
 51
36.345942847910422
  0
ARC
  5
4C6
  8
0
 10
4.3197870874703259
 20
3.7054734321723881
 30
0.0
 40
0.1796223993375755
 50
183.15393862291751
 51
234.30753850954071
  0
ARC
  5
4C7
  8
0
 10
4.5193385409324049
 20
3.9769354291667729
 30
0.0
 40
0.5165313926172681
 50
233.89850113337209
 51
269.7437470020576
  0
ARC
  5
4C8
  8
0
 10
4.5505510755789542
 20
4.0595194732964366
 30
0.0
 40
0.6000474042481008
 50
266.79740418780011
 51
294.38274986724861
  0
ARC
  5
4C9
  8
0
 10
4.712665566612797
 20
3.7412410966172311
 30
0.0
 40
0.2437740524531422
 50
290.55816199463078
 51
341.43814220621113
  0
LINE
  5
4CA
  8
0
 10
4.943758622899999
 20
3.6636409162999981
 30
0.0
 11
4.9474367589999986
 21
3.6955908201000001
 31
0.0
  0
POLYLINE
  5
4CB
  8
0
 10
4.2299367500000002
 20
3.6873992995999991
 30
0.0
 66
     1
 70
     8
  0
VERTEX
  8
0
  5
72C
 10
4.22994
 20
3.68740
 30
0.000000
  70
    32
  0
VERTEX
  8
0
  5
72D
 10
4.23031
 20
3.67856
 30
0.000000
  70
    32
  0
VERTEX
  8
0
  5
72E
 10
4.23145
 20
3.66975
 30
0.000000
  70
    32
  0
VERTEX
  8
0
  5
72F
 10
4.23334
 20
3.66097
 30
0.000000
  70
    32
  0
VERTEX
  8
0
  5
730
 10
4.23597
 20
3.65226
 30
0.000000
  70
    32
  0
VERTEX
  8
0
  5
731
 10
4.23935
 20
3.64364
 30
0.000000
  70
    32
  0
VERTEX
  8
0
  5
732
 10
4.24346
 20
3.63512
 30
0.000000
  70
    32
  0
VERTEX
  8
0
  5
733
 10
4.24829
 20
3.62672
 30
0.000000
  70
    32
  0
VERTEX
  8
0
  5
734
 10
4.25384
 20
3.61848
 30
0.000000
  70
    32
  0
VERTEX
  8
0
  5
735
 10
4.26008
 20
3.61040
 30
0.000000
  70
    32
  0
VERTEX
  8
0
  5
736
 10
4.26701
 20
3.60250
 30
0.000000
  70
    32
  0
VERTEX
  8
0
  5
737
 10
4.27461
 20
3.59481
 30
0.000000
  70
    32
  0
VERTEX
  8
0
  5
738
 10
4.28286
 20
3.58734
 30
0.000000
  70
    32
  0
VERTEX
  8
0
  5
739
 10
4.29173
 20
3.58011
 30
0.000000
  70
    32
  0
VERTEX
  8
0
  5
73A
 10
4.30121
 20
3.57314
 30
0.000000
  70
    32
  0
VERTEX
  8
0
  5
73B
 10
4.31128
 20
3.56645
 30
0.000000
  70
    32
  0
VERTEX
  8
0
  5
73C
 10
4.32191
 20
3.56005
 30
0.000000
  70
    32
  0
VERTEX
  8
0
  5
73D
 10
4.33307
 20
3.55395
 30
0.000000
  70
    32
  0
VERTEX
  8
0
  5
73E
 10
4.34474
 20
3.54818
 30
0.000000
  70
    32
  0
VERTEX
  8
0
  5
73F
 10
4.35689
 20
3.54274
 30
0.000000
  70
    32
  0
VERTEX
  8
0
  5
740
 10
4.36949
 20
3.53765
 30
0.000000
  70
    32
  0
VERTEX
  8
0
  5
741
 10
4.38251
 20
3.53292
 30
0.000000
  70
    32
  0
VERTEX
  8
0
  5
742
 10
4.39592
 20
3.52856
 30
0.000000
  70
    32
  0
VERTEX
  8
0
  5
743
 10
4.40968
 20
3.52459
 30
0.000000
  70
    32
  0
VERTEX
  8
0
  5
744
 10
4.42377
 20
3.52101
 30
0.000000
  70
    32
  0
VERTEX
  8
0
  5
745
 10
4.43815
 20
3.51782
 30
0.000000
  70
    32
  0
VERTEX
  8
0
  5
746
 10
4.45279
 20
3.51505
 30
0.000000
  70
    32
  0
VERTEX
  8
0
  5
747
 10
4.46764
 20
3.51269
 30
0.000000
  70
    32
  0
VERTEX
  8
0
  5
748
 10
4.48268
 20
3.51076
 30
0.000000
  70
    32
  0
VERTEX
  8
0
  5
749
 10
4.49786
 20
3.50925
 30
0.000000
  70
    32
  0
VERTEX
  8
0
  5
74A
 10
4.51316
 20
3.50816
 30
0.000000
  70
    32
  0
VERTEX
  8
0
  5
74B
 10
4.52853
 20
3.50751
 30
0.000000
  70
    32
  0
VERTEX
  8
0
  5
74C
 10
4.54394
 20
3.50730
 30
0.000000
  70
    32
  0
VERTEX
  8
0
  5
74D
 10
4.55934
 20
3.50751
 30
0.000000
  70
    32
  0
VERTEX
  8
0
  5
74E
 10
4.57471
 20
3.50816
 30
0.000000
  70
    32
  0
VERTEX
  8
0
  5
74F
 10
4.59001
 20
3.50925
 30
0.000000
  70
    32
  0
VERTEX
  8
0
  5
750
 10
4.60520
 20
3.51076
 30
0.000000
  70
    32
  0
VERTEX
  8
0
  5
751
 10
4.62023
 20
3.51269
 30
0.000000
  70
    32
  0
VERTEX
  8
0
  5
752
 10
4.63509
 20
3.51505
 30
0.000000
  70
    32
  0
VERTEX
  8
0
  5
753
 10
4.64972
 20
3.51782
 30
0.000000
  70
    32
  0
VERTEX
  8
0
  5
754
 10
4.66410
 20
3.52101
 30
0.000000
  70
    32
  0
VERTEX
  8
0
  5
755
 10
4.67819
 20
3.52459
 30
0.000000
  70
    32
  0
VERTEX
  8
0
  5
756
 10
4.69196
 20
3.52856
 30
0.000000
  70
    32
  0
VERTEX
  8
0
  5
757
 10
4.70537
 20
3.53292
 30
0.000000
  70
    32
  0
VERTEX
  8
0
  5
758
 10
4.71839
 20
3.53765
 30
0.000000
  70
    32
  0
VERTEX
  8
0
  5
759
 10
4.73099
 20
3.54274
 30
0.000000
  70
    32
  0
VERTEX
  8
0
  5
75A
 10
4.74314
 20
3.54818
 30
0.000000
  70
    32
  0
VERTEX
  8
0
  5
75B
 10
4.75481
 20
3.55395
 30
0.000000
  70
    32
  0
VERTEX
  8
0
  5
75C
 10
4.76597
 20
3.56005
 30
0.000000
  70
    32
  0
VERTEX
  8
0
  5
75D
 10
4.77660
 20
3.56645
 30
0.000000
  70
    32
  0
VERTEX
  8
0
  5
75E
 10
4.78666
 20
3.57314
 30
0.000000
  70
    32
  0
VERTEX
  8
0
  5
75F
 10
4.79614
 20
3.58011
 30
0.000000
  70
    32
  0
VERTEX
  8
0
  5
760
 10
4.80502
 20
3.58734
 30
0.000000
  70
    32
  0
VERTEX
  8
0
  5
761
 10
4.81326
 20
3.59481
 30
0.000000
  70
    32
  0
VERTEX
  8
0
  5
762
 10
4.82086
 20
3.60250
 30
0.000000
  70
    32
  0
VERTEX
  8
0
  5
763
 10
4.82779
 20
3.61040
 30
0.000000
  70
    32
  0
VERTEX
  8
0
  5
764
 10
4.83403
 20
3.61848
 30
0.000000
  70
    32
  0
VERTEX
  8
0
  5
765
 10
4.83958
 20
3.62672
 30
0.000000
  70
    32
  0
VERTEX
  8
0
  5
766
 10
4.84442
 20
3.63512
 30
0.000000
  70
    32
  0
VERTEX
  8
0
  5
767
 10
4.84853
 20
3.64364
 30
0.000000
  70
    32
  0
VERTEX
  8
0
  5
768
 10
4.85190
 20
3.65226
 30
0.000000
  70
    32
  0
VERTEX
  8
0
  5
769
 10
4.85454
 20
3.66097
 30
0.000000
  70
    32
  0
VERTEX
  8
0
  5
76A
 10
4.85642
 20
3.66975
 30
0.000000
  70
    32
  0
VERTEX
  8
0
  5
76B
 10
4.85756
 20
3.67856
 30
0.000000
  70
    32
  0
VERTEX
  8
0
  5
76C
 10
4.85794
 20
3.68740
 30
0.000000
  70
    32
  0
VERTEX
  8
0
  5
76D
 10
4.85756
 20
3.69624
 30
0.000000
  70
    32
  0
VERTEX
  8
0
  5
76E
 10
4.85642
 20
3.70505
 30
0.000000
  70
    32
  0
VERTEX
  8
0
  5
76F
 10
4.85454
 20
3.71383
 30
0.000000
  70
    32
  0
VERTEX
  8
0
  5
770
 10
4.85190
 20
3.72254
 30
0.000000
  70
    32
  0
VERTEX
  8
0
  5
771
 10
4.84853
 20
3.73116
 30
0.000000
  70
    32
  0
VERTEX
  8
0
  5
772
 10
4.84442
 20
3.73968
 30
0.000000
  70
    32
  0
VERTEX
  8
0
  5
773
 10
4.83958
 20
3.74807
 30
0.000000
  70
    32
  0
VERTEX
  8
0
  5
774
 10
4.83403
 20
3.75632
 30
0.000000
  70
    32
  0
VERTEX
  8
0
  5
775
 10
4.82779
 20
3.76440
 30
0.000000
  70
    32
  0
VERTEX
  8
0
  5
776
 10
4.82086
 20
3.77230
 30
0.000000
  70
    32
  0
VERTEX
  8
0
  5
777
 10
4.81326
 20
3.77999
 30
0.000000
  70
    32
  0
VERTEX
  8
0
  5
778
 10
4.80502
 20
3.78746
 30
0.000000
  70
    32
  0
VERTEX
  8
0
  5
779
 10
4.79614
 20
3.79469
 30
0.000000
  70
    32
  0
VERTEX
  8
0
  5
77A
 10
4.78666
 20
3.80166
 30
0.000000
  70
    32
  0
VERTEX
  8
0
  5
77B
 10
4.77660
 20
3.80835
 30
0.000000
  70
    32
  0
VERTEX
  8
0
  5
77C
 10
4.76597
 20
3.81475
 30
0.000000
  70
    32
  0
VERTEX
  8
0
  5
77D
 10
4.75481
 20
3.82085
 30
0.000000
  70
    32
  0
VERTEX
  8
0
  5
77E
 10
4.74314
 20
3.82662
 30
0.000000
  70
    32
  0
VERTEX
  8
0
  5
77F
 10
4.73099
 20
3.83206
 30
0.000000
  70
    32
  0
VERTEX
  8
0
  5
780
 10
4.71839
 20
3.83715
 30
0.000000
  70
    32
  0
VERTEX
  8
0
  5
781
 10
4.70537
 20
3.84188
 30
0.000000
  70
    32
  0
VERTEX
  8
0
  5
782
 10
4.69196
 20
3.84624
 30
0.000000
  70
    32
  0
VERTEX
  8
0
  5
783
 10
4.67819
 20
3.85021
 30
0.000000
  70
    32
  0
VERTEX
  8
0
  5
784
 10
4.66410
 20
3.85379
 30
0.000000
  70
    32
  0
VERTEX
  8
0
  5
785
 10
4.64972
 20
3.85697
 30
0.000000
  70
    32
  0
VERTEX
  8
0
  5
786
 10
4.63509
 20
3.85975
 30
0.000000
  70
    32
  0
VERTEX
  8
0
  5
787
 10
4.62023
 20
3.86210
 30
0.000000
  70
    32
  0
VERTEX
  8
0
  5
788
 10
4.60520
 20
3.86404
 30
0.000000
  70
    32
  0
VERTEX
  8
0
  5
789
 10
4.59001
 20
3.86555
 30
0.000000
  70
    32
  0
VERTEX
  8
0
  5
78A
 10
4.57471
 20
3.86663
 30
0.000000
  70
    32
  0
VERTEX
  8
0
  5
78B
 10
4.55934
 20
3.86729
 30
0.000000
  70
    32
  0
VERTEX
  8
0
  5
78C
 10
4.54394
 20
3.86750
 30
0.000000
  70
    32
  0
VERTEX
  8
0
  5
78D
 10
4.52853
 20
3.86729
 30
0.000000
  70
    32
  0
VERTEX
  8
0
  5
78E
 10
4.51316
 20
3.86663
 30
0.000000
  70
    32
  0
VERTEX
  8
0
  5
78F
 10
4.49786
 20
3.86555
 30
0.000000
  70
    32
  0
VERTEX
  8
0
  5
790
 10
4.48268
 20
3.86404
 30
0.000000
  70
    32
  0
VERTEX
  8
0
  5
791
 10
4.46764
 20
3.86210
 30
0.000000
  70
    32
  0
VERTEX
  8
0
  5
792
 10
4.45279
 20
3.85975
 30
0.000000
  70
    32
  0
VERTEX
  8
0
  5
793
 10
4.43815
 20
3.85697
 30
0.000000
  70
    32
  0
VERTEX
  8
0
  5
794
 10
4.42377
 20
3.85379
 30
0.000000
  70
    32
  0
VERTEX
  8
0
  5
795
 10
4.40968
 20
3.85021
 30
0.000000
  70
    32
  0
VERTEX
  8
0
  5
796
 10
4.39592
 20
3.84624
 30
0.000000
  70
    32
  0
VERTEX
  8
0
  5
797
 10
4.38251
 20
3.84188
 30
0.000000
  70
    32
  0
VERTEX
  8
0
  5
798
 10
4.36949
 20
3.83715
 30
0.000000
  70
    32
  0
VERTEX
  8
0
  5
799
 10
4.35689
 20
3.83206
 30
0.000000
  70
    32
  0
VERTEX
  8
0
  5
79A
 10
4.34474
 20
3.82662
 30
0.000000
  70
    32
  0
VERTEX
  8
0
  5
79B
 10
4.33307
 20
3.82085
 30
0.000000
  70
    32
  0
VERTEX
  8
0
  5
79C
 10
4.32191
 20
3.81475
 30
0.000000
  70
    32
  0
VERTEX
  8
0
  5
79D
 10
4.31128
 20
3.80835
 30
0.000000
  70
    32
  0
VERTEX
  8
0
  5
79E
 10
4.30121
 20
3.80166
 30
0.000000
  70
    32
  0
VERTEX
  8
0
  5
79F
 10
4.29173
 20
3.79469
 30
0.000000
  70
    32
  0
VERTEX
  8
0
  5
7A0
 10
4.28286
 20
3.78746
 30
0.000000
  70
    32
  0
VERTEX
  8
0
  5
7A1
 10
4.27461
 20
3.77999
 30
0.000000
  70
    32
  0
VERTEX
  8
0
  5
7A2
 10
4.26701
 20
3.77230
 30
0.000000
  70
    32
  0
VERTEX
  8
0
  5
7A3
 10
4.26008
 20
3.76440
 30
0.000000
  70
    32
  0
VERTEX
  8
0
  5
7A4
 10
4.25384
 20
3.75632
 30
0.000000
  70
    32
  0
VERTEX
  8
0
  5
7A5
 10
4.24829
 20
3.74807
 30
0.000000
  70
    32
  0
VERTEX
  8
0
  5
7A6
 10
4.24346
 20
3.73968
 30
0.000000
  70
    32
  0
VERTEX
  8
0
  5
7A7
 10
4.23935
 20
3.73116
 30
0.000000
  70
    32
  0
VERTEX
  8
0
  5
7A8
 10
4.23597
 20
3.72254
 30
0.000000
  70
    32
  0
VERTEX
  8
0
  5
7A9
 10
4.23334
 20
3.71383
 30
0.000000
  70
    32
  0
VERTEX
  8
0
  5
7AA
 10
4.23145
 20
3.70505
 30
0.000000
  70
    32
  0
VERTEX
  8
0
  5
7AB
 10
4.23031
 20
3.69624
 30
0.000000
  70
    32
  0
VERTEX
  8
0
  5
7AC
 10
4.22994
 20
3.68740
 30
0.000000
  70
    32
  0
SEQEND
  8
0
  5
7AD
  0
POLYLINE
  5
4CE
  8
0
 10
4.8037084497315305
 20
3.6800178484999999
 30
0.0
 66
     1
 70
     8
  0
VERTEX
  8
0
  5
7AE
 10
4.80371
 20
3.68002
 30
0.000000
  70
    32
  0
VERTEX
  8
0
  5
7AF
 10
4.80392
 20
3.68390
 30
0.000000
  70
    32
  0
VERTEX
  8
0
  5
7B0
 10
4.80397
 20
3.68779
 30
0.000000
  70
    32
  0
VERTEX
  8
0
  5
7B1
 10
4.80385
 20
3.69168
 30
0.000000
  70
    32
  0
VERTEX
  8
0
  5
7B2
 10
4.80356
 20
3.69556
 30
0.000000
  70
    32
  0
VERTEX
  8
0
  5
7B3
 10
4.80311
 20
3.69944
 30
0.000000
  70
    32
  0
VERTEX
  8
0
  5
7B4
 10
4.80249
 20
3.70331
 30
0.000000
  70
    32
  0
VERTEX
  8
0
  5
7B5
 10
4.80171
 20
3.70717
 30
0.000000
  70
    32
  0
VERTEX
  8
0
  5
7B6
 10
4.80077
 20
3.71102
 30
0.000000
  70
    32
  0
VERTEX
  8
0
  5
7B7
 10
4.79966
 20
3.71485
 30
0.000000
  70
    32
  0
VERTEX
  8
0
  5
7B8
 10
4.79839
 20
3.71867
 30
0.000000
  70
    32
  0
VERTEX
  8
0
  5
7B9
 10
4.79695
 20
3.72246
 30
0.000000
  70
    32
  0
VERTEX
  8
0
  5
7BA
 10
4.79536
 20
3.72624
 30
0.000000
  70
    32
  0
VERTEX
  8
0
  5
7BB
 10
4.79360
 20
3.72998
 30
0.000000
  70
    32
  0
VERTEX
  8
0
  5
7BC
 10
4.79169
 20
3.73370
 30
0.000000
  70
    32
  0
VERTEX
  8
0
  5
7BD
 10
4.78961
 20
3.73739
 30
0.000000
  70
    32
  0
VERTEX
  8
0
  5
7BE
 10
4.78738
 20
3.74105
 30
0.000000
  70
    32
  0
VERTEX
  8
0
  5
7BF
 10
4.78500
 20
3.74467
 30
0.000000
  70
    32
  0
VERTEX
  8
0
  5
7C0
 10
4.78246
 20
3.74826
 30
0.000000
  70
    32
  0
VERTEX
  8
0
  5
7C1
 10
4.77977
 20
3.75180
 30
0.000000
  70
    32
  0
VERTEX
  8
0
  5
7C2
 10
4.77693
 20
3.75531
 30
0.000000
  70
    32
  0
VERTEX
  8
0
  5
7C3
 10
4.77394
 20
3.75877
 30
0.000000
  70
    32
  0
VERTEX
  8
0
  5
7C4
 10
4.77081
 20
3.76219
 30
0.000000
  70
    32
  0
VERTEX
  8
0
  5
7C5
 10
4.76753
 20
3.76555
 30
0.000000
  70
    32
  0
VERTEX
  8
0
  5
7C6
 10
4.76411
 20
3.76887
 30
0.000000
  70
    32
  0
VERTEX
  8
0
  5
7C7
 10
4.76055
 20
3.77214
 30
0.000000
  70
    32
  0
VERTEX
  8
0
  5
7C8
 10
4.75685
 20
3.77535
 30
0.000000
  70
    32
  0
VERTEX
  8
0
  5
7C9
 10
4.75301
 20
3.77850
 30
0.000000
  70
    32
  0
VERTEX
  8
0
  5
7CA
 10
4.74904
 20
3.78160
 30
0.000000
  70
    32
  0
VERTEX
  8
0
  5
7CB
 10
4.74494
 20
3.78464
 30
0.000000
  70
    32
  0
VERTEX
  8
0
  5
7CC
 10
4.74071
 20
3.78761
 30
0.000000
  70
    32
  0
VERTEX
  8
0
  5
7CD
 10
4.73636
 20
3.79052
 30
0.000000
  70
    32
  0
VERTEX
  8
0
  5
7CE
 10
4.73188
 20
3.79337
 30
0.000000
  70
    32
  0
VERTEX
  8
0
  5
7CF
 10
4.72729
 20
3.79614
 30
0.000000
  70
    32
  0
VERTEX
  8
0
  5
7D0
 10
4.72257
 20
3.79885
 30
0.000000
  70
    32
  0
VERTEX
  8
0
  5
7D1
 10
4.71775
 20
3.80148
 30
0.000000
  70
    32
  0
VERTEX
  8
0
  5
7D2
 10
4.71281
 20
3.80405
 30
0.000000
  70
    32
  0
VERTEX
  8
0
  5
7D3
 10
4.70777
 20
3.80653
 30
0.000000
  70
    32
  0
VERTEX
  8
0
  5
7D4
 10
4.70262
 20
3.80894
 30
0.000000
  70
    32
  0
VERTEX
  8
0
  5
7D5
 10
4.69737
 20
3.81128
 30
0.000000
  70
    32
  0
VERTEX
  8
0
  5
7D6
 10
4.69202
 20
3.81353
 30
0.000000
  70
    32
  0
VERTEX
  8
0
  5
7D7
 10
4.68658
 20
3.81571
 30
0.000000
  70
    32
  0
VERTEX
  8
0
  5
7D8
 10
4.68104
 20
3.81780
 30
0.000000
  70
    32
  0
VERTEX
  8
0
  5
7D9
 10
4.67542
 20
3.81981
 30
0.000000
  70
    32
  0
VERTEX
  8
0
  5
7DA
 10
4.66972
 20
3.82173
 30
0.000000
  70
    32
  0
VERTEX
  8
0
  5
7DB
 10
4.66393
 20
3.82357
 30
0.000000
  70
    32
  0
VERTEX
  8
0
  5
7DC
 10
4.65807
 20
3.82532
 30
0.000000
  70
    32
  0
VERTEX
  8
0
  5
7DD
 10
4.65214
 20
3.82698
 30
0.000000
  70
    32
  0
VERTEX
  8
0
  5
7DE
 10
4.64613
 20
3.82855
 30
0.000000
  70
    32
  0
VERTEX
  8
0
  5
7DF
 10
4.64007
 20
3.83004
 30
0.000000
  70
    32
  0
VERTEX
  8
0
  5
7E0
 10
4.63394
 20
3.83143
 30
0.000000
  70
    32
  0
VERTEX
  8
0
  5
7E1
 10
4.62775
 20
3.83273
 30
0.000000
  70
    32
  0
VERTEX
  8
0
  5
7E2
 10
4.62151
 20
3.83393
 30
0.000000
  70
    32
  0
VERTEX
  8
0
  5
7E3
 10
4.61522
 20
3.83505
 30
0.000000
  70
    32
  0
VERTEX
  8
0
  5
7E4
 10
4.60889
 20
3.83607
 30
0.000000
  70
    32
  0
VERTEX
  8
0
  5
7E5
 10
4.60251
 20
3.83699
 30
0.000000
  70
    32
  0
VERTEX
  8
0
  5
7E6
 10
4.59610
 20
3.83782
 30
0.000000
  70
    32
  0
VERTEX
  8
0
  5
7E7
 10
4.58965
 20
3.83855
 30
0.000000
  70
    32
  0
VERTEX
  8
0
  5
7E8
 10
4.58318
 20
3.83918
 30
0.000000
  70
    32
  0
VERTEX
  8
0
  5
7E9
 10
4.57667
 20
3.83972
 30
0.000000
  70
    32
  0
VERTEX
  8
0
  5
7EA
 10
4.57015
 20
3.84016
 30
0.000000
  70
    32
  0
VERTEX
  8
0
  5
7EB
 10
4.56361
 20
3.84051
 30
0.000000
  70
    32
  0
VERTEX
  8
0
  5
7EC
 10
4.55706
 20
3.84075
 30
0.000000
  70
    32
  0
VERTEX
  8
0
  5
7ED
 10
4.55050
 20
3.84090
 30
0.000000
  70
    32
  0
VERTEX
  8
0
  5
7EE
 10
4.54394
 20
3.84095
 30
0.000000
  70
    32
  0
VERTEX
  8
0
  5
7EF
 10
4.53738
 20
3.84090
 30
0.000000
  70
    32
  0
VERTEX
  8
0
  5
7F0
 10
4.53082
 20
3.84075
 30
0.000000
  70
    32
  0
VERTEX
  8
0
  5
7F1
 10
4.52427
 20
3.84051
 30
0.000000
  70
    32
  0
VERTEX
  8
0
  5
7F2
 10
4.51773
 20
3.84016
 30
0.000000
  70
    32
  0
VERTEX
  8
0
  5
7F3
 10
4.51121
 20
3.83972
 30
0.000000
  70
    32
  0
VERTEX
  8
0
  5
7F4
 10
4.50471
 20
3.83918
 30
0.000000
  70
    32
  0
VERTEX
  8
0
  5
7F5
 10
4.49823
 20
3.83855
 30
0.000000
  70
    32
  0
VERTEX
  8
0
  5
7F6
 10
4.49178
 20
3.83782
 30
0.000000
  70
    32
  0
VERTEX
  8
0
  5
7F7
 10
4.48537
 20
3.83699
 30
0.000000
  70
    32
  0
VERTEX
  8
0
  5
7F8
 10
4.47899
 20
3.83607
 30
0.000000
  70
    32
  0
VERTEX
  8
0
  5
7F9
 10
4.47266
 20
3.83505
 30
0.000000
  70
    32
  0
VERTEX
  8
0
  5
7FA
 10
4.46637
 20
3.83393
 30
0.000000
  70
    32
  0
VERTEX
  8
0
  5
7FB
 10
4.46013
 20
3.83273
 30
0.000000
  70
    32
  0
VERTEX
  8
0
  5
7FC
 10
4.45394
 20
3.83143
 30
0.000000
  70
    32
  0
VERTEX
  8
0
  5
7FD
 10
4.44781
 20
3.83004
 30
0.000000
  70
    32
  0
VERTEX
  8
0
  5
7FE
 10
4.44175
 20
3.82855
 30
0.000000
  70
    32
  0
VERTEX
  8
0
  5
7FF
 10
4.43574
 20
3.82698
 30
0.000000
  70
    32
  0
VERTEX
  8
0
  5
800
 10
4.42981
 20
3.82532
 30
0.000000
  70
    32
  0
VERTEX
  8
0
  5
801
 10
4.42395
 20
3.82357
 30
0.000000
  70
    32
  0
VERTEX
  8
0
  5
802
 10
4.41816
 20
3.82173
 30
0.000000
  70
    32
  0
VERTEX
  8
0
  5
803
 10
4.41246
 20
3.81981
 30
0.000000
  70
    32
  0
VERTEX
  8
0
  5
804
 10
4.40684
 20
3.81780
 30
0.000000
  70
    32
  0
VERTEX
  8
0
  5
805
 10
4.40130
 20
3.81571
 30
0.000000
  70
    32
  0
VERTEX
  8
0
  5
806
 10
4.39586
 20
3.81353
 30
0.000000
  70
    32
  0
VERTEX
  8
0
  5
807
 10
4.39051
 20
3.81128
 30
0.000000
  70
    32
  0
VERTEX
  8
0
  5
808
 10
4.38526
 20
3.80894
 30
0.000000
  70
    32
  0
VERTEX
  8
0
  5
809
 10
4.38011
 20
3.80653
 30
0.000000
  70
    32
  0
VERTEX
  8
0
  5
80A
 10
4.37507
 20
3.80405
 30
0.000000
  70
    32
  0
VERTEX
  8
0
  5
80B
 10
4.37013
 20
3.80148
 30
0.000000
  70
    32
  0
VERTEX
  8
0
  5
80C
 10
4.36531
 20
3.79885
 30
0.000000
  70
    32
  0
VERTEX
  8
0
  5
80D
 10
4.36059
 20
3.79614
 30
0.000000
  70
    32
  0
VERTEX
  8
0
  5
80E
 10
4.35600
 20
3.79337
 30
0.000000
  70
    32
  0
VERTEX
  8
0
  5
80F
 10
4.35152
 20
3.79052
 30
0.000000
  70
    32
  0
VERTEX
  8
0
  5
810
 10
4.34717
 20
3.78761
 30
0.000000
  70
    32
  0
VERTEX
  8
0
  5
811
 10
4.34294
 20
3.78464
 30
0.000000
  70
    32
  0
VERTEX
  8
0
  5
812
 10
4.33884
 20
3.78160
 30
0.000000
  70
    32
  0
VERTEX
  8
0
  5
813
 10
4.33487
 20
3.77850
 30
0.000000
  70
    32
  0
VERTEX
  8
0
  5
814
 10
4.33103
 20
3.77535
 30
0.000000
  70
    32
  0
VERTEX
  8
0
  5
815
 10
4.32733
 20
3.77214
 30
0.000000
  70
    32
  0
VERTEX
  8
0
  5
816
 10
4.32377
 20
3.76887
 30
0.000000
  70
    32
  0
VERTEX
  8
0
  5
817
 10
4.32035
 20
3.76555
 30
0.000000
  70
    32
  0
VERTEX
  8
0
  5
818
 10
4.31707
 20
3.76219
 30
0.000000
  70
    32
  0
VERTEX
  8
0
  5
819
 10
4.31393
 20
3.75877
 30
0.000000
  70
    32
  0
VERTEX
  8
0
  5
81A
 10
4.31095
 20
3.75531
 30
0.000000
  70
    32
  0
VERTEX
  8
0
  5
81B
 10
4.30811
 20
3.75180
 30
0.000000
  70
    32
  0
VERTEX
  8
0
  5
81C
 10
4.30542
 20
3.74826
 30
0.000000
  70
    32
  0
VERTEX
  8
0
  5
81D
 10
4.30288
 20
3.74467
 30
0.000000
  70
    32
  0
VERTEX
  8
0
  5
81E
 10
4.30049
 20
3.74105
 30
0.000000
  70
    32
  0
VERTEX
  8
0
  5
81F
 10
4.29826
 20
3.73739
 30
0.000000
  70
    32
  0
VERTEX
  8
0
  5
820
 10
4.29619
 20
3.73370
 30
0.000000
  70
    32
  0
VERTEX
  8
0
  5
821
 10
4.29428
 20
3.72998
 30
0.000000
  70
    32
  0
VERTEX
  8
0
  5
822
 10
4.29252
 20
3.72624
 30
0.000000
  70
    32
  0
VERTEX
  8
0
  5
823
 10
4.29093
 20
3.72246
 30
0.000000
  70
    32
  0
VERTEX
  8
0
  5
824
 10
4.28949
 20
3.71867
 30
0.000000
  70
    32
  0
VERTEX
  8
0
  5
825
 10
4.28822
 20
3.71485
 30
0.000000
  70
    32
  0
VERTEX
  8
0
  5
826
 10
4.28711
 20
3.71102
 30
0.000000
  70
    32
  0
VERTEX
  8
0
  5
827
 10
4.28617
 20
3.70717
 30
0.000000
  70
    32
  0
VERTEX
  8
0
  5
828
 10
4.28538
 20
3.70331
 30
0.000000
  70
    32
  0
VERTEX
  8
0
  5
829
 10
4.28477
 20
3.69944
 30
0.000000
  70
    32
  0
VERTEX
  8
0
  5
82A
 10
4.28432
 20
3.69556
 30
0.000000
  70
    32
  0
VERTEX
  8
0
  5
82B
 10
4.28403
 20
3.69168
 30
0.000000
  70
    32
  0
VERTEX
  8
0
  5
82C
 10
4.28391
 20
3.68779
 30
0.000000
  70
    32
  0
VERTEX
  8
0
  5
82D
 10
4.28396
 20
3.68390
 30
0.000000
  70
    32
  0
VERTEX
  8
0
  5
82E
 10
4.28417
 20
3.68002
 30
0.000000
  70
    32
  0
SEQEND
  8
0
  5
82F
  0
ARC
  5
4D9
  8
0
 10
4.4206506216830874
 20
3.7082165684200179
 30
0.0
 40
0.1387765668032533
 50
191.72386293837221
 51
250.07977099623301
  0
ARC
  5
4DA
  8
0
 10
4.54189058327617
 20
3.9455079030996258
 30
0.0
 40
0.4045376601830786
 50
245.3810758807399
 51
278.16232747675957
  0
ARC
  5
4DB
  8
0
 10
4.5847938056461173
 20
3.815713769390471
 30
0.0
 40
0.2710353511753492
 50
273.07353758327798
 51
316.36678809282222
  0
ARC
  5
4DC
  8
0
 10
4.7007884244297671
 20
3.6949228156201861
 30
0.0
 40
0.1039937000638473
 50
320.43861350074189
 51
351.75966533952021
  0
ATTDEF
  5
520
  8
DEFPOINTS
 10
4.5399266778514411
 20
1.101743767620593
 30
0.0
 40
0.001
  1
K-14402-4A
  3

  2
MODELNUMBER
 70
     0
1001
ACDBATTR
1070
     0
1070
     1
  0
ATTDEF
  5
521
  8
DEFPOINTS
 10
4.5399266778514411
 20
1.1000771009539261
 30
0.0
 40
0.001
  1
PURIST
  3

  2
TRADENAME
 70
     0
1001
ACDBATTR
1070
     0
1070
     1
  0
ATTDEF
  5
522
  8
DEFPOINTS
 10
4.5399266778514411
 20
1.09841043428726
 30
0.0
 40
0.001
  1
BATHROOM SINK FAUCET
  3

  2
PRODUCT
 70
     0
1001
ACDBATTR
1070
     0
1070
     1
  0
ATTDEF
  5
523
  8
DEFPOINTS
 10
4.5399266778514411
 20
1.0967437676205929
 30
0.0
 40
0.001
  1
BRASS
  3

  2
MATERIAL
 70
     0
1001
ACDBATTR
1070
     0
1070
     1
  0
ARC
  5
658
  8
0
 10
5.3968524966999976
 20
7.3615587083999996
 30
0.0
 40
0.03
 50
2.0000207513000281
 51
90.0
  0
ENDSEC
  0
EOF
