  0
SECTION
  2
HEADER
  9
$ACADVER
  1
AC1009
  9
$INSBASE
 10
4.5439367590000002
 20
17.223105525400001
 30
0.0
  9
$EXTMIN
 10
3.4239367590000001
 20
11.40443339722999
 30
0.0
  9
$EXTMAX
 10
5.6639367590000003
 20
18.613105525400002
 30
0.0
  9
$LIMMIN
 10
0.0
 20
0.0
  9
$LIMMAX
 10
11.692913385800001
 20
8.2677165353999982
  9
$ORTHOMODE
 70
     0
  9
$REGENMODE
 70
     1
  9
$FILLMODE
 70
     1
  9
$QTEXTMODE
 70
     0
  9
$MIRRTEXT
 70
     0
  9
$DRAGMODE
 70
     2
  9
$LTSCALE
 40
0.6431102362
  9
$OSMODE
 70
  3071
  9
$ATTMODE
 70
     1
  9
$TEXTSIZE
 40
0.2
  9
$TRACEWID
 40
0.05
  9
$TEXTSTYLE
  7
STANDARD
  9
$CLAYER
  8
0
  9
$CELTYPE
  6
BYLAYER
  9
$CECOLOR
 62
   256
  9
$DIMSCALE
 40
1.0
  9
$DIMASZ
 40
0.1875
  9
$DIMEXO
 40
0.0625
  9
$DIMDLI
 40
0.4443307087
  9
$DIMRND
 40
0.0
  9
$DIMDLE
 40
0.0
  9
$DIMEXE
 40
0.125
  9
$DIMTP
 40
0.0
  9
$DIMTM
 40
0.0
  9
$DIMTXT
 40
0.15625
  9
$DIMCEN
 40
0.1052362205
  9
$DIMTSZ
 40
0.0
  9
$DIMTOL
 70
     0
  9
$DIMLIM
 70
     0
  9
$DIMTIH
 70
     1
  9
$DIMTOH
 70
     1
  9
$DIMSE1
 70
     0
  9
$DIMSE2
 70
     0
  9
$DIMTAD
 70
     0
  9
$DIMZIN
 70
     0
  9
$DIMBLK
  1

  9
$DIMASO
 70
     1
  9
$DIMSHO
 70
     1
  9
$DIMPOST
  1

  9
$DIMAPOST
  1

  9
$DIMALT
 70
     0
  9
$DIMALTD
 70
     2
  9
$DIMALTF
 40
25.399999999999999
  9
$DIMLFAC
 40
1.0
  9
$DIMTOFL
 70
     0
  9
$DIMTVP
 40
0.0
  9
$DIMTIX
 70
     0
  9
$DIMSOXD
 70
     0
  9
$DIMSAH
 70
     0
  9
$DIMBLK1
  1

  9
$DIMBLK2
  1

  9
$DIMSTYLE
  2
STANDARD
  9
$DIMCLRD
 70
     0
  9
$DIMCLRE
 70
     0
  9
$DIMCLRT
 70
     0
  9
$DIMTFAC
 40
1.0
  9
$DIMGAP
 40
0.09
  9
$LUNITS
 70
     2
  9
$LUPREC
 70
     4
  9
$SKETCHINC
 40
0.1
  9
$FILLETRAD
 40
0.0
  9
$AUNITS
 70
     0
  9
$AUPREC
 70
     0
  9
$MENU
  1
.
  9
$ELEVATION
 40
0.0
  9
$PELEVATION
 40
0.0
  9
$THICKNESS
 40
0.0
  9
$LIMCHECK
 70
     0
  9
$BLIPMODE
 70
     0
  9
$CHAMFERA
 40
0.0
  9
$CHAMFERB
 40
0.0
  9
$SKPOLY
 70
     0
  9
$TDCREATE
 40
2457344.6398201622
  9
$TDUPDATE
 40
2457345.5823836341
  9
$TDINDWG
 40
0.0640793287
  9
$TDUSRTIMER
 40
0.0640793287
  9
$USRTIMER
 70
     1
  9
$ANGBASE
 50
0.0
  9
$ANGDIR
 70
     0
  9
$PDMODE
 70
     0
  9
$PDSIZE
 40
0.3125
  9
$PLINEWID
 40
0.0
  9
$COORDS
 70
     1
  9
$SPLFRAME
 70
     0
  9
$SPLINETYPE
 70
     6
  9
$SPLINESEGS
 70
     8
  9
$ATTDIA
 70
     0
  9
$ATTREQ
 70
     1
  9
$HANDLING
 70
     1
  9
$HANDSEED
  5
76F
  9
$SURFTAB1
 70
     6
  9
$SURFTAB2
 70
     6
  9
$SURFTYPE
 70
     6
  9
$SURFU
 70
     6
  9
$SURFV
 70
     6
  9
$UCSNAME
  2

  9
$UCSORG
 10
0.0
 20
0.0
 30
0.0
  9
$UCSXDIR
 10
1.0
 20
0.0
 30
0.0
  9
$UCSYDIR
 10
0.0
 20
1.0
 30
0.0
  9
$PUCSNAME
  2

  9
$PUCSORG
 10
0.0
 20
0.0
 30
0.0
  9
$PUCSXDIR
 10
1.0
 20
0.0
 30
0.0
  9
$PUCSYDIR
 10
0.0
 20
1.0
 30
0.0
  9
$USERI1
 70
     0
  9
$USERI2
 70
     0
  9
$USERI3
 70
     0
  9
$USERI4
 70
     0
  9
$USERI5
 70
     0
  9
$USERR1
 40
0.0
  9
$USERR2
 40
0.0
  9
$USERR3
 40
0.0
  9
$USERR4
 40
0.0
  9
$USERR5
 40
0.0
  9
$WORLDVIEW
 70
     1
  9
$SHADEDGE
 70
     3
  9
$SHADEDIF
 70
    70
  9
$TILEMODE
 70
     1
  9
$MAXACTVP
 70
    48
  9
$PLIMCHECK
 70
     0
  9
$PEXTMIN
 10
1.0000000000000000E+020
 20
1.0000000000000000E+020
 30
1.0000000000000000E+020
  9
$PEXTMAX
 10
-1.0000000000000000E+020
 20
-1.0000000000000000E+020
 30
-1.0000000000000000E+020
  9
$PLIMMIN
 10
0.0
 20
0.0
  9
$PLIMMAX
 10
12.0
 20
9.0
  9
$UNITMODE
 70
     0
  9
$VISRETAIN
 70
     1
  9
$PLINEGEN
 70
     0
  9
$PSLTSCALE
 70
     1
  0
ENDSEC
  0
SECTION
  2
TABLES
  0
TABLE
  2
VPORT
 70
     1
  0
VPORT
  2
*ACTIVE
 70
     0
 10
0.0
 20
0.0
 11
1.0
 21
1.0
 12
0.6196985623233254
 22
-0.3358465774881472
 13
0.0
 23
0.0
 14
1.0
 24
1.0
 15
0.0
 25
0.0
 16
-0.0000000000000044
 26
0.0
 36
19.538273427590919
 17
4.543936920309096
 27
15.008812696843361
 37
0.0
 40
11.3779852804331
 41
2.0329087048832268
 42
50.0
 43
0.0
 44
0.0
 50
0.0
 51
0.0
 71
     0
 72
   100
 73
     1
 74
     1
 75
     0
 76
     0
 77
     0
 78
     0
  0
ENDTAB
  0
TABLE
  2
LTYPE
 70
     1
  0
LTYPE
  2
CONTINUOUS
 70
     0
  3
Solid line
 72
    65
 73
     0
 40
0.0
  0
ENDTAB
  0
TABLE
  2
LAYER
 70
     2
  0
LAYER
  2
0
 70
     0
 62
     7
  6
CONTINUOUS
  0
LAYER
  2
DEFPOINTS
 70
     0
 62
     7
  6
CONTINUOUS
  0
ENDTAB
  0
TABLE
  2
STYLE
 70
     1
  0
STYLE
  2
STANDARD
 70
     0
 40
0.0
 41
0.8
 50
0.0
 71
     0
 42
0.2
  3
txt
  4

  0
ENDTAB
  0
TABLE
  2
VIEW
 70
     0
  0
ENDTAB
  0
TABLE
  2
UCS
 70
     0
  0
ENDTAB
  0
TABLE
  2
APPID
 70
     5
  0
APPID
  2
ACAD
 70
     0
  0
APPID
  2
ACAD_MLEADERVER
 70
     0
  0
APPID
  2
ACAD_NAV_VCDISPLAY
 70
     0
  0
APPID
  2
ACAD_EXEMPT_FROM_CAD_STANDARDS
 70
     0
  0
APPID
  2
ACDBATTR
 70
     0
  0
ENDTAB
  0
TABLE
  2
DIMSTYLE
 70
     1
  0
DIMSTYLE
  2
STANDARD
 70
     0
  3

  4

  5

  6

  7

 40
1.0
 41
0.1875
 42
0.0625
 43
0.38
 44
0.125
 45
0.0
 46
0.0
 47
1.5
 48
1.5
140
0.15625
141
0.09
142
0.0
143
25.399999999999999
144
1.0
145
0.0
146
1.0
147
0.09
 71
     0
 72
     0
 73
     1
 74
     1
 75
     0
 76
     0
 77
     0
 78
     4
170
     0
171
     2
172
     0
173
     0
174
     0
175
     0
176
     0
177
     0
178
     0
  0
ENDTAB
  0
ENDSEC
  0
SECTION
  2
BLOCKS
  0
BLOCK
  8
0
  2
$MODEL_SPACE
 70
     0
 10
0.0
 20
0.0
 30
0.0
  3
$MODEL_SPACE
  1

  0
ENDBLK
  5
21
  8
0
  0
BLOCK
 67
     1
  8
0
  2
$PAPER_SPACE
 70
     0
 10
0.0
 20
0.0
 30
0.0
  3
$PAPER_SPACE
  1

  0
ENDBLK
  5
1D
 67
     1
  8
0
  0
ENDSEC
  0
SECTION
  2
ENTITIES
  0
LINE
  5
2B1
  8
0
 10
4.3339367590000002
 20
13.973105525399999
 30
0.0
 11
4.7539367590000001
 21
13.973105525399999
 31
0.0
  0
LINE
  5
2B4
  8
0
 10
4.138936758999999
 20
16.408209316699999
 30
0.0
 11
4.138936758999999
 21
11.948105525400001
 31
0.0
  0
LINE
  5
2B5
  8
0
 10
4.1404367589999991
 20
11.935587141399999
 30
0.0
 11
4.1404367589999991
 21
11.738750126099999
 31
0.0
  0
LINE
  5
2B6
  8
0
 10
4.3239367589999986
 20
17.223105525400001
 30
0.0
 11
4.3239367589999986
 21
13.983105525399999
 31
0.0
  0
LINE
  5
2B7
  8
0
 10
4.3564367590000002
 20
18.113552085599999
 30
0.0
 11
4.3564367590000002
 21
18.613105525400002
 31
0.0
  0
LINE
  5
2BA
  8
0
 10
4.7314367590000002
 20
18.113549447099999
 30
0.0
 11
4.7314367590000002
 21
18.613105525400002
 31
0.0
  0
LINE
  5
2BB
  8
0
 10
4.763936758999999
 20
17.223105525400001
 30
0.0
 11
4.763936758999999
 21
13.983105525399999
 31
0.0
  0
LINE
  5
2BC
  8
0
 10
4.9474367589999986
 20
11.9356148202
 30
0.0
 11
4.9474367589999986
 21
11.738750126099999
 31
0.0
  0
LINE
  5
2BD
  8
0
 10
4.9489367589999986
 20
16.408207808
 30
0.0
 11
4.9489367589999986
 21
11.948105525400001
 31
0.0
  0
LINE
  5
2CC
  8
0
 10
4.7314365377999987
 20
18.613105525400002
 30
0.0
 11
4.3564369802999989
 21
18.613105525400002
 31
0.0
  0
ARC
  5
306
  8
0
 10
4.5439367590000002
 20
17.223105525400001
 30
0.0
 40
1.1200000000000001
 50
99.656027072900017
 51
248.75145618880001
  0
ARC
  5
307
  8
0
 10
4.5439367590000002
 20
17.223105525400001
 30
0.0
 40
1.1200000000000001
 50
291.23668309449999
 51
80.355640099699997
  0
ARC
  5
308
  8
0
 10
4.5439367590000002
 20
17.223105525400001
 30
0.0
 40
0.9099999999999999
 50
100.15502038459999
 51
255.96184243760001
  0
ARC
  5
309
  8
0
 10
4.5439367590000002
 20
17.223105525400001
 30
0.0
 40
0.9099999999999999
 50
284.04229855950001
 51
79.833558943699984
  0
ARC
  5
30E
  8
0
 10
4.5439367590000002
 20
17.407111324100001
 30
0.0
 40
0.73
 50
77.803352745699996
 51
102.1966472543
  0
ARC
  5
30F
  8
0
 10
4.5439367590000002
 20
17.223105525400001
 30
0.0
 40
0.22
 50
0.0
 51
180.0
  0
ARC
  5
511
  8
0
 10
4.4944019361538361
 20
11.766982144392429
 30
0.0
 40
0.3550892753863608
 50
184.5602181746583
 51
264.67635649998329
  0
ARC
  5
512
  8
0
 10
4.5500054624393647
 20
11.844966955701651
 30
0.0
 40
0.4405335584716665
 50
258.40429381923508
 51
314.19340587983942
  0
ARC
  5
513
  8
0
 10
4.6514779037875593
 20
11.742003612218671
 30
0.0
 40
0.2959767375159455
 50
314.00352928614018
 51
359.37017084805592
  0
ARC
  5
514
  8
0
 10
4.4575759072539647
 20
11.96238855587594
 30
0.0
 40
0.3182696265325394
 50
184.83058554246071
 51
237.6970093512252
  0
ARC
  5
515
  8
0
 10
4.5455249433239953
 20
12.0832253286731
 30
0.0
 40
0.4675065696818822
 50
236.50043593503759
 51
289.16537057955441
  0
ARC
  5
516
  8
0
 10
4.5943904612733917
 20
11.98855599531748
 30
0.0
 40
0.3623557677018175
 50
286.78060848338822
 51
343.14539471742069
  0
LINE
  5
517
  8
0
 10
4.9411807308999967
 20
11.88349310329999
 30
0.0
 11
4.9489367589999986
 21
11.948105525400001
 31
0.0
  0
ATTDEF
  5
565
  8
DEFPOINTS
 10
4.5396309898411076
 20
17.232201799761938
 30
0.0
 40
0.001
  1
K-14402-4A
  3

  2
MODELNUMBER
 70
     0
1001
ACDBATTR
1070
     0
1070
     1
  0
ATTDEF
  5
566
  8
DEFPOINTS
 10
4.5396309898411076
 20
17.23053513309527
 30
0.0
 40
0.001
  1
PURIST
  3

  2
TRADENAME
 70
     0
1001
ACDBATTR
1070
     0
1070
     1
  0
ATTDEF
  5
567
  8
DEFPOINTS
 10
4.5396309898411076
 20
17.228868466428612
 30
0.0
 40
0.001
  1
BATHROOM SINK FAUCET
  3

  2
PRODUCT
 70
     0
1001
ACDBATTR
1070
     0
1070
     1
  0
ATTDEF
  5
568
  8
DEFPOINTS
 10
4.5396309898411076
 20
17.227201799761939
 30
0.0
 40
0.001
  1
BRASS
  3

  2
MATERIAL
 70
     0
1001
ACDBATTR
1070
     0
1070
     1
  0
ENDSEC
  0
EOF
