  0
SECTION
  2
HEADER
  9
$ACADVER
  1
AC1009
  9
$INSBASE
 10
3836.7995524747720992
 20
119.4507587016562979
 30
0.0
  9
$EXTMIN
 10
3835.8045524747722084
 20
119.4454351154578973
 30
0.0
  9
$EXTMAX
 10
3837.7945524747719901
 20
122.6806799614563062
 30
0.0
  9
$LIMMIN
 10
0.0
 20
0.0
  9
$LIMMAX
 10
11.6929133858000007
 20
8.2677165353999982
  9
$ORTHOMODE
 70
     1
  9
$REGENMODE
 70
     1
  9
$FILLMODE
 70
     1
  9
$QTEXTMODE
 70
     0
  9
$MIRRTEXT
 70
     0
  9
$DRAGMODE
 70
     2
  9
$LTSCALE
 40
0.6431102362
  9
$OSMODE
 70
  4095
  9
$ATTMODE
 70
     1
  9
$TEXTSIZE
 40
0.2
  9
$TRACEWID
 40
0.05
  9
$TEXTSTYLE
  7
STANDARD
  9
$CLAYER
  8
0
  9
$CELTYPE
  6
BYLAYER
  9
$CECOLOR
 62
   256
  9
$DIMSCALE
 40
1.0
  9
$DIMASZ
 40
0.1875
  9
$DIMEXO
 40
0.0625
  9
$DIMDLI
 40
0.4443307087
  9
$DIMRND
 40
0.0
  9
$DIMDLE
 40
0.0
  9
$DIMEXE
 40
0.125
  9
$DIMTP
 40
0.01
  9
$DIMTM
 40
0.01
  9
$DIMTXT
 40
2.0
  9
$DIMCEN
 40
0.1052362205
  9
$DIMTSZ
 40
0.0
  9
$DIMTOL
 70
     1
  9
$DIMLIM
 70
     0
  9
$DIMTIH
 70
     1
  9
$DIMTOH
 70
     1
  9
$DIMSE1
 70
     0
  9
$DIMSE2
 70
     0
  9
$DIMTAD
 70
     0
  9
$DIMZIN
 70
     0
  9
$DIMBLK
  1

  9
$DIMASO
 70
     1
  9
$DIMSHO
 70
     1
  9
$DIMPOST
  1
\X
  9
$DIMAPOST
  1

  9
$DIMALT
 70
     1
  9
$DIMALTD
 70
     2
  9
$DIMALTF
 40
25.3999999999999986
  9
$DIMLFAC
 40
1.0
  9
$DIMTOFL
 70
     0
  9
$DIMTVP
 40
0.0
  9
$DIMTIX
 70
     0
  9
$DIMSOXD
 70
     0
  9
$DIMSAH
 70
     0
  9
$DIMBLK1
  1

  9
$DIMBLK2
  1

  9
$DIMSTYLE
  2
STANDARD
  9
$DIMCLRD
 70
     0
  9
$DIMCLRE
 70
     0
  9
$DIMCLRT
 70
     0
  9
$DIMTFAC
 40
1.0
  9
$DIMGAP
 40
0.09
  9
$LUNITS
 70
     2
  9
$LUPREC
 70
     4
  9
$SKETCHINC
 40
0.1
  9
$FILLETRAD
 40
0.0
  9
$AUNITS
 70
     0
  9
$AUPREC
 70
     0
  9
$MENU
  1
.
  9
$ELEVATION
 40
0.0
  9
$PELEVATION
 40
0.0
  9
$THICKNESS
 40
0.0
  9
$LIMCHECK
 70
     0
  9
$BLIPMODE
 70
     0
  9
$CHAMFERA
 40
0.0
  9
$CHAMFERB
 40
0.0
  9
$SKPOLY
 70
     0
  9
$TDCREATE
 40
2458060.468368056230247
  9
$TDUPDATE
 40
2458898.3094328697770834
  9
$TDINDWG
 40
0.3025765046
  9
$TDUSRTIMER
 40
0.3025765046
  9
$USRTIMER
 70
     1
  9
$ANGBASE
 50
0.0
  9
$ANGDIR
 70
     0
  9
$PDMODE
 70
     0
  9
$PDSIZE
 40
0.3125
  9
$PLINEWID
 40
0.0
  9
$COORDS
 70
     1
  9
$SPLFRAME
 70
     0
  9
$SPLINETYPE
 70
     6
  9
$SPLINESEGS
 70
     8
  9
$ATTDIA
 70
     1
  9
$ATTREQ
 70
     1
  9
$HANDLING
 70
     1
  9
$HANDSEED
  5
6ACF
  9
$SURFTAB1
 70
     6
  9
$SURFTAB2
 70
     6
  9
$SURFTYPE
 70
     6
  9
$SURFU
 70
     6
  9
$SURFV
 70
     6
  9
$UCSNAME
  2

  9
$UCSORG
 10
0.0
 20
0.0
 30
0.0
  9
$UCSXDIR
 10
1.0
 20
0.0
 30
0.0
  9
$UCSYDIR
 10
0.0
 20
1.0
 30
0.0
  9
$PUCSNAME
  2

  9
$PUCSORG
 10
0.0
 20
0.0
 30
0.0
  9
$PUCSXDIR
 10
1.0
 20
0.0
 30
0.0
  9
$PUCSYDIR
 10
0.0
 20
1.0
 30
0.0
  9
$USERI1
 70
     0
  9
$USERI2
 70
     0
  9
$USERI3
 70
     0
  9
$USERI4
 70
     0
  9
$USERI5
 70
     0
  9
$USERR1
 40
0.0
  9
$USERR2
 40
0.0
  9
$USERR3
 40
0.0
  9
$USERR4
 40
0.0
  9
$USERR5
 40
0.0
  9
$WORLDVIEW
 70
     1
  9
$SHADEDGE
 70
     3
  9
$SHADEDIF
 70
    70
  9
$TILEMODE
 70
     1
  9
$MAXACTVP
 70
    64
  9
$PLIMCHECK
 70
     0
  9
$PEXTMIN
 10
1.0000000000000000E+20
 20
1.0000000000000000E+20
 30
1.0000000000000000E+20
  9
$PEXTMAX
 10
-1.0000000000000000E+20
 20
-1.0000000000000000E+20
 30
-1.0000000000000000E+20
  9
$PLIMMIN
 10
0.0
 20
0.0
  9
$PLIMMAX
 10
12.0
 20
9.0
  9
$UNITMODE
 70
     0
  9
$VISRETAIN
 70
     1
  9
$PLINEGEN
 70
     0
  9
$PSLTSCALE
 70
     1
  0
ENDSEC
  0
SECTION
  2
TABLES
  0
TABLE
  2
VPORT
 70
     1
  0
VPORT
  2
*ACTIVE
 70
     0
 10
0.0
 20
0.0
 11
1.0
 21
1.0
 12
0.0
 22
0.0
 13
0.0
 23
0.0
 14
1.0
 24
1.0
 15
0.0
 25
0.0
 16
0.0
 26
0.0
 36
10.8814811922669392
 17
3836.7994384765629547
 27
121.0630572183735012
 37
0.0
 40
3.7983192613146528
 41
2.1481900452488678
 42
50.0
 43
0.0
 44
0.0
 50
0.0
 51
0.0
 71
     0
 72
   100
 73
     1
 74
     1
 75
     0
 76
     0
 77
     0
 78
     0
  0
ENDTAB
  0
TABLE
  2
LTYPE
 70
     2
  0
LTYPE
  2
CONTINUOUS
 70
     0
  3
Solid line
 72
    65
 73
     0
 40
0.0
  0
LTYPE
  2
PHANTOM2
 70
     0
  3
___ _ _ ___ _ _ ___ _ _ ___ _ _
 72
    65
 73
     6
 40
1.25
 49
0.625
 49
-0.125
 49
0.125
 49
-0.125
 49
0.125
 49
-0.125
  0
ENDTAB
  0
TABLE
  2
LAYER
 70
     2
  0
LAYER
  2
0
 70
     0
 62
   255
  6
CONTINUOUS
  0
LAYER
  2
DEFPOINTS
 70
     0
 62
     7
  6
CONTINUOUS
  0
ENDTAB
  0
TABLE
  2
STYLE
 70
     1
  0
STYLE
  2
STANDARD
 70
     0
 40
0.0
 41
0.8
 50
0.0
 71
     0
 42
0.2
  3
txt
  4

  0
ENDTAB
  0
TABLE
  2
VIEW
 70
     0
  0
ENDTAB
  0
TABLE
  2
UCS
 70
     0
  0
ENDTAB
  0
TABLE
  2
APPID
 70
     9
  0
APPID
  2
ACAD
 70
     0
  0
APPID
  2
ACAD_MLEADERVER
 70
     0
  0
APPID
  2
ACAD_EXEMPT_FROM_CAD_STANDARDS
 70
     0
  0
APPID
  2
ACAD_NAV_VCDISPLAY
 70
     0
  0
APPID
  2
ACAECLAYERSTANDARD
 70
     0
  0
APPID
  2
ACCMTRANSPARENCY
 70
     0
  0
APPID
  2
ACAD_DSTYLE_DIMJAG
 70
     0
  0
APPID
  2
ACAD_DSTYLE_DIMTALN
 70
     0
  0
APPID
  2
ACDBATTR
 70
     0
  0
ENDTAB
  0
TABLE
  2
DIMSTYLE
 70
     1
  0
DIMSTYLE
  2
STANDARD
 70
     0
  3

  4

  5

  6

  7

 40
1.0
 41
0.1875
 42
0.0625
 43
0.38
 44
0.125
 45
0.0
 46
0.0
 47
0.01
 48
0.01
140
0.15625
141
0.09
142
0.0
143
25.3999999999999986
144
1.0
145
0.0
146
1.0
147
0.09
 71
     1
 72
     0
 73
     1
 74
     1
 75
     0
 76
     0
 77
     0
 78
     4
170
     0
171
     2
172
     0
173
     0
174
     0
175
     0
176
     0
177
     0
178
     0
  0
ENDTAB
  0
ENDSEC
  0
SECTION
  2
BLOCKS
  0
BLOCK
  8
0
  2
$MODEL_SPACE
 70
     0
 10
0.0
 20
0.0
 30
0.0
  3
$MODEL_SPACE
  1

  0
ENDBLK
  5
21
  8
0
  0
BLOCK
 67
     1
  8
0
  2
$PAPER_SPACE
 70
     0
 10
0.0
 20
0.0
 30
0.0
  3
$PAPER_SPACE
  1

  0
ENDBLK
  5
1D
 67
     1
  8
0
  0
ENDSEC
  0
SECTION
  2
ENTITIES
  0
ATTDEF
  5
3930
  8
DEFPOINTS
 10
3836.794631629154992
 20
119.4487684487912986
 30
0.0
 40
0.001
  1
K-1894-C
  3

  2
MODELNUMBER
 70
     0
1001
ACDBATTR
1070
     0
1070
     1
  0
ATTDEF
  5
3931
  8
DEFPOINTS
 10
3836.794631629154992
 20
119.4471017821246051
 30
0.0
 40
0.001
  1
TRANSITIONAL
  3

  2
TRADENAME
 70
     0
1001
ACDBATTR
1070
     0
1070
     1
  0
ATTDEF
  5
3932
  8
DEFPOINTS
 10
3836.794631629154992
 20
119.4454351154578973
 30
0.0
 40
0.001
  1
SOAP DISPENSER
  3

  2
PRODUCT
 70
     0
1001
ACDBATTR
1070
     0
1070
     1
  0
LINE
  5
68FE
  8
0
 10
3835.8045524747722084
 20
119.4507587016562979
 30
0.0
 11
3837.7945524747719901
 21
119.4507587016562979
 31
0.0
  0
LINE
  5
68FF
  8
0
 10
3837.7544428250489545
 20
119.547988488356296
 30
0.0
 11
3835.8446621243720074
 21
119.547988488356296
 31
0.0
  0
LINE
  5
6900
  8
0
 10
3837.4115583243069523
 20
119.9007587016563008
 30
0.0
 11
3836.1875466252708975
 21
119.9007587016563008
 31
0.0
  0
LINE
  5
6901
  8
0
 10
3835.8045524747722084
 20
119.491381298356302
 30
0.0
 11
3835.8045524747722084
 21
119.4507587016562979
 31
0.0
  0
LINE
  5
6902
  8
0
 10
3836.1886149068718623
 20
120.2406799614562942
 30
0.0
 11
3837.4104900426709719
 21
120.2406799614562942
 31
0.0
  0
LINE
  5
6903
  8
0
 10
3836.3025524747708914
 20
120.2406799614562942
 30
0.0
 11
3836.3025524747708914
 21
119.9157587016563014
 31
0.0
  0
LINE
  5
6904
  8
0
 10
3836.6615524747721793
 20
121.279077908956296
 30
0.0
 11
3836.6615524747721793
 21
121.9177189613563002
 31
0.0
  0
LINE
  5
6905
  8
0
 10
3836.6615524747721793
 20
121.6063078351563007
 30
0.0
 11
3836.2841158129708674
 21
121.6063078351563007
 31
0.0
  0
LINE
  5
6906
  8
0
 10
3836.3162890987719038
 20
121.6946164958562946
 30
0.0
 11
3836.6615524747721793
 21
121.6946164958562946
 31
0.0
  0
ARC
  5
6907
  8
0
 10
3835.6789092089720725
 20
120.019715073356295
 30
0.0
 40
0.5
 50
289.3601987884979962
 51
343.6771331889003136
  0
ARC
  5
6908
  8
0
 10
3835.8699450340877775
 20
119.4875603409069953
 30
0.0
 40
0.0655040955187691
 50
112.7042510473083041
 51
176.655948371886609
  0
ARC
  5
6909
  8
0
 10
3836.1883616769027867
 20
119.8696706973029933
 30
0.0
 40
0.03109868685158
 50
91.5018115927831985
 51
162.175267676608911
  0
ARC
  5
690A
  8
0
 10
3836.1899796837551548
 20
120.2720862016519021
 30
0.0
 40
0.0314358798057776
 50
184.2027857353741069
 51
267.5117432350783133
  0
ARC
  5
690B
  8
0
 10
3836.2863232906238409
 20
119.9169878857236
 30
0.0
 40
0.0162756662404394
 50
274.3312661208153145
 51
355.6687376259843063
  0
ARC
  5
690C
  8
0
 10
3836.2285524747721865
 20
121.9656799614563027
 30
0.0
 40
0.171
 50
0.0
 51
20.0000000000953193
  0
ARC
  5
690D
  8
0
 10
3836.327052474814991
 20
121.6406799614397016
 30
0.0
 40
0.0550000000467453
 50
101.2854867960336946
 51
218.6783526001370035
  0
ARC
  5
690E
  8
0
 10
3836.3133536216719222
 20
121.7093264575563012
 30
0.0
 40
0.015
 50
281.2855295447026265
 51
339.7045843645959735
  0
ARC
  5
690F
  8
0
 10
3836.2724058114717991
 20
121.5969336222563015
 30
0.0
 40
0.015
 50
340.794130001299493
 51
38.6783359732054492
  0
ARC
  5
6910
  8
0
 10
3844.1550467801721425
 20
120.5091400373563033
 30
0.0
 40
8.0
 50
176.549138365800502
 51
181.7145288849000053
  0
ARC
  5
6911
  8
0
 10
3836.7995524747720992
 20
121.9177189613563002
 30
0.0
 40
0.138
 50
90.0
 51
180.0
  0
ARC
  5
6912
  8
0
 10
3838.2128020639747774
 20
120.905103290033594
 30
0.0
 40
2.0450408920435859
 50
160.3737163624882101
 51
177.6017035903392127
  0
ARC
  5
6913
  8
0
 10
3835.4740210750378537
 20
122.080192238749305
 30
0.0
 40
0.9325885660588836
 50
336.2183326214957901
 51
352.9468679707977117
  0
ARC
  5
6914
  8
0
 10
3836.2002488917578376
 20
121.9480496984160993
 30
0.0
 40
0.2037429926006943
 50
21.9369998714767291
 51
56.9325482987444005
  0
ARC
  5
6915
  8
0
 10
3836.4425009865121865
 20
122.3929621178370013
 30
0.0
 40
0.3038952528980435
 50
211.2975171813517079
 51
244.4468590082877029
  0
ARC
  5
6916
  8
0
 10
3836.3703789053652145
 20
122.3418987186575038
 30
0.0
 40
0.2158298716852578
 50
180.3235419381425118
 51
209.6602654611160119
  0
ARC
  5
6917
  8
0
 10
3836.3836342415579566
 20
122.3362941139772033
 30
0.0
 40
0.2291237472023933
 50
158.4227770003288924
 51
178.90318701853829
  0
ARC
  5
6918
  8
0
 10
3836.6518090143267727
 20
122.0701635104602047
 30
0.0
 40
0.5952886350953407
 50
99.8911188734258388
 51
143.9416706228493013
  0
ARC
  5
6919
  8
0
 10
3836.8214651939970281
 20
121.1431449644528016
 30
0.0
 40
1.5376911374767479
 50
90.8165156161898324
 51
100.1852762394672993
  0
ARC
  5
691A
  8
0
 10
3836.79404771330519
 20
121.3050104910713998
 30
0.0
 40
0.1350092109783592
 50
191.0742011346991092
 51
239.5182804878226079
  0
ARC
  5
691B
  8
0
 10
3836.7991320582209482
 20
121.3111159945414954
 30
0.0
 40
0.1428557568245788
 50
239.0030757749919985
 51
270.1686185370850808
  0
ARC
  5
691C
  8
0
 10
3836.7917999511091693
 20
121.3046844842236993
 30
0.0
 40
0.1327407314624333
 50
168.8775358179321984
 51
191.1224641820676879
  0
ARC
  5
691D
  8
0
 10
3836.7977714334861048
 20
121.8156062033562961
 30
0.0
 40
0.1362189587138603
 50
89.2508454199596741
 51
270.7491545781380751
  0
LINE
  5
691E
  8
0
 10
3837.7945524747719901
 20
119.491381298356302
 30
0.0
 11
3837.7945524747719901
 21
119.4507587016562979
 31
0.0
  0
LINE
  5
691F
  8
0
 10
3837.2965524747710333
 20
120.2406799614562942
 30
0.0
 11
3837.2965524747710333
 21
119.9157587016563014
 31
0.0
  0
LINE
  5
6920
  8
0
 10
3836.9375524747720192
 20
121.279077908956296
 30
0.0
 11
3836.9375524747720192
 21
121.9177189613563002
 31
0.0
  0
LINE
  5
6921
  8
0
 10
3836.9375524747720192
 20
121.6063078351563007
 30
0.0
 11
3837.3149891365710573
 21
121.6063078351563007
 31
0.0
  0
LINE
  5
6922
  8
0
 10
3837.2828158507718399
 20
121.6946164958562946
 30
0.0
 11
3836.9375524747720192
 21
121.6946164958562946
 31
0.0
  0
ARC
  5
6923
  8
0
 10
3837.9201957405721259
 20
120.019715073356295
 30
0.0
 40
0.5
 50
196.3228668110996864
 51
250.6398012115020038
  0
ARC
  5
6924
  8
0
 10
3837.7291599154559663
 20
119.4875603409069953
 30
0.0
 40
0.0655040955187691
 50
3.3440516281133879
 51
67.2957489526917243
  0
ARC
  5
6925
  8
0
 10
3837.4107432726400475
 20
119.8696706973029933
 30
0.0
 40
0.03109868685158
 50
17.82473232339105
 51
88.4981884072168157
  0
ARC
  5
6926
  8
0
 10
3837.4091252657881341
 20
120.2720862016519021
 30
0.0
 40
0.0314358798057776
 50
272.4882567649216867
 51
355.7972142646257794
  0
ARC
  5
6927
  8
0
 10
3837.3127816589189933
 20
119.9169878857236
 30
0.0
 40
0.0162756662404394
 50
184.3312623740156937
 51
265.6687338791846855
  0
ARC
  5
6928
  8
0
 10
3837.3705524747720119
 20
121.9656799614563027
 30
0.0
 40
0.171
 50
159.999999999904702
 51
180.0
  0
ARC
  5
6929
  8
0
 10
3837.2720524747278432
 20
121.6406799614397016
 30
0.0
 40
0.0550000000467453
 50
321.3216473998630249
 51
78.7145132039662485
  0
ARC
  5
692A
  8
0
 10
3837.2857513278718216
 20
121.7093264575563012
 30
0.0
 40
0.015
 50
200.2954156354039981
 51
258.7144704552973735
  0
ARC
  5
692B
  8
0
 10
3837.3266991380719446
 20
121.5969336222563015
 30
0.0
 40
0.015
 50
141.3216640267945081
 51
199.205869998700507
  0
ARC
  5
692C
  8
0
 10
3829.444058169372056
 20
120.5091400373563033
 30
0.0
 40
8.0
 50
358.2854711150999947
 51
3.4508616341994629
  0
ARC
  5
692D
  8
0
 10
3836.7995524747720992
 20
121.9177189613563002
 30
0.0
 40
0.138
 50
0.0
 51
90.0
  0
ARC
  5
692E
  8
0
 10
3835.3863028855689663
 20
120.905103290033594
 30
0.0
 40
2.0450408920435859
 50
2.398296409660726
 51
19.6262836375117402
  0
ARC
  5
692F
  8
0
 10
3838.1250838745049805
 20
122.080192238749305
 30
0.0
 40
0.9325885660588836
 50
187.0531320292022883
 51
203.7816673785042099
  0
ARC
  5
6930
  8
0
 10
3837.3988560577859062
 20
121.9480496984160993
 30
0.0
 40
0.2037429926006943
 50
123.0674517012556066
 51
158.0630001285232993
  0
ARC
  5
6931
  8
0
 10
3837.156603963032012
 20
122.3929621178370013
 30
0.0
 40
0.3038952528980435
 50
295.5531409917123256
 51
328.7024828186483205
  0
ARC
  5
6932
  8
0
 10
3837.228726044178984
 20
122.3418987186575038
 30
0.0
 40
0.2158298716852578
 50
330.3397345388839881
 51
359.6764580618573746
  0
ARC
  5
6933
  8
0
 10
3837.2154707079857872
 20
122.3362941139772033
 30
0.0
 40
0.2291237472023933
 50
1.0968129814617049
 51
21.5772229996710507
  0
ARC
  5
6934
  8
0
 10
3836.9472959352160615
 20
122.0701635104602047
 30
0.0
 40
0.5952886350953407
 50
36.0583293771507414
 51
80.1088811265741754
  0
ARC
  5
6935
  8
0
 10
3836.8050572362390085
 20
121.3050104910713998
 30
0.0
 40
0.1350092109783592
 50
300.4817195121773921
 51
348.9257988653009193
  0
ARC
  5
6936
  8
0
 10
3836.7999728913209765
 20
121.3111159945414954
 30
0.0
 40
0.1428557568245788
 50
269.8313814629149192
 51
300.9969242250081152
  0
ARC
  5
6937
  8
0
 10
3836.8073049984341196
 20
121.3046844842236993
 30
0.0
 40
0.1327407314624333
 50
348.8775358179323121
 51
11.1224641820677501
  0
ARC
  5
6938
  8
0
 10
3836.8013335160580937
 20
121.8156062033562961
 30
0.0
 40
0.1362189587138603
 50
269.2508454218619249
 51
90.7491545800663744
  0
ARC
  5
6939
  8
0
 10
3836.7776397555448966
 20
121.1431449644528016
 30
0.0
 40
1.5376911374767479
 50
79.8147237605326723
 51
89.1834843838101818
  0
ENDSEC
  0
EOF
