  0
SECTION
  2
HEADER
  9
$ACADVER
  1
AC1009
  9
$INSBASE
 10
3843.4687196808349654
 20
121.4808922985104971
 30
0.0
  9
$EXTMIN
 10
3840.009679841085017
 20
121.4808922985104971
 30
0.0
  9
$EXTMAX
 10
3844.4637196808348563
 20
124.7108135583105053
 30
0.0
  9
$LIMMIN
 10
0.0
 20
0.0
  9
$LIMMAX
 10
11.6929133858000007
 20
8.2677165353999982
  9
$ORTHOMODE
 70
     1
  9
$REGENMODE
 70
     1
  9
$FILLMODE
 70
     1
  9
$QTEXTMODE
 70
     0
  9
$MIRRTEXT
 70
     0
  9
$DRAGMODE
 70
     2
  9
$LTSCALE
 40
0.6431102362
  9
$OSMODE
 70
  4095
  9
$ATTMODE
 70
     1
  9
$TEXTSIZE
 40
0.2
  9
$TRACEWID
 40
0.05
  9
$TEXTSTYLE
  7
STANDARD
  9
$CLAYER
  8
0
  9
$CELTYPE
  6
BYLAYER
  9
$CECOLOR
 62
   256
  9
$DIMSCALE
 40
1.0
  9
$DIMASZ
 40
0.1875
  9
$DIMEXO
 40
0.0625
  9
$DIMDLI
 40
0.4443307087
  9
$DIMRND
 40
0.0
  9
$DIMDLE
 40
0.0
  9
$DIMEXE
 40
0.125
  9
$DIMTP
 40
0.01
  9
$DIMTM
 40
0.01
  9
$DIMTXT
 40
2.0
  9
$DIMCEN
 40
0.1052362205
  9
$DIMTSZ
 40
0.0
  9
$DIMTOL
 70
     1
  9
$DIMLIM
 70
     0
  9
$DIMTIH
 70
     1
  9
$DIMTOH
 70
     1
  9
$DIMSE1
 70
     0
  9
$DIMSE2
 70
     0
  9
$DIMTAD
 70
     0
  9
$DIMZIN
 70
     0
  9
$DIMBLK
  1

  9
$DIMASO
 70
     1
  9
$DIMSHO
 70
     1
  9
$DIMPOST
  1
\X
  9
$DIMAPOST
  1

  9
$DIMALT
 70
     1
  9
$DIMALTD
 70
     2
  9
$DIMALTF
 40
25.3999999999999986
  9
$DIMLFAC
 40
1.0
  9
$DIMTOFL
 70
     0
  9
$DIMTVP
 40
0.0
  9
$DIMTIX
 70
     0
  9
$DIMSOXD
 70
     0
  9
$DIMSAH
 70
     0
  9
$DIMBLK1
  1

  9
$DIMBLK2
  1

  9
$DIMSTYLE
  2
STANDARD
  9
$DIMCLRD
 70
     0
  9
$DIMCLRE
 70
     0
  9
$DIMCLRT
 70
     0
  9
$DIMTFAC
 40
1.0
  9
$DIMGAP
 40
0.09
  9
$LUNITS
 70
     2
  9
$LUPREC
 70
     4
  9
$SKETCHINC
 40
0.1
  9
$FILLETRAD
 40
0.0
  9
$AUNITS
 70
     0
  9
$AUPREC
 70
     0
  9
$MENU
  1
.
  9
$ELEVATION
 40
0.0
  9
$PELEVATION
 40
0.0
  9
$THICKNESS
 40
0.0
  9
$LIMCHECK
 70
     0
  9
$BLIPMODE
 70
     0
  9
$CHAMFERA
 40
0.0
  9
$CHAMFERB
 40
0.0
  9
$SKPOLY
 70
     0
  9
$TDCREATE
 40
2458060.468368056230247
  9
$TDUPDATE
 40
2458898.3096527778543532
  9
$TDINDWG
 40
0.303733912
  9
$TDUSRTIMER
 40
0.303733912
  9
$USRTIMER
 70
     1
  9
$ANGBASE
 50
0.0
  9
$ANGDIR
 70
     0
  9
$PDMODE
 70
     0
  9
$PDSIZE
 40
0.3125
  9
$PLINEWID
 40
0.0
  9
$COORDS
 70
     1
  9
$SPLFRAME
 70
     0
  9
$SPLINETYPE
 70
     6
  9
$SPLINESEGS
 70
     8
  9
$ATTDIA
 70
     1
  9
$ATTREQ
 70
     1
  9
$HANDLING
 70
     1
  9
$HANDSEED
  5
6B55
  9
$SURFTAB1
 70
     6
  9
$SURFTAB2
 70
     6
  9
$SURFTYPE
 70
     6
  9
$SURFU
 70
     6
  9
$SURFV
 70
     6
  9
$UCSNAME
  2

  9
$UCSORG
 10
0.0
 20
0.0
 30
0.0
  9
$UCSXDIR
 10
1.0
 20
0.0
 30
0.0
  9
$UCSYDIR
 10
0.0
 20
1.0
 30
0.0
  9
$PUCSNAME
  2

  9
$PUCSORG
 10
0.0
 20
0.0
 30
0.0
  9
$PUCSXDIR
 10
1.0
 20
0.0
 30
0.0
  9
$PUCSYDIR
 10
0.0
 20
1.0
 30
0.0
  9
$USERI1
 70
     0
  9
$USERI2
 70
     0
  9
$USERI3
 70
     0
  9
$USERI4
 70
     0
  9
$USERI5
 70
     0
  9
$USERR1
 40
0.0
  9
$USERR2
 40
0.0
  9
$USERR3
 40
0.0
  9
$USERR4
 40
0.0
  9
$USERR5
 40
0.0
  9
$WORLDVIEW
 70
     1
  9
$SHADEDGE
 70
     3
  9
$SHADEDIF
 70
    70
  9
$TILEMODE
 70
     1
  9
$MAXACTVP
 70
    64
  9
$PLIMCHECK
 70
     0
  9
$PEXTMIN
 10
1.0000000000000000E+20
 20
1.0000000000000000E+20
 30
1.0000000000000000E+20
  9
$PEXTMAX
 10
-1.0000000000000000E+20
 20
-1.0000000000000000E+20
 30
-1.0000000000000000E+20
  9
$PLIMMIN
 10
0.0
 20
0.0
  9
$PLIMMAX
 10
12.0
 20
9.0
  9
$UNITMODE
 70
     0
  9
$VISRETAIN
 70
     1
  9
$PLINEGEN
 70
     0
  9
$PSLTSCALE
 70
     1
  0
ENDSEC
  0
SECTION
  2
TABLES
  0
TABLE
  2
VPORT
 70
     1
  0
VPORT
  2
*ACTIVE
 70
     0
 10
0.0
 20
0.0
 11
1.0
 21
1.0
 12
0.0
 22
0.0
 13
0.0
 23
0.0
 14
1.0
 24
1.0
 15
0.0
 25
0.0
 16
0.0
 26
0.0
 36
15.7616858761681407
 17
3842.2366943359379547
 27
123.0958557128905966
 37
0.0
 40
5.50379389879234
 41
2.1481900452488678
 42
50.0
 43
0.0
 44
0.0
 50
0.0
 51
0.0
 71
     0
 72
   100
 73
     1
 74
     1
 75
     0
 76
     0
 77
     0
 78
     0
  0
ENDTAB
  0
TABLE
  2
LTYPE
 70
     2
  0
LTYPE
  2
CONTINUOUS
 70
     0
  3
Solid line
 72
    65
 73
     0
 40
0.0
  0
LTYPE
  2
PHANTOM2
 70
     0
  3
___ _ _ ___ _ _ ___ _ _ ___ _ _
 72
    65
 73
     6
 40
1.25
 49
0.625
 49
-0.125
 49
0.125
 49
-0.125
 49
0.125
 49
-0.125
  0
ENDTAB
  0
TABLE
  2
LAYER
 70
     2
  0
LAYER
  2
0
 70
     0
 62
   255
  6
CONTINUOUS
  0
LAYER
  2
DEFPOINTS
 70
     0
 62
     7
  6
CONTINUOUS
  0
ENDTAB
  0
TABLE
  2
STYLE
 70
     1
  0
STYLE
  2
STANDARD
 70
     0
 40
0.0
 41
0.8
 50
0.0
 71
     0
 42
0.2
  3
txt
  4

  0
ENDTAB
  0
TABLE
  2
VIEW
 70
     0
  0
ENDTAB
  0
TABLE
  2
UCS
 70
     0
  0
ENDTAB
  0
TABLE
  2
APPID
 70
     9
  0
APPID
  2
ACAD
 70
     0
  0
APPID
  2
ACAD_MLEADERVER
 70
     0
  0
APPID
  2
ACAD_EXEMPT_FROM_CAD_STANDARDS
 70
     0
  0
APPID
  2
ACAD_NAV_VCDISPLAY
 70
     0
  0
APPID
  2
ACAECLAYERSTANDARD
 70
     0
  0
APPID
  2
ACCMTRANSPARENCY
 70
     0
  0
APPID
  2
ACAD_DSTYLE_DIMJAG
 70
     0
  0
APPID
  2
ACAD_DSTYLE_DIMTALN
 70
     0
  0
APPID
  2
ACDBATTR
 70
     0
  0
ENDTAB
  0
TABLE
  2
DIMSTYLE
 70
     1
  0
DIMSTYLE
  2
STANDARD
 70
     0
  3

  4

  5

  6

  7

 40
1.0
 41
0.1875
 42
0.0625
 43
0.38
 44
0.125
 45
0.0
 46
0.0
 47
0.01
 48
0.01
140
0.15625
141
0.09
142
0.0
143
25.3999999999999986
144
1.0
145
0.0
146
1.0
147
0.09
 71
     1
 72
     0
 73
     1
 74
     1
 75
     0
 76
     0
 77
     0
 78
     4
170
     0
171
     2
172
     0
173
     0
174
     0
175
     0
176
     0
177
     0
178
     0
  0
ENDTAB
  0
ENDSEC
  0
SECTION
  2
BLOCKS
  0
BLOCK
  8
0
  2
$MODEL_SPACE
 70
     0
 10
0.0
 20
0.0
 30
0.0
  3
$MODEL_SPACE
  1

  0
ENDBLK
  5
21
  8
0
  0
BLOCK
 67
     1
  8
0
  2
$PAPER_SPACE
 70
     0
 10
0.0
 20
0.0
 30
0.0
  3
$PAPER_SPACE
  1

  0
ENDBLK
  5
1D
 67
     1
  8
0
  0
ENDSEC
  0
SECTION
  2
ENTITIES
  0
ATTDEF
  5
3930
  8
DEFPOINTS
 10
3843.464979098268941
 20
121.4927154994887957
 30
0.0
 40
0.001
  1
K-1894-C
  3

  2
MODELNUMBER
 70
     0
1001
ACDBATTR
1070
     0
1070
     1
  0
ATTDEF
  5
3931
  8
DEFPOINTS
 10
3843.464979098268941
 20
121.4910488328222016
 30
0.0
 40
0.001
  1
TRANSITIONAL
  3

  2
TRADENAME
 70
     0
1001
ACDBATTR
1070
     0
1070
     1
  0
ATTDEF
  5
3932
  8
DEFPOINTS
 10
3843.464979098268941
 20
121.4893821661554938
 30
0.0
 40
0.001
  1
SOAP DISPENSER
  3

  2
PRODUCT
 70
     0
1001
ACDBATTR
1070
     0
1070
     1
  0
LINE
  5
6A4B
  8
0
 10
3840.0102875387851782
 20
123.9356088337105035
 30
0.0
 11
3840.0443225660851567
 21
123.7425866024104977
 31
0.0
  0
LINE
  5
6A4C
  8
0
 10
3842.8336397084849523
 20
123.204093152610497
 30
0.0
 11
3842.8632661213000574
 21
123.2015011773172972
 31
0.0
  0
LINE
  5
6A4D
  8
0
 10
3842.857694693484973
 20
123.4790428893105059
 30
0.0
 11
3842.9200247612161547
 21
123.473589715007904
 31
0.0
  0
LINE
  5
6A4E
  8
0
 10
3840.0906608110849447
 20
123.7101401752104977
 30
0.0
 11
3840.12802310488496
 21
123.7167281557104985
 31
0.0
  0
LINE
  5
6A4F
  8
0
 10
3840.2856608579850217
 20
123.7445239447104939
 30
0.0
 11
3840.4838388073849273
 21
123.779468064210505
 31
0.0
  0
LINE
  5
6A50
  8
0
 10
3840.0427339139851028
 20
123.9819471151105006
 30
0.0
 11
3840.4359119103851299
 21
124.0512750040105061
 31
0.0
  0
ARC
  5
6A51
  8
0
 10
3840.8311351627849035
 20
121.8098525582104941
 30
0.0
 40
2.2759999999999989
 50
58.7658437745993112
 51
100.0000000000050022
  0
ARC
  5
6A52
  8
0
 10
3843.0286942607849596
 20
125.433576886910501
 30
0.0
 40
2.2379999999999991
 50
238.7658437745992899
 51
265.0000000000002274
  0
ARC
  5
6A53
  8
0
 10
3840.8311351627849035
 20
121.8098525582104941
 30
0.0
 40
2.0
 50
58.7658437745993112
 51
100.0000000000050022
  0
ARC
  5
6A54
  8
0
 10
3843.0286942607849596
 20
125.433576886910501
 30
0.0
 40
1.9619999999999991
 50
238.7658437745992899
 51
265.0000000000002274
  0
ARC
  5
6A55
  8
0
 10
3840.083714883985067
 20
123.7495324854104979
 30
0.0
 40
0.04
 50
189.9999357581978927
 51
280.0000000000050022
  0
ARC
  5
6A56
  8
0
 10
3840.0496798410849806
 20
123.9425548049105004
 30
0.0
 40
0.04
 50
100.0000000000050022
 51
190.0000642418009136
  0
LINE
  5
6A57
  8
0
 10
3842.473719680834165
 20
121.4808922985104971
 30
0.0
 11
3844.4637196808348563
 21
121.4808922985104971
 31
0.0
  0
LINE
  5
6A58
  8
0
 10
3844.423610031113185
 20
121.5781220852104951
 30
0.0
 11
3842.5138293304348736
 21
121.5781220852104951
 31
0.0
  0
LINE
  5
6A59
  8
0
 10
3844.0807255303698184
 20
121.9308922985104999
 30
0.0
 11
3842.8567138313351279
 21
121.9308922985104999
 31
0.0
  0
LINE
  5
6A5A
  8
0
 10
3842.473719680834165
 20
121.5215148952105011
 30
0.0
 11
3842.473719680834165
 21
121.4808922985104971
 31
0.0
  0
LINE
  5
6A5B
  8
0
 10
3842.8577821129351832
 20
122.2708135583104934
 30
0.0
 11
3844.0796572487352023
 21
122.2708135583104934
 31
0.0
  0
LINE
  5
6A5C
  8
0
 10
3842.9717196808351218
 20
122.2708135583104934
 30
0.0
 11
3842.9717196808351218
 21
121.9458922985105005
 31
0.0
  0
LINE
  5
6A5D
  8
0
 10
3843.9841563427471556
 20
123.6364414320104999
 30
0.0
 11
3842.9532830190350978
 21
123.6364414320104999
 31
0.0
  0
LINE
  5
6A5E
  8
0
 10
3842.9854563048352247
 20
123.7247500927104937
 30
0.0
 11
3843.9519830566678138
 21
123.7247500927104937
 31
0.0
  0
ARC
  5
6A5F
  8
0
 10
3842.3480764150349387
 20
122.0498486702104941
 30
0.0
 40
0.5
 50
289.360198788497712
 51
343.6771331889003136
  0
ARC
  5
6A60
  8
0
 10
3842.5391122401510984
 20
121.5176939377611944
 30
0.0
 40
0.0655040955187691
 50
112.7042510473083041
 51
176.655948371886609
  0
ARC
  5
6A61
  8
0
 10
3842.8575288829670171
 20
121.8998042941572066
 30
0.0
 40
0.03109868685158
 50
91.5018115927831985
 51
162.175267676608911
  0
ARC
  5
6A62
  8
0
 10
3842.859146889818021
 20
122.3022197985061013
 30
0.0
 40
0.0314358798057776
 50
184.2027857353741069
 51
267.5117432350783133
  0
ARC
  5
6A63
  8
0
 10
3842.9554904966871618
 20
121.9471214825777992
 30
0.0
 40
0.0162756662404394
 50
274.3312661208153145
 51
355.6687376259843063
  0
ARC
  5
6A64
  8
0
 10
3842.8977196808350527
 20
123.9958135583105019
 30
0.0
 40
0.171
 50
0.0
 51
20.0000000000953193
  0
ARC
  5
6A65
  8
0
 10
3842.9962196808778572
 20
123.6708135582939008
 30
0.0
 40
0.0550000000467453
 50
101.2854867960336946
 51
218.6783526001362929
  0
ARC
  5
6A66
  8
0
 10
3842.9825208277347883
 20
123.7394600544105003
 30
0.0
 40
0.015
 50
281.2855295447026265
 51
339.7045843645959735
  0
ARC
  5
6A67
  8
0
 10
3842.94157301753512
 20
123.6270672191105007
 30
0.0
 40
0.015
 50
340.794130001299493
 51
38.6783359732054492
  0
ARC
  5
6A68
  8
0
 10
3850.8242139862350086
 20
122.5392736342105025
 30
0.0
 40
8.0
 50
176.549138365800502
 51
181.7145288849000053
  0
ARC
  5
6A69
  8
0
 10
3844.8819692700380983
 20
122.9352368868877932
 30
0.0
 40
2.0450408920435859
 50
160.3737163624882101
 51
163.5495825153859926
  0
ARC
  5
6A6A
  8
0
 10
3844.8819692700380983
 20
122.9352368868877932
 30
0.0
 40
2.0450408920435859
 50
173.3895651912536948
 51
177.6017035903392127
  0
ARC
  5
6A6B
  8
0
 10
3842.1431882811011747
 20
124.1103258356035042
 30
0.0
 40
0.9325885660588836
 50
336.2183326214957901
 51
352.9468679707977117
  0
ARC
  5
6A6C
  8
0
 10
3842.8694160978211585
 20
123.9781832952702985
 30
0.0
 40
0.2037429926006943
 50
21.9369998714767291
 51
56.9325482987444005
  0
ARC
  5
6A6D
  8
0
 10
3843.1116681925750527
 20
124.4230957146912004
 30
0.0
 40
0.3038952528980435
 50
211.2975171813517079
 51
244.4468590082877029
  0
ARC
  5
6A6E
  8
0
 10
3843.0395461114280806
 20
124.3720323155117029
 30
0.0
 40
0.2158298716852578
 50
180.3235419381425118
 51
209.6602654611160119
  0
ARC
  5
6A6F
  8
0
 10
3843.0528014476199132
 20
124.3664277108314025
 30
0.0
 40
0.2291237472023933
 50
158.4227770003288924
 51
178.90318701853829
  0
ARC
  5
6A70
  8
0
 10
3843.3209762203910032
 20
124.1002971073144039
 30
0.0
 40
0.5952886350953407
 50
99.8911188734258388
 51
143.9416706228493013
  0
ARC
  5
6A71
  8
0
 10
3843.4906324000608038
 20
123.1732785613070007
 30
0.0
 40
1.5376911374767479
 50
90.8165156161898324
 51
100.1852762394671998
  0
LINE
  5
6A72
  8
0
 10
3844.4637196808348563
 20
121.5215148952105011
 30
0.0
 11
3844.4637196808348563
 21
121.4808922985104971
 31
0.0
  0
LINE
  5
6A73
  8
0
 10
3843.965719680834809
 20
122.2708135583104934
 30
0.0
 11
3843.965719680834809
 21
121.9458922985105005
 31
0.0
  0
ARC
  5
6A74
  8
0
 10
3844.5893629466349921
 20
122.0498486702104941
 30
0.0
 40
0.5
 50
196.3228668110996864
 51
250.6398012115020038
  0
ARC
  5
6A75
  8
0
 10
3844.3983271215188324
 20
121.5176939377611944
 30
0.0
 40
0.0655040955187691
 50
3.3440516281133879
 51
67.2957489526917243
  0
ARC
  5
6A76
  8
0
 10
3844.0799104787029137
 20
121.8998042941572066
 30
0.0
 40
0.03109868685158
 50
17.82473232339105
 51
88.4981884072168157
  0
ARC
  5
6A77
  8
0
 10
3844.0782924718510003
 20
122.3022197985061013
 30
0.0
 40
0.0314358798057776
 50
272.4882567649216867
 51
355.7972142646257794
  0
ARC
  5
6A78
  8
0
 10
3843.9819488649818595
 20
121.9471214825777992
 30
0.0
 40
0.0162756662404394
 50
184.3312623740156937
 51
265.6687338791846855
  0
ARC
  5
6A79
  8
0
 10
3844.0397196808348781
 20
123.9958135583105019
 30
0.0
 40
0.171
 50
159.999999999904702
 51
180.0
  0
ARC
  5
6A7A
  8
0
 10
3843.9412196807920736
 20
123.6708135582939008
 30
0.0
 40
0.0550000000467453
 50
321.3216473998630249
 51
78.7145132039662485
  0
ARC
  5
6A7B
  8
0
 10
3843.9549185339351425
 20
123.7394600544105003
 30
0.0
 40
0.015
 50
200.2954156354039981
 51
258.7144704552973735
  0
ARC
  5
6A7C
  8
0
 10
3843.9958663441348108
 20
123.6270672191105007
 30
0.0
 40
0.015
 50
141.3216640267945081
 51
199.2058699986997112
  0
ARC
  5
6A7D
  8
0
 10
3836.1132253754349222
 20
122.5392736342105025
 30
0.0
 40
8.0
 50
358.2854711150999947
 51
3.4508616341994629
  0
ARC
  5
6A7E
  8
0
 10
3842.0554700916318325
 20
122.9352368868877932
 30
0.0
 40
2.0450408920435859
 50
2.398296409660726
 51
19.6262836375117402
  0
ARC
  5
6A7F
  8
0
 10
3844.7942510805678467
 20
124.1103258356035042
 30
0.0
 40
0.9325885660588836
 50
187.0531320292022883
 51
203.7816673785042099
  0
ARC
  5
6A80
  8
0
 10
3844.0680232638492271
 20
123.9781832952702985
 30
0.0
 40
0.2037429926006943
 50
123.0674517012556066
 51
158.0630001285225035
  0
ARC
  5
6A81
  8
0
 10
3843.8257711690948781
 20
124.4230957146912004
 30
0.0
 40
0.3038952528980435
 50
295.5531409917123256
 51
328.7024828186483205
  0
ARC
  5
6A82
  8
0
 10
3843.8978932502418502
 20
124.3720323155117029
 30
0.0
 40
0.2158298716852578
 50
330.3397345388839881
 51
359.6764580618573746
  0
ARC
  5
6A83
  8
0
 10
3843.8846379140500176
 20
124.3664277108314025
 30
0.0
 40
0.2291237472023933
 50
1.0968129814617049
 51
21.5772229996710507
  0
ARC
  5
6A84
  8
0
 10
3843.6164631412789277
 20
124.1002971073144039
 30
0.0
 40
0.5952886350953407
 50
36.0583293771507414
 51
80.1088811265741754
  0
ARC
  5
6A85
  8
0
 10
3843.446806961609127
 20
123.1732785613070007
 30
0.0
 40
1.5376911374767479
 50
79.8147237605326723
 51
89.1834843838101818
  0
ARC
  5
6A86
  8
0
 10
3840.2345605085502029
 20
123.5734264710367967
 30
0.0
 40
0.178565369570737
 50
73.371102531671653
 51
126.6288974332289001
  0
ARC
  5
6A87
  8
0
 10
3842.0808477357531956
 20
123.5066807408796024
 30
0.0
 40
0.8398292064811531
 50
336.4150457181128786
 51
0.5241019885271506
  0
ENDSEC
  0
EOF
