  0
SECTION
  2
HEADER
  9
$ACADVER
  1
AC1009
  9
$INSBASE
 10
24.459858893447208
 20
7.8421835464015137
 30
0.0
  9
$EXTMIN
 10
23.464858893447211
 20
7.8350521318755346
 30
0.0
  9
$EXTMAX
 10
25.45485889344722
 20
11.03410480620151
 30
0.0
  9
$LIMMIN
 10
0.0
 20
0.0
  9
$LIMMAX
 10
22.0
 20
17.0
  9
$ORTHOMODE
 70
     0
  9
$REGENMODE
 70
     1
  9
$FILLMODE
 70
     1
  9
$QTEXTMODE
 70
     0
  9
$MIRRTEXT
 70
     0
  9
$DRAGMODE
 70
     2
  9
$LTSCALE
 40
1.2099999999999991
  9
$OSMODE
 70
  3071
  9
$ATTMODE
 70
     1
  9
$TEXTSIZE
 40
0.2
  9
$TRACEWID
 40
0.05
  9
$TEXTSTYLE
  7
STANDARD
  9
$CLAYER
  8
0
  9
$CELTYPE
  6
BYLAYER
  9
$CECOLOR
 62
   256
  9
$DIMSCALE
 40
1.0
  9
$DIMASZ
 40
0.1875
  9
$DIMEXO
 40
0.0625
  9
$DIMDLI
 40
0.8359999999999999
  9
$DIMRND
 40
0.0
  9
$DIMDLE
 40
0.0
  9
$DIMEXE
 40
0.125
  9
$DIMTP
 40
0.0
  9
$DIMTM
 40
0.0
  9
$DIMTXT
 40
1.0
  9
$DIMCEN
 40
0.198
  9
$DIMTSZ
 40
0.0
  9
$DIMTOL
 70
     0
  9
$DIMLIM
 70
     0
  9
$DIMTIH
 70
     1
  9
$DIMTOH
 70
     1
  9
$DIMSE1
 70
     0
  9
$DIMSE2
 70
     0
  9
$DIMTAD
 70
     0
  9
$DIMZIN
 70
     0
  9
$DIMBLK
  1

  9
$DIMASO
 70
     1
  9
$DIMSHO
 70
     1
  9
$DIMPOST
  1
\X
  9
$DIMAPOST
  1

  9
$DIMALT
 70
     1
  9
$DIMALTD
 70
     2
  9
$DIMALTF
 40
25.399999999999999
  9
$DIMLFAC
 40
1.0
  9
$DIMTOFL
 70
     0
  9
$DIMTVP
 40
0.0
  9
$DIMTIX
 70
     0
  9
$DIMSOXD
 70
     0
  9
$DIMSAH
 70
     0
  9
$DIMBLK1
  1

  9
$DIMBLK2
  1

  9
$DIMSTYLE
  2
STANDARD
  9
$DIMCLRD
 70
     0
  9
$DIMCLRE
 70
     0
  9
$DIMCLRT
 70
     0
  9
$DIMTFAC
 40
1.0
  9
$DIMGAP
 40
0.09
  9
$LUNITS
 70
     2
  9
$LUPREC
 70
     4
  9
$SKETCHINC
 40
0.1
  9
$FILLETRAD
 40
0.0
  9
$AUNITS
 70
     0
  9
$AUPREC
 70
     0
  9
$MENU
  1
.
  9
$ELEVATION
 40
0.0
  9
$PELEVATION
 40
0.0
  9
$THICKNESS
 40
0.0
  9
$LIMCHECK
 70
     0
  9
$BLIPMODE
 70
     0
  9
$CHAMFERA
 40
0.0
  9
$CHAMFERB
 40
0.0
  9
$SKPOLY
 70
     0
  9
$TDCREATE
 40
2457967.4609427201
  9
$TDUPDATE
 40
2458219.4802090279
  9
$TDINDWG
 40
0.0505246296
  9
$TDUSRTIMER
 40
0.0505246296
  9
$USRTIMER
 70
     1
  9
$ANGBASE
 50
0.0
  9
$ANGDIR
 70
     0
  9
$PDMODE
 70
     0
  9
$PDSIZE
 40
0.3125
  9
$PLINEWID
 40
0.0
  9
$COORDS
 70
     1
  9
$SPLFRAME
 70
     0
  9
$SPLINETYPE
 70
     6
  9
$SPLINESEGS
 70
     8
  9
$ATTDIA
 70
     1
  9
$ATTREQ
 70
     1
  9
$HANDLING
 70
     1
  9
$HANDSEED
  5
9D6
  9
$SURFTAB1
 70
     6
  9
$SURFTAB2
 70
     6
  9
$SURFTYPE
 70
     6
  9
$SURFU
 70
     6
  9
$SURFV
 70
     6
  9
$UCSNAME
  2

  9
$UCSORG
 10
0.0
 20
0.0
 30
0.0
  9
$UCSXDIR
 10
1.0
 20
0.0
 30
0.0
  9
$UCSYDIR
 10
0.0
 20
1.0
 30
0.0
  9
$PUCSNAME
  2

  9
$PUCSORG
 10
0.0
 20
0.0
 30
0.0
  9
$PUCSXDIR
 10
1.0
 20
0.0
 30
0.0
  9
$PUCSYDIR
 10
0.0
 20
1.0
 30
0.0
  9
$USERI1
 70
     0
  9
$USERI2
 70
     0
  9
$USERI3
 70
     0
  9
$USERI4
 70
     0
  9
$USERI5
 70
     0
  9
$USERR1
 40
0.0
  9
$USERR2
 40
0.0
  9
$USERR3
 40
0.0
  9
$USERR4
 40
0.0
  9
$USERR5
 40
0.0
  9
$WORLDVIEW
 70
     1
  9
$SHADEDGE
 70
     3
  9
$SHADEDIF
 70
    70
  9
$TILEMODE
 70
     1
  9
$MAXACTVP
 70
    48
  9
$PLIMCHECK
 70
     0
  9
$PEXTMIN
 10
1.0000000000000000E+020
 20
1.0000000000000000E+020
 30
1.0000000000000000E+020
  9
$PEXTMAX
 10
-1.0000000000000000E+020
 20
-1.0000000000000000E+020
 30
-1.0000000000000000E+020
  9
$PLIMMIN
 10
0.0
 20
0.0
  9
$PLIMMAX
 10
12.0
 20
9.0
  9
$UNITMODE
 70
     0
  9
$VISRETAIN
 70
     1
  9
$PLINEGEN
 70
     0
  9
$PSLTSCALE
 70
     1
  0
ENDSEC
  0
SECTION
  2
TABLES
  0
TABLE
  2
VPORT
 70
     1
  0
VPORT
  2
*ACTIVE
 70
     0
 10
0.0
 20
0.0
 11
1.0
 21
1.0
 12
0.0
 22
0.0
 13
0.0
 23
0.0
 14
1.0
 24
1.0
 15
0.0
 25
0.0
 16
-0.0000000000000036
 26
0.0
 36
10.59414791648585
 17
24.459858893447208
 27
9.4345784690385237
 37
0.0
 40
3.7677973559264029
 41
2.0983240223463682
 42
50.0
 43
0.0
 44
0.0
 50
0.0
 51
0.0
 71
     0
 72
   100
 73
     1
 74
     1
 75
     0
 76
     0
 77
     0
 78
     0
  0
ENDTAB
  0
TABLE
  2
LTYPE
 70
     2
  0
LTYPE
  2
CONTINUOUS
 70
     0
  3
Solid line
 72
    65
 73
     0
 40
0.0
  0
LTYPE
  2
PHANTOM2
 70
     0
  3
___ _ _ ___ _ _ ___ _ _ ___ _ _
 72
    65
 73
     6
 40
1.25
 49
0.625
 49
-0.125
 49
0.125
 49
-0.125
 49
0.125
 49
-0.125
  0
ENDTAB
  0
TABLE
  2
LAYER
 70
     2
  0
LAYER
  2
0
 70
     0
 62
     7
  6
CONTINUOUS
  0
LAYER
  2
DEFPOINTS
 70
     0
 62
     7
  6
CONTINUOUS
  0
ENDTAB
  0
TABLE
  2
STYLE
 70
     1
  0
STYLE
  2
STANDARD
 70
     0
 40
0.0
 41
0.8
 50
0.0
 71
     0
 42
0.2
  3
txt
  4

  0
ENDTAB
  0
TABLE
  2
VIEW
 70
     0
  0
ENDTAB
  0
TABLE
  2
UCS
 70
     0
  0
ENDTAB
  0
TABLE
  2
APPID
 70
     7
  0
APPID
  2
ACAD
 70
     0
  0
APPID
  2
ACAD_MLEADERVER
 70
     0
  0
APPID
  2
ACAD_EXEMPT_FROM_CAD_STANDARDS
 70
     0
  0
APPID
  2
ACAD_NAV_VCDISPLAY
 70
     0
  0
APPID
  2
ACAD_DSTYLE_DIMJAG
 70
     0
  0
APPID
  2
ACAD_DSTYLE_DIMTALN
 70
     0
  0
APPID
  2
ACDBATTR
 70
     0
  0
ENDTAB
  0
TABLE
  2
DIMSTYLE
 70
     1
  0
DIMSTYLE
  2
STANDARD
 70
     0
  3

  4

  5

  6

  7

 40
1.0
 41
0.1875
 42
0.0625
 43
0.38
 44
0.125
 45
0.0
 46
0.0
 47
1.5
 48
1.5
140
0.15625
141
0.09
142
0.0
143
25.399999999999999
144
1.0
145
0.0
146
1.0
147
0.09
 71
     0
 72
     0
 73
     1
 74
     1
 75
     0
 76
     0
 77
     0
 78
     4
170
     0
171
     2
172
     0
173
     0
174
     0
175
     0
176
     0
177
     0
178
     0
  0
ENDTAB
  0
ENDSEC
  0
SECTION
  2
BLOCKS
  0
BLOCK
  8
0
  2
$MODEL_SPACE
 70
     0
 10
0.0
 20
0.0
 30
0.0
  3
$MODEL_SPACE
  1

  0
ENDBLK
  5
21
  8
0
  0
BLOCK
 67
     1
  8
0
  2
$PAPER_SPACE
 70
     0
 10
0.0
 20
0.0
 30
0.0
  3
$PAPER_SPACE
  1

  0
ENDBLK
  5
1D
 67
     1
  8
0
  0
ENDSEC
  0
SECTION
  2
ENTITIES
  0
ATTDEF
  5
6BD
  8
DEFPOINTS
 10
24.454201852284179
 20
7.8400521318755301
 30
0.0
 40
0.001
  1
K-1895-C
  3

  2
MODELNUMBER
 70
     0
1001
ACDBATTR
1070
     0
1070
     1
  0
ATTDEF
  5
6BE
  8
DEFPOINTS
 10
24.454201852284179
 20
7.8383854652088649
 30
0.0
 40
0.001
  1

  3

  2
TRADENAME
 70
     0
1001
ACDBATTR
1070
     0
1070
     1
  0
ATTDEF
  5
6BF
  8
DEFPOINTS
 10
24.454201852284179
 20
7.8367187985421998
 30
0.0
 40
0.001
  1
SOAP DISPENSER
  3

  2
PRODUCT
 70
     0
1001
ACDBATTR
1070
     0
1070
     1
  0
ATTDEF
  5
6C0
  8
DEFPOINTS
 10
24.454201852284179
 20
7.8350521318755346
 30
0.0
 40
0.001
  1
BRASS
  3

  2
MATERIAL
 70
     0
1001
ACDBATTR
1070
     0
1070
     1
  0
LINE
  5
8ED
  8
0
 10
24.321867506747211
 20
10.054345402801509
 30
0.0
 11
24.321870997806531
 21
10.54558225259445
 31
0.0
  0
LINE
  5
8EE
  8
0
 10
24.597867506747221
 20
10.054308735801509
 30
0.0
 11
24.597863875147208
 21
10.54550145140151
 31
0.0
  0
LINE
  5
8EF
  8
0
 10
25.170745008347211
 20
10.711748099701509
 30
0.0
 11
25.093972762447219
 21
10.65799159450151
 31
0.0
  0
LINE
  5
8F0
  8
0
 10
23.493312021147212
 20
7.9507623788015138
 30
0.0
 11
23.941019081347221
 21
8.0857494322015153
 31
0.0
  0
LINE
  5
8F1
  8
0
 10
23.464858893447211
 20
7.8421835464015137
 30
0.0
 11
23.464858893447211
 21
7.9124652544015142
 31
0.0
  0
LINE
  5
8F2
  8
0
 10
23.85985889344721
 20
10.592459442201511
 30
0.0
 11
23.859858893447221
 21
8.4838548062015153
 31
0.0
  0
LINE
  5
8F3
  8
0
 10
23.96235889344721
 20
8.4541048062015154
 30
0.0
 11
23.96235889344721
 21
8.1144722653015151
 31
0.0
  0
LINE
  5
8F4
  8
0
 10
24.957358893447221
 20
8.1144722653015151
 30
0.0
 11
24.957358893447221
 21
8.4541048062015154
 31
0.0
  0
LINE
  5
8F5
  8
0
 10
25.05985889344721
 20
8.4838548062015153
 30
0.0
 11
25.05985889344721
 21
10.592459442201511
 31
0.0
  0
LINE
  5
8F6
  8
0
 10
25.45485889344722
 20
7.9124652544015142
 30
0.0
 11
25.45485889344722
 21
7.8421835464015137
 31
0.0
  0
LINE
  5
8F7
  8
0
 10
23.464858893447211
 20
7.8421835464015137
 30
0.0
 11
25.45485889344722
 21
7.8421835464015137
 31
0.0
  0
LINE
  5
8F8
  8
0
 10
23.493312021147212
 20
7.9507623788015138
 30
0.0
 11
25.42640576574982
 21
7.9507623788370019
 31
0.0
  0
LINE
  5
8F9
  8
0
 10
24.978698705447218
 20
8.0857494322015153
 30
0.0
 11
23.941019081347221
 21
8.0857494322015153
 31
0.0
  0
LINE
  5
8FA
  8
0
 10
25.03010889344722
 20
8.4541048062015154
 30
0.0
 11
23.88960889344721
 21
8.4541048062015154
 31
0.0
  0
LINE
  5
8FB
  8
0
 10
24.978698705447218
 20
8.0857494322015153
 30
0.0
 11
25.426405765747209
 21
7.9507623788015138
 31
0.0
  0
LINE
  5
8FC
  8
0
 10
23.82574502434721
 20
10.65799159450151
 30
0.0
 11
23.748972778447211
 21
10.711748099701509
 31
0.0
  0
LINE
  5
8FD
  8
0
 10
25.170745008347211
 20
10.711748099701509
 30
0.0
 11
23.748972778447211
 21
10.711748099701509
 31
0.0
  0
ARC
  5
8FE
  8
0
 10
24.459858893447208
 20
9.2841048062015155
 30
0.0
 40
1.75
 50
77.626374883799926
 51
102.3736251162001
  0
ARC
  5
8FF
  8
0
 10
25.139858893447212
 20
10.592459442201511
 30
0.0
 40
0.08
 50
125.0000140305999
 51
180.0
  0
ARC
  5
900
  8
0
 10
23.779858893447209
 20
10.592459442201511
 30
0.0
 40
0.08
 50
0.0
 51
54.9999859694001
  0
ARC
  5
901
  8
0
 10
23.794858893447209
 20
10.77728026330151
 30
0.0
 40
0.08
 50
180.0
 51
234.99999999990001
  0
ARC
  5
902
  8
0
 10
25.124858893447211
 20
10.77728026330151
 30
0.0
 40
0.08
 50
305.00000000009987
 51
0.0
  0
ARC
  5
903
  8
0
 10
25.414858893447221
 20
7.9124652544015142
 30
0.0
 40
0.04
 50
0.0
 51
73.221544219999998
  0
ARC
  5
904
  8
0
 10
23.50485889344721
 20
7.9124652544015142
 30
0.0
 40
0.04
 50
106.77845578
 51
180.0
  0
ARC
  5
905
  8
0
 10
23.932358893447219
 20
8.1144722653015151
 30
0.0
 40
0.03
 50
286.77852311949999
 51
0.0
  0
ARC
  5
906
  8
0
 10
24.987358893447219
 20
8.1144722653015151
 30
0.0
 40
0.03
 50
180.0
 51
253.22147688050001
  0
ARC
  5
907
  8
0
 10
25.03010889344722
 20
8.4838548062015153
 30
0.0
 40
0.02975
 50
270.0
 51
0.0
  0
ARC
  5
908
  8
0
 10
23.88960889344721
 20
8.4838548062015153
 30
0.0
 40
0.02975
 50
180.0
 51
270.0
  0
ARC
  5
909
  8
0
 10
23.935585661014919
 20
10.70280561108309
 30
0.0
 40
0.2329523121669812
 50
106.439752801315
 51
161.3552692979647
  0
ARC
  5
90A
  8
0
 10
24.313748152682258
 20
9.8825918809262916
 30
0.0
 40
1.1341980239022851
 50
101.642655579999
 51
113.0506711071756
  0
ARC
  5
90B
  8
0
 10
24.605892458826041
 20
9.8823448089083872
 30
0.0
 40
1.134455587320754
 50
66.950628200213416
 51
78.356045093802805
  0
ARC
  5
90C
  8
0
 10
24.996140360605249
 20
10.715285098194849
 30
0.0
 40
0.2177310874641165
 50
16.54287273763715
 51
75.662105194809129
  0
ARC
  5
90D
  8
0
 10
24.459660258335671
 20
10.54565583954745
 30
0.0
 40
0.1382037030455132
 50
359.93599454418433
 51
89.914080568993057
  0
ARC
  5
90E
  8
0
 10
24.460247351916951
 20
10.54548351921234
 30
0.0
 40
0.1383763893342098
 50
90.157278512216465
 51
179.95911870081889
  0
ARC
  5
90F
  8
0
 10
24.45987063968898
 20
10.077909342097531
 30
0.0
 40
0.1400004426258283
 50
189.68976636417759
 51
350.29500996834781
  0
ARC
  5
910
  8
0
 10
24.459867437271551
 20
10.53796248847641
 30
0.0
 40
0.1379964937878348
 50
180.00247942420859
 51
359.99752058953692
  0
ENDSEC
  0
EOF
