  0
SECTION
  2
HEADER
  9
$ACADVER
  1
AC1009
  9
$INSBASE
 10
30.57830852871971
 20
5.177427759286501
 30
0.0
  9
$EXTMIN
 10
27.171017236219711
 20
5.177427759286501
 30
0.0
  9
$EXTMAX
 10
31.573308528719711
 20
8.3693490190865028
 30
0.0
  9
$LIMMIN
 10
0.0
 20
0.0
  9
$LIMMAX
 10
22.0
 20
17.0
  9
$ORTHOMODE
 70
     0
  9
$REGENMODE
 70
     1
  9
$FILLMODE
 70
     1
  9
$QTEXTMODE
 70
     0
  9
$MIRRTEXT
 70
     0
  9
$DRAGMODE
 70
     2
  9
$LTSCALE
 40
1.2099999999999991
  9
$OSMODE
 70
  3071
  9
$ATTMODE
 70
     1
  9
$TEXTSIZE
 40
0.2
  9
$TRACEWID
 40
0.05
  9
$TEXTSTYLE
  7
STANDARD
  9
$CLAYER
  8
0
  9
$CELTYPE
  6
BYLAYER
  9
$CECOLOR
 62
   256
  9
$DIMSCALE
 40
1.0
  9
$DIMASZ
 40
0.1875
  9
$DIMEXO
 40
0.0625
  9
$DIMDLI
 40
0.8359999999999999
  9
$DIMRND
 40
0.0
  9
$DIMDLE
 40
0.0
  9
$DIMEXE
 40
0.125
  9
$DIMTP
 40
0.0
  9
$DIMTM
 40
0.0
  9
$DIMTXT
 40
1.0
  9
$DIMCEN
 40
0.198
  9
$DIMTSZ
 40
0.0
  9
$DIMTOL
 70
     0
  9
$DIMLIM
 70
     0
  9
$DIMTIH
 70
     1
  9
$DIMTOH
 70
     1
  9
$DIMSE1
 70
     0
  9
$DIMSE2
 70
     0
  9
$DIMTAD
 70
     0
  9
$DIMZIN
 70
     0
  9
$DIMBLK
  1

  9
$DIMASO
 70
     1
  9
$DIMSHO
 70
     1
  9
$DIMPOST
  1
\X
  9
$DIMAPOST
  1

  9
$DIMALT
 70
     1
  9
$DIMALTD
 70
     2
  9
$DIMALTF
 40
25.399999999999999
  9
$DIMLFAC
 40
1.0
  9
$DIMTOFL
 70
     0
  9
$DIMTVP
 40
0.0
  9
$DIMTIX
 70
     0
  9
$DIMSOXD
 70
     0
  9
$DIMSAH
 70
     0
  9
$DIMBLK1
  1

  9
$DIMBLK2
  1

  9
$DIMSTYLE
  2
STANDARD
  9
$DIMCLRD
 70
     0
  9
$DIMCLRE
 70
     0
  9
$DIMCLRT
 70
     0
  9
$DIMTFAC
 40
1.0
  9
$DIMGAP
 40
0.09
  9
$LUNITS
 70
     2
  9
$LUPREC
 70
     4
  9
$SKETCHINC
 40
0.1
  9
$FILLETRAD
 40
0.0
  9
$AUNITS
 70
     0
  9
$AUPREC
 70
     0
  9
$MENU
  1
.
  9
$ELEVATION
 40
0.0
  9
$PELEVATION
 40
0.0
  9
$THICKNESS
 40
0.0
  9
$LIMCHECK
 70
     0
  9
$BLIPMODE
 70
     0
  9
$CHAMFERA
 40
0.0
  9
$CHAMFERB
 40
0.0
  9
$SKPOLY
 70
     0
  9
$TDCREATE
 40
2457967.4609427201
  9
$TDUPDATE
 40
2458219.4804156939
  9
$TDINDWG
 40
0.0507039699
  9
$TDUSRTIMER
 40
0.0507039699
  9
$USRTIMER
 70
     1
  9
$ANGBASE
 50
0.0
  9
$ANGDIR
 70
     0
  9
$PDMODE
 70
     0
  9
$PDSIZE
 40
0.3125
  9
$PLINEWID
 40
0.0
  9
$COORDS
 70
     1
  9
$SPLFRAME
 70
     0
  9
$SPLINETYPE
 70
     6
  9
$SPLINESEGS
 70
     8
  9
$ATTDIA
 70
     1
  9
$ATTREQ
 70
     1
  9
$HANDLING
 70
     1
  9
$HANDSEED
  5
A98
  9
$SURFTAB1
 70
     6
  9
$SURFTAB2
 70
     6
  9
$SURFTYPE
 70
     6
  9
$SURFU
 70
     6
  9
$SURFV
 70
     6
  9
$UCSNAME
  2

  9
$UCSORG
 10
0.0
 20
0.0
 30
0.0
  9
$UCSXDIR
 10
1.0
 20
0.0
 30
0.0
  9
$UCSYDIR
 10
0.0
 20
1.0
 30
0.0
  9
$PUCSNAME
  2

  9
$PUCSORG
 10
0.0
 20
0.0
 30
0.0
  9
$PUCSXDIR
 10
1.0
 20
0.0
 30
0.0
  9
$PUCSYDIR
 10
0.0
 20
1.0
 30
0.0
  9
$USERI1
 70
     0
  9
$USERI2
 70
     0
  9
$USERI3
 70
     0
  9
$USERI4
 70
     0
  9
$USERI5
 70
     0
  9
$USERR1
 40
0.0
  9
$USERR2
 40
0.0
  9
$USERR3
 40
0.0
  9
$USERR4
 40
0.0
  9
$USERR5
 40
0.0
  9
$WORLDVIEW
 70
     1
  9
$SHADEDGE
 70
     3
  9
$SHADEDIF
 70
    70
  9
$TILEMODE
 70
     1
  9
$MAXACTVP
 70
    48
  9
$PLIMCHECK
 70
     0
  9
$PEXTMIN
 10
1.0000000000000000E+020
 20
1.0000000000000000E+020
 30
1.0000000000000000E+020
  9
$PEXTMAX
 10
-1.0000000000000000E+020
 20
-1.0000000000000000E+020
 30
-1.0000000000000000E+020
  9
$PLIMMIN
 10
0.0
 20
0.0
  9
$PLIMMAX
 10
12.0
 20
9.0
  9
$UNITMODE
 70
     0
  9
$VISRETAIN
 70
     1
  9
$PLINEGEN
 70
     0
  9
$PSLTSCALE
 70
     1
  0
ENDSEC
  0
SECTION
  2
TABLES
  0
TABLE
  2
VPORT
 70
     1
  0
VPORT
  2
*ACTIVE
 70
     0
 10
0.0
 20
0.0
 11
1.0
 21
1.0
 12
0.0
 22
0.0
 13
0.0
 23
0.0
 14
1.0
 24
1.0
 15
0.0
 25
0.0
 16
-0.0000000000000036
 26
0.0
 36
15.29636391710623
 17
29.370923280885091
 27
6.7733883891865014
 37
0.0
 40
5.4404759174036696
 41
2.0983240223463682
 42
50.0
 43
0.0
 44
0.0
 50
0.0
 51
0.0
 71
     0
 72
   100
 73
     1
 74
     1
 75
     0
 76
     0
 77
     0
 78
     0
  0
ENDTAB
  0
TABLE
  2
LTYPE
 70
     2
  0
LTYPE
  2
CONTINUOUS
 70
     0
  3
Solid line
 72
    65
 73
     0
 40
0.0
  0
LTYPE
  2
PHANTOM2
 70
     0
  3
___ _ _ ___ _ _ ___ _ _ ___ _ _
 72
    65
 73
     6
 40
1.25
 49
0.625
 49
-0.125
 49
0.125
 49
-0.125
 49
0.125
 49
-0.125
  0
ENDTAB
  0
TABLE
  2
LAYER
 70
     2
  0
LAYER
  2
0
 70
     0
 62
     7
  6
CONTINUOUS
  0
LAYER
  2
DEFPOINTS
 70
     0
 62
     7
  6
CONTINUOUS
  0
ENDTAB
  0
TABLE
  2
STYLE
 70
     1
  0
STYLE
  2
STANDARD
 70
     0
 40
0.0
 41
0.8
 50
0.0
 71
     0
 42
0.2
  3
txt
  4

  0
ENDTAB
  0
TABLE
  2
VIEW
 70
     0
  0
ENDTAB
  0
TABLE
  2
UCS
 70
     0
  0
ENDTAB
  0
TABLE
  2
APPID
 70
     7
  0
APPID
  2
ACAD
 70
     0
  0
APPID
  2
ACAD_MLEADERVER
 70
     0
  0
APPID
  2
ACAD_EXEMPT_FROM_CAD_STANDARDS
 70
     0
  0
APPID
  2
ACAD_NAV_VCDISPLAY
 70
     0
  0
APPID
  2
ACAD_DSTYLE_DIMJAG
 70
     0
  0
APPID
  2
ACAD_DSTYLE_DIMTALN
 70
     0
  0
APPID
  2
ACDBATTR
 70
     0
  0
ENDTAB
  0
TABLE
  2
DIMSTYLE
 70
     1
  0
DIMSTYLE
  2
STANDARD
 70
     0
  3

  4

  5

  6

  7

 40
1.0
 41
0.1875
 42
0.0625
 43
0.38
 44
0.125
 45
0.0
 46
0.0
 47
1.5
 48
1.5
140
0.15625
141
0.09
142
0.0
143
25.399999999999999
144
1.0
145
0.0
146
1.0
147
0.09
 71
     0
 72
     0
 73
     1
 74
     1
 75
     0
 76
     0
 77
     0
 78
     4
170
     0
171
     2
172
     0
173
     0
174
     0
175
     0
176
     0
177
     0
178
     0
  0
ENDTAB
  0
ENDSEC
  0
SECTION
  2
BLOCKS
  0
BLOCK
  8
0
  2
$MODEL_SPACE
 70
     0
 10
0.0
 20
0.0
 30
0.0
  3
$MODEL_SPACE
  1

  0
ENDBLK
  5
21
  8
0
  0
BLOCK
 67
     1
  8
0
  2
$PAPER_SPACE
 70
     0
 10
0.0
 20
0.0
 30
0.0
  3
$PAPER_SPACE
  1

  0
ENDBLK
  5
1D
 67
     1
  8
0
  0
ENDSEC
  0
SECTION
  2
ENTITIES
  0
LINE
  5
997
  8
0
 10
31.289194643619709
 20
8.0469923125865002
 30
0.0
 11
31.21242239771971
 21
7.993235807386502
 31
0.0
  0
LINE
  5
998
  8
0
 10
29.611761656419709
 20
5.2860065916865011
 30
0.0
 11
30.059468716619708
 21
5.4209936450865017
 31
0.0
  0
LINE
  5
999
  8
0
 10
29.583308528719702
 20
5.177427759286501
 30
0.0
 11
29.583308528719702
 21
5.2477094672865006
 31
0.0
  0
LINE
  5
99A
  8
0
 10
27.24409154247622
 20
7.768364480020832
 30
0.0
 11
27.171017236219711
 21
7.9651811580865006
 31
0.0
  0
LINE
  5
99B
  8
0
 10
29.978308528719712
 20
7.9277036550865034
 30
0.0
 11
29.978308528719712
 21
7.6164240420865008
 31
0.0
  0
LINE
  5
99C
  8
0
 10
29.978308528719712
 20
7.2431530701865032
 30
0.0
 11
29.978308528719712
 21
5.8190990190865017
 31
0.0
  0
LINE
  5
99D
  8
0
 10
30.080808528719711
 20
5.7893490190865018
 30
0.0
 11
30.080808528719711
 21
5.4497164781865024
 31
0.0
  0
LINE
  5
99E
  8
0
 10
31.075808528719708
 20
5.4497164781865024
 30
0.0
 11
31.075808528719708
 21
5.7893490190865018
 31
0.0
  0
LINE
  5
99F
  8
0
 10
31.1783085287197
 20
5.8190990190865017
 30
0.0
 11
31.1783085287197
 21
7.9277036550865034
 31
0.0
  0
LINE
  5
9A0
  8
0
 10
31.573308528719711
 20
5.2477094672865006
 30
0.0
 11
31.573308528719711
 21
5.177427759286501
 31
0.0
  0
LINE
  5
9A1
  8
0
 10
29.583308528719702
 20
5.177427759286501
 30
0.0
 11
31.573308528719711
 21
5.177427759286501
 31
0.0
  0
LINE
  5
9A2
  8
0
 10
29.611761656419709
 20
5.2860065916865011
 30
0.0
 11
31.544855401022311
 21
5.2860065917219901
 31
0.0
  0
LINE
  5
9A3
  8
0
 10
31.097148340719709
 20
5.4209936450865017
 30
0.0
 11
30.059468716619708
 21
5.4209936450865017
 31
0.0
  0
LINE
  5
9A4
  8
0
 10
31.148558528719711
 20
5.7893490190865018
 30
0.0
 11
30.008058528719712
 21
5.7893490190865018
 31
0.0
  0
LINE
  5
9A5
  8
0
 10
31.097148340719709
 20
5.4209936450865017
 30
0.0
 11
31.54485540101971
 21
5.2860065916865011
 31
0.0
  0
LINE
  5
9A6
  8
0
 10
29.944194659619701
 20
7.993235807386502
 30
0.0
 11
29.867422413719709
 21
8.0469923125865002
 31
0.0
  0
LINE
  5
9A7
  8
0
 10
27.281150371519711
 20
7.7422897629865011
 30
0.0
 11
27.349525715119711
 21
7.7415368819865007
 31
0.0
  0
LINE
  5
9A8
  8
0
 10
27.511164643619711
 20
7.7397570757865006
 30
0.0
 11
27.92420442441971
 21
7.7352090946865006
 31
0.0
  0
LINE
  5
9A9
  8
0
 10
31.289194643619709
 20
8.0469923125865002
 30
0.0
 11
29.867422413719709
 21
8.0469923125865002
 31
0.0
  0
LINE
  5
9AA
  8
0
 10
27.927243276219709
 20
8.0111923647865009
 30
0.0
 11
27.208956433019711
 21
8.0191014212865035
 31
0.0
  0
ARC
  5
9AB
  8
0
 10
27.866400177519711
 20
2.4855273262865021
 30
0.0
 40
5.5259999999999989
 50
67.446168241326731
 51
89.36914165640006
  0
ARC
  5
9AC
  8
0
 10
27.866400177519711
 20
2.4855273262865021
 30
0.0
 40
5.25
 50
66.142996727742215
 51
89.36914165640006
  0
ARC
  5
9AD
  8
0
 10
30.57830852871971
 20
6.6193490190865019
 30
0.0
 40
1.75
 50
77.626374883800139
 51
102.3736251161998
  0
ARC
  5
9AE
  8
0
 10
31.258308528719709
 20
7.9277036550865034
 30
0.0
 40
0.08
 50
125.0000140306001
 51
180.0
  0
ARC
  5
9AF
  8
0
 10
29.898308528719699
 20
7.9277036550865034
 30
0.0
 40
0.08
 50
0.0
 51
54.999985969399859
  0
ARC
  5
9B0
  8
0
 10
29.9133085287197
 20
8.1125244761865023
 30
0.0
 40
0.08
 50
180.0
 51
234.99999999990001
  0
ARC
  5
9B1
  8
0
 10
31.243308528719709
 20
8.1125244761865023
 30
0.0
 40
0.08
 50
305.00000000009987
 51
0.0
  0
ARC
  5
9B2
  8
0
 10
27.281597025605372
 20
7.7822969590483453
 30
0.0
 40
0.040009689284009
 50
200.3789469255014
 51
269.36035680201792
  0
ARC
  5
9B3
  8
0
 10
31.533308528719711
 20
5.2477094672865006
 30
0.0
 40
0.04
 50
0.0
 51
73.221544219999785
  0
ARC
  5
9B4
  8
0
 10
29.623308528719711
 20
5.2477094672865006
 30
0.0
 40
0.04
 50
106.7784557799998
 51
180.0
  0
ARC
  5
9B5
  8
0
 10
27.20851857482284
 20
7.9791020480936901
 30
0.0
 40
0.0400017696560856
 50
89.372829554276663
 51
200.36545375723099
  0
ARC
  5
9B6
  8
0
 10
30.05080852871971
 20
5.4497164781865024
 30
0.0
 40
0.03
 50
286.77852311949982
 51
0.0
  0
ARC
  5
9B7
  8
0
 10
31.105808528719709
 20
5.4497164781865024
 30
0.0
 40
0.03
 50
180.0
 51
253.22147688049981
  0
ARC
  5
9B8
  8
0
 10
31.148558528719711
 20
5.8190990190865017
 30
0.0
 40
0.02975
 50
270.0
 51
0.0
  0
ARC
  5
9B9
  8
0
 10
30.008058528719712
 20
5.8190990190865017
 30
0.0
 40
0.02975
 50
180.0
 51
270.0
  0
ARC
  5
9BA
  8
0
 10
30.05403529628742
 20
8.0380498239680822
 30
0.0
 40
0.2329523121669812
 50
106.439752801315
 51
161.3552692979647
  0
ARC
  5
9BB
  8
0
 10
30.43219778795476
 20
7.217836093811278
 30
0.0
 40
1.1341980239022851
 50
101.642655579999
 51
113.0506711071756
  0
ARC
  5
9BC
  8
0
 10
30.724342094098532
 20
7.2175890217933762
 30
0.0
 40
1.134455587320754
 50
66.950628200213657
 51
78.356045093802621
  0
ARC
  5
9BD
  8
0
 10
31.11458999587774
 20
8.0505293110798348
 30
0.0
 40
0.2177310874641165
 50
16.5428727376372
 51
75.66210519480893
  0
ARC
  5
9BE
  8
0
 10
27.428389731682739
 20
7.5630565935627017
 30
0.0
 40
0.1951275133452388
 50
64.899373084966484
 51
113.8389102775825
  0
ARC
  5
9BF
  8
0
 10
29.355632733899721
 20
7.4297885561364998
 30
0.0
 40
0.6500445754488704
 50
343.3148759012696
 51
16.685124098730789
  0
ATTDEF
  5
9D0
  8
DEFPOINTS
 10
30.57510807474004
 20
5.18945298649838
 30
0.0
 40
0.001
  1
K-1895-C
  3

  2
MODELNUMBER
 70
     0
1001
ACDBATTR
1070
     0
1070
     1
  0
ATTDEF
  5
9D1
  8
DEFPOINTS
 10
30.57510807474004
 20
5.1877863198317149
 30
0.0
 40
0.001
  1

  3

  2
TRADENAME
 70
     0
1001
ACDBATTR
1070
     0
1070
     1
  0
ATTDEF
  5
9D2
  8
DEFPOINTS
 10
30.57510807474004
 20
5.1861196531650497
 30
0.0
 40
0.001
  1
SOAP DISPENSER
  3

  2
PRODUCT
 70
     0
1001
ACDBATTR
1070
     0
1070
     1
  0
ATTDEF
  5
9D3
  8
DEFPOINTS
 10
30.57510807474004
 20
5.1844529864983846
 30
0.0
 40
0.001
  1
BRASS
  3

  2
MATERIAL
 70
     0
1001
ACDBATTR
1070
     0
1070
     1
  0
ENDSEC
  0
EOF
