  0
SECTION
  2
HEADER
  9
$ACADVER
  1
AC1009
  9
$INSBASE
 10
3.8464591161491821
 20
16.79022914906956
 30
0.0
  9
$EXTMIN
 10
0.7650636969128009
 20
11.278879894145939
 30
-0.0000000349181948
  9
$EXTMAX
 10
6.928572188285492
 20
18.12508223027681
 30
0.0000000814935746
  9
$LIMMIN
 10
0.0
 20
0.0
  9
$LIMMAX
 10
11.692913385800001
 20
8.2677165353999982
  9
$ORTHOMODE
 70
     0
  9
$REGENMODE
 70
     1
  9
$FILLMODE
 70
     1
  9
$QTEXTMODE
 70
     0
  9
$MIRRTEXT
 70
     0
  9
$DRAGMODE
 70
     2
  9
$LTSCALE
 40
0.6431102362
  9
$OSMODE
 70
    39
  9
$ATTMODE
 70
     1
  9
$TEXTSIZE
 40
0.2
  9
$TRACEWID
 40
0.05
  9
$TEXTSTYLE
  7
STANDARD
  9
$CLAYER
  8
0
  9
$CELTYPE
  6
BYLAYER
  9
$CECOLOR
 62
   256
  9
$DIMSCALE
 40
1.0
  9
$DIMASZ
 40
0.1875
  9
$DIMEXO
 40
0.0625
  9
$DIMDLI
 40
0.4443307087
  9
$DIMRND
 40
0.0
  9
$DIMDLE
 40
0.0
  9
$DIMEXE
 40
0.125
  9
$DIMTP
 40
0.0
  9
$DIMTM
 40
0.0
  9
$DIMTXT
 40
0.15625
  9
$DIMCEN
 40
0.1052362205
  9
$DIMTSZ
 40
0.0
  9
$DIMTOL
 70
     0
  9
$DIMLIM
 70
     0
  9
$DIMTIH
 70
     1
  9
$DIMTOH
 70
     1
  9
$DIMSE1
 70
     0
  9
$DIMSE2
 70
     0
  9
$DIMTAD
 70
     0
  9
$DIMZIN
 70
     0
  9
$DIMBLK
  1

  9
$DIMASO
 70
     1
  9
$DIMSHO
 70
     1
  9
$DIMPOST
  1

  9
$DIMAPOST
  1

  9
$DIMALT
 70
     0
  9
$DIMALTD
 70
     2
  9
$DIMALTF
 40
25.399999999999999
  9
$DIMLFAC
 40
1.0
  9
$DIMTOFL
 70
     0
  9
$DIMTVP
 40
0.0
  9
$DIMTIX
 70
     0
  9
$DIMSOXD
 70
     0
  9
$DIMSAH
 70
     0
  9
$DIMBLK1
  1

  9
$DIMBLK2
  1

  9
$DIMSTYLE
  2
STANDARD
  9
$DIMCLRD
 70
     0
  9
$DIMCLRE
 70
     0
  9
$DIMCLRT
 70
     0
  9
$DIMTFAC
 40
1.0
  9
$DIMGAP
 40
0.09
  9
$LUNITS
 70
     2
  9
$LUPREC
 70
     4
  9
$SKETCHINC
 40
0.1
  9
$FILLETRAD
 40
0.0
  9
$AUNITS
 70
     0
  9
$AUPREC
 70
     0
  9
$MENU
  1
.
  9
$ELEVATION
 40
0.0
  9
$PELEVATION
 40
0.0
  9
$THICKNESS
 40
0.0
  9
$LIMCHECK
 70
     0
  9
$BLIPMODE
 70
     0
  9
$CHAMFERA
 40
0.0
  9
$CHAMFERB
 40
0.0
  9
$SKPOLY
 70
     0
  9
$TDCREATE
 40
2457542.4998638192
  9
$TDUPDATE
 40
2457542.7406734489
  9
$TDINDWG
 40
0.2076277199
  9
$TDUSRTIMER
 40
0.2076277199
  9
$USRTIMER
 70
     1
  9
$ANGBASE
 50
0.0
  9
$ANGDIR
 70
     0
  9
$PDMODE
 70
     0
  9
$PDSIZE
 40
0.3125
  9
$PLINEWID
 40
0.0
  9
$COORDS
 70
     1
  9
$SPLFRAME
 70
     0
  9
$SPLINETYPE
 70
     6
  9
$SPLINESEGS
 70
     8
  9
$ATTDIA
 70
     1
  9
$ATTREQ
 70
     1
  9
$HANDLING
 70
     1
  9
$HANDSEED
  5
11D7
  9
$SURFTAB1
 70
     6
  9
$SURFTAB2
 70
     6
  9
$SURFTYPE
 70
     6
  9
$SURFU
 70
     6
  9
$SURFV
 70
     6
  9
$UCSNAME
  2

  9
$UCSORG
 10
0.0
 20
0.0
 30
0.0
  9
$UCSXDIR
 10
1.0
 20
0.0
 30
0.0
  9
$UCSYDIR
 10
0.0
 20
1.0
 30
0.0
  9
$PUCSNAME
  2

  9
$PUCSORG
 10
0.0
 20
0.0
 30
0.0
  9
$PUCSXDIR
 10
1.0
 20
0.0
 30
0.0
  9
$PUCSYDIR
 10
0.0
 20
1.0
 30
0.0
  9
$USERI1
 70
     0
  9
$USERI2
 70
     0
  9
$USERI3
 70
     0
  9
$USERI4
 70
     0
  9
$USERI5
 70
     0
  9
$USERR1
 40
0.0
  9
$USERR2
 40
0.0
  9
$USERR3
 40
0.0
  9
$USERR4
 40
0.0
  9
$USERR5
 40
0.0
  9
$WORLDVIEW
 70
     1
  9
$SHADEDGE
 70
     3
  9
$SHADEDIF
 70
    70
  9
$TILEMODE
 70
     1
  9
$MAXACTVP
 70
    48
  9
$PLIMCHECK
 70
     0
  9
$PEXTMIN
 10
1.0000000000000000E+020
 20
1.0000000000000000E+020
 30
1.0000000000000000E+020
  9
$PEXTMAX
 10
-1.0000000000000000E+020
 20
-1.0000000000000000E+020
 30
-1.0000000000000000E+020
  9
$PLIMMIN
 10
0.0
 20
0.0
  9
$PLIMMAX
 10
12.0
 20
9.0
  9
$UNITMODE
 70
     0
  9
$VISRETAIN
 70
     1
  9
$PLINEGEN
 70
     0
  9
$PSLTSCALE
 70
     1
  0
ENDSEC
  0
SECTION
  2
TABLES
  0
TABLE
  2
VPORT
 70
     1
  0
VPORT
  2
*ACTIVE
 70
     0
 10
0.0
 20
0.0
 11
1.0
 21
1.0
 12
0.0008652231491499
 22
0.0000910704511234
 13
0.0
 23
0.0
 14
1.0
 24
1.0
 15
0.0
 25
0.0
 16
-0.0000000000000058
 26
0.0
 36
25.440145525381858
 17
3.8459527194499961
 27
14.70188999176025
 37
0.0
 40
6.8919887237378381
 41
1.798301486199575
 42
50.0
 43
0.0
 44
0.0
 50
0.0
 51
0.0
 71
     0
 72
   100
 73
     1
 74
     1
 75
     0
 76
     0
 77
     0
 78
     0
  0
ENDTAB
  0
TABLE
  2
LTYPE
 70
     1
  0
LTYPE
  2
CONTINUOUS
 70
     0
  3
Solid line
 72
    65
 73
     0
 40
0.0
  0
ENDTAB
  0
TABLE
  2
LAYER
 70
     2
  0
LAYER
  2
0
 70
     0
 62
     7
  6
CONTINUOUS
  0
LAYER
  2
DEFPOINTS
 70
     0
 62
     7
  6
CONTINUOUS
  0
ENDTAB
  0
TABLE
  2
STYLE
 70
     1
  0
STYLE
  2
STANDARD
 70
     0
 40
0.0
 41
0.8
 50
0.0
 71
     0
 42
0.2
  3
txt
  4

  0
ENDTAB
  0
TABLE
  2
VIEW
 70
     9
  0
ENDTAB
  0
TABLE
  2
UCS
 70
     0
  0
ENDTAB
  0
TABLE
  2
APPID
 70
     4
  0
APPID
  2
ACAD
 70
     0
  0
APPID
  2
ACAD_MLEADERVER
 70
     0
  0
APPID
  2
ACAD_NAV_VCDISPLAY
 70
     0
  0
APPID
  2
AcDbAttr
 70
     0
  0
ENDTAB
  0
TABLE
  2
DIMSTYLE
 70
     1
  0
DIMSTYLE
  2
STANDARD
 70
     0
  3

  4

  5

  6

  7

 40
1.0
 41
0.1875
 42
0.0625
 43
0.38
 44
0.125
 45
0.0
 46
0.0
 47
1.5
 48
1.5
140
0.15625
141
0.09
142
0.0
143
25.399999999999999
144
1.0
145
0.0
146
1.0
147
0.09
 71
     0
 72
     0
 73
     1
 74
     1
 75
     0
 76
     0
 77
     0
 78
     4
170
     0
171
     2
172
     0
173
     0
174
     0
175
     0
176
     0
177
     0
178
     0
  0
ENDTAB
  0
ENDSEC
  0
SECTION
  2
BLOCKS
  0
BLOCK
  8
0
  2
$MODEL_SPACE
 70
     0
 10
0.0
 20
0.0
 30
0.0
  3
$MODEL_SPACE
  1

  0
ENDBLK
  5
21
  8
0
  0
BLOCK
 67
     1
  8
0
  2
$PAPER_SPACE
 70
     0
 10
0.0
 20
0.0
 30
0.0
  3
$PAPER_SPACE
  1

  0
ENDBLK
  5
1D
 67
     1
  8
0
  0
ENDSEC
  0
SECTION
  2
ENTITIES
  0
ARC
  5
FC4
  8
0
 10
4.249561927559208
 20
12.269862338672191
 30
0.0
 40
1.165040750056531
 50
197.43932350852589
 51
225.29699892905941
  0
ARC
  5
FC5
  8
0
 10
3.8370502934352042
 20
11.87185590924229
 30
0.0
 40
0.5921265585997939
 50
226.57702682611301
 51
270.91074101844072
  0
ARC
  5
FC6
  8
0
 10
3.8571439375640808
 20
11.86707598164287
 30
0.0
 40
0.5873689670930379
 50
268.95795736019528
 51
319.658110230972
  0
ARC
  5
FC7
  8
0
 10
3.4587540520529201
 20
12.26337726720301
 30
0.0
 40
1.1484138228987439
 50
317.45425140652469
 51
342.6392092469614
  0
LINE
  5
FC8
  8
0
 10
4.5548515743713072
 20
11.920704742696261
 30
0.0
 11
4.5552400823000001
 21
11.9300499227
 31
0.0
  0
LINE
  5
FC9
  8
0
 10
4.5552400823000001
 20
11.9300499227
 30
0.0
 11
4.553517523
 21
11.935160017599999
 31
0.0
  0
ARC
  5
FCA
  8
0
 10
6.2667793847094986
 20
12.73149354646886
 30
0.0
 40
1.889289098044296
 50
196.35958148742969
 51
204.9292639685589
  0
ARC
  5
FCB
  8
0
 10
7.329530739852526
 20
12.998676710399669
 30
0.0
 40
2.9845781935880908
 50
188.0070381479517
 51
195.53457304853939
  0
ARC
  5
FCD
  8
0
 10
21.981424502233761
 20
14.77651088555236
 30
0.0
 40
17.743489278544811
 50
186.49791462552619
 51
187.10146026909911
  0
ARC
  5
FD9
  8
0
 10
34.477524734040891
 20
14.698782085591301
 30
0.0
 40
30.18738037142575
 50
178.41843464316449
 51
183.666123197498
  0
ARC
  5
FDA
  8
0
 10
3.4171331369662372
 20
18.09273857831759
 30
0.0
 40
2.669666436419023
 50
289.46614338652591
 51
291.53250408150569
  0
ARC
  5
FDB
  8
0
 10
3.5596525177047451
 20
17.386355570451101
 30
0.0
 40
1.964363157790864
 50
295.2303200041722
 51
306.10540169429652
  0
LINE
  5
FDD
  8
0
 10
4.7171772997127404
 20
15.799264207383599
 30
0.0
 11
4.8506361654000338
 21
15.87049849620001
 31
0.0
  0
LINE
  5
FDE
  8
0
 10
4.8506361654000001
 20
15.8704984962
 30
0.0
 11
5.0111139939999987
 21
15.9119844031
 31
0.0
  0
LINE
  5
FDF
  8
0
 10
5.0111139939999987
 20
15.9119844031
 30
0.0
 11
5.1845617114999989
 21
15.9268060774
 31
0.0
  0
ARC
  5
FE1
  8
0
 10
5.2909391472548739
 20
7.6375977799189974
 30
0.0
 40
8.2898908531937678
 50
88.064714273323816
 51
90.735250378581725
  0
ARC
  5
FE2
  8
0
 10
6.3937526913771654
 20
29.615839231253538
 30
0.0
 40
13.717814976402879
 50
266.5593446083987
 51
270.92505697671447
  0
ARC
  5
FE3
  8
0
 10
6.6159616359790521
 20
16.190015236781761
 30
0.0
 40
0.2902040513446853
 50
269.85380771680218
 51
350.01446175003878
  0
ARC
  5
FE4
  8
0
 10
5.453998818298265
 20
16.43028889020114
 30
0.0
 40
1.4766467041691069
 50
348.65046790732339
 51
12.77677966383437
  0
ARC
  5
FE5
  8
0
 10
5.4947241163028782
 20
16.4612031536216
 30
0.0
 40
1.430249285399557
 50
11.92978981945893
 51
67.215491760351014
  0
ARC
  5
FE6
  8
0
 10
4.9443780194672078
 20
15.315530412396051
 30
0.0
 40
2.700405187909352
 50
65.863368180977943
 51
85.305762906255396
  0
ARC
  5
FE7
  8
0
 10
3.4365136609562601
 20
1.4496789613885439
 30
0.0
 40
16.647215404146792
 50
84.038921388213325
 51
88.084287893675153
  0
ARC
  5
FE8
  8
0
 10
3.846488343301
 20
17.81073972552365
 30
0.0
 40
0.3132362041303316
 50
1.9842206487739169
 51
178.01029022968279
  0
ARC
  5
FE9
  8
0
 10
4.1564119682515264
 20
3.2605110052647071
 30
0.0
 40
14.83437787420443
 50
91.761124031585254
 51
96.946885800933728
  0
ARC
  5
FEA
  8
0
 10
2.5221742668676228
 20
16.07058808120253
 30
0.0
 40
1.922065604641769
 50
94.774091146186876
 51
143.24443635684051
  0
ARC
  5
FEB
  8
0
 10
2.30551435849612
 20
16.429459473932429
 30
0.0
 40
1.541833308133715
 50
149.12155287330859
 51
190.83233778520199
  0
ARC
  5
FEC
  8
0
 10
1.0417120139136711
 20
16.16541867056219
 30
0.0
 40
0.2518746738038089
 50
185.86199159164619
 51
254.92788912651861
  0
ARC
  5
FED
  8
0
 10
1.1415416750471039
 20
16.453056623895421
 30
0.0
 40
0.5559965602688719
 50
252.7014715862899
 51
269.16531538938142
  0
ARC
  5
FEE
  8
0
 10
1.2538626767405721
 20
30.324554932406329
 30
0.0
 40
14.42793841503617
 50
269.52178442858349
 51
273.4497213034777
  0
ARC
  5
FEF
  8
0
 10
2.333327218187049
 20
12.35411065554405
 30
0.0
 40
3.5748994197418829
 50
84.405898221375423
 51
93.388493186074399
  0
ARC
  5
FF0
  8
0
 10
2.5957533803979911
 20
15.247968827359861
 30
0.0
 40
0.6695688379118429
 50
55.424698210427167
 51
82.615608360841961
  0
ARC
  5
FF1
  8
0
 10
3.9896746652339159
 20
17.172154567867349
 30
0.0
 40
1.706715665679952
 50
233.55197446399481
 51
249.27241154828189
  0
ARC
  5
FF2
  8
0
 10
-23.590895838737321
 20
14.732695888749641
 30
0.0
 40
26.995027032310318
 50
355.42140407283961
 51
1.5839211622629621
  0
ARC
  5
FFE
  8
0
 10
0.9926447465460571
 20
12.87616117652305
 30
0.0
 40
2.3444051575248088
 50
336.2011796545313
 51
352.68782189152148
  0
ARC
  5
FFF
  8
0
 10
664.34317035591846
 20
38.019221101726643
 30
0.0
 40
661.7199665014557
 50
182.25953925675159
 51
182.26035614364309
  0
ARC
  5
1000
  8
0
 10
4.174469003487868
 20
3.4636909678491841
 30
0.0
 40
14.54976846018384
 50
92.268852315660098
 51
97.494685780403415
  0
ARC
  5
1001
  8
0
 10
2.5062499653339141
 20
16.060631935302151
 30
0.0
 40
1.8428829517079099
 50
97.155954094635419
 51
137.35020944510069
  0
ARC
  5
1002
  8
0
 10
2.2284651035423151
 20
16.439627402969869
 30
0.0
 40
1.384758320316219
 50
141.0995202557431
 51
192.53555136977349
  0
ARC
  5
1003
  8
0
 10
1.0579376192144061
 20
16.173888720051028
 30
0.0
 40
0.1845345457531396
 50
190.87537060348581
 51
264.86016162524197
  0
ARC
  5
1004
  8
0
 10
1.3285235334884959
 20
24.254843659569939
 30
0.0
 40
8.2769692125710712
 50
268.86661893930608
 51
273.93169725899889
  0
ARC
  5
1005
  8
0
 10
1.1537267157095119
 20
16.573965425423509
 30
0.0
 40
0.5945748805803151
 50
259.11083764071549
 51
271.06766754255892
  0
ARC
  5
1006
  8
0
 10
2.3034258566802088
 20
9.5602327784299224
 30
0.0
 40
6.4499989736273191
 50
87.037474877201987
 51
93.621137129745904
  0
ARC
  5
1007
  8
0
 10
2.5067295522369291
 20
15.136220837370161
 30
0.0
 40
0.8751081847172251
 50
56.325712711432587
 51
81.453593248671581
  0
ARC
  5
1008
  8
0
 10
1.0347570400736379
 20
12.797213663259109
 30
0.0
 40
3.638514246719549
 50
55.470955005745218
 51
57.458496654907883
  0
ARC
  5
1009
  8
0
 10
3.2929194795692132
 20
16.061644660045371
 30
0.0
 40
0.3309829371441404
 50
233.7388247259797
 51
242.8632811383967
  0
ARC
  5
100A
  8
0
 10
223.168668825938
 20
404.65573495169161
 30
0.0
 40
446.81778060583957
 50
240.4995412819091
 51
240.5228518535192
  0
LINE
  5
100B
  8
0
 10
3.3001891583184308
 20
15.67761125554108
 30
0.0
 11
3.3781096861869981
 21
15.64745771676262
 31
0.0
  0
ARC
  5
100C
  8
0
 10
-0.5955630606112753
 20
15.194379229508449
 30
0.0
 40
3.999510605055892
 50
4.0789536845358647
 51
9.1913367046413477
  0
ARC
  5
100D
  8
0
 10
11.603781043872839
 20
14.74748806966458
 30
0.0
 40
7.3441533051900336
 50
171.50397638147919
 51
173.86824944436691
  0
LINE
  5
100E
  8
0
 10
4.3153055370648561
 20
15.647827263810729
 30
0.0
 11
4.3942552486000004
 21
15.678268817299999
 31
0.0
  0
ARC
  5
100F
  8
0
 10
2.929407960134208
 20
18.450073320527309
 30
0.0
 40
3.1352198734636429
 50
297.85531283400371
 51
304.82877985273421
  0
ARC
  5
1010
  8
0
 10
5.1756553393081637
 20
15.15613794376698
 30
0.0
 40
0.8523586961111053
 50
99.347990726644682
 51
122.31447826527599
  0
ARC
  5
1011
  8
0
 10
5.1761736518401307
 20
15.206529583061521
 30
0.0
 40
0.8027589055808995
 50
90.480929029461919
 51
99.968267954013754
  0
ARC
  5
1012
  8
0
 10
5.2461476033240437
 20
-1.903030636221352
 30
0.0
 40
17.912455110268699
 50
86.748540866042205
 51
90.245376211519712
  0
LINE
  5
1013
  8
0
 10
6.2621100525999944
 20
15.980589477700001
 30
0.0
 11
6.5521221401999989
 21
15.979849290900001
 31
0.0
  0
ARC
  5
1014
  8
0
 10
6.560392795278438
 20
16.381830692899651
 30
0.0
 40
0.4020664762064049
 50
268.82132163867988
 51
295.58369179592182
  0
ARC
  5
1015
  8
0
 10
6.6440190368412049
 20
16.169000668041761
 30
0.0
 40
0.1747696694246609
 50
300.9941504624698
 51
350.1396835083558
  0
ARC
  5
1016
  8
0
 10
5.353326734598487
 20
16.439691947806391
 30
0.0
 40
1.493449059347171
 50
348.38745455087439
 51
6.3372216389275611
  0
ARC
  5
1017
  8
0
 10
5.493803485657156
 20
16.456722982379819
 30
0.0
 40
1.3519515587131321
 50
6.2769909175598393
 51
35.138835546887357
  0
ARC
  5
1018
  8
0
 10
5.2708133707844551
 20
16.204987392005521
 30
0.0
 40
1.6809809401348459
 50
37.781854852654106
 51
79.776675602274821
  0
ARC
  5
1024
  8
0
 10
4.4363517450714518
 20
12.149002109821881
 30
0.0
 40
5.8215578862443671
 50
78.77928531554258
 51
87.208890119657156
  0
ARC
  5
1025
  8
0
 10
3.4809935351859251
 20
2.768148137520785
 30
0.0
 40
15.245918014745341
 50
85.339178391754714
 51
87.692700990527214
  0
ARC
  5
1026
  8
0
 10
3.3301418803457281
 20
15.66920683767729
 30
0.0
 40
0.2780783386254184
 50
10.027647261144571
 51
38.50912909017125
  0
ARC
  5
1027
  8
0
 10
0.7897199600703948
 20
15.366427515752759
 30
0.0
 40
2.8360812525152741
 50
350.52110401489222
 51
7.113344308517644
  0
ARC
  5
1028
  8
0
 10
10.811051224696881
 20
13.94045068840383
 30
0.0
 40
7.2873390303415322
 50
172.43869411030349
 51
178.4189303220557
  0
ARC
  5
1029
  8
0
 10
5.0040473451135243
 20
14.14696686464762
 30
0.0
 40
1.477570802185185
 50
180.21127748362929
 51
194.88523282630541
  0
LINE
  5
102A
  8
0
 10
3.57606039175
 20
13.76740298795
 30
0.0
 11
3.5772242424999989
 21
13.7625202339
 31
0.0
  0
ARC
  5
102B
  8
0
 10
3.5650421309365452
 20
13.75946673379444
 30
0.0
 40
0.01255896910734
 50
308.74799948317639
 51
14.071527904302981
  0
ARC
  5
102C
  8
0
 10
4.0104884751969188
 20
13.739259288171921
 30
0.0
 40
0.4377096026370712
 50
178.63686835700571
 51
190.9099813959192
  0
ARC
  5
102D
  8
0
 10
3.6705476484582769
 20
13.679649956091369
 30
0.0
 40
0.0928127700437925
 50
194.49743228472201
 51
244.29068040333979
  0
ARC
  5
102E
  8
0
 10
3.8472038449866459
 20
14.04342960072608
 30
0.0
 40
0.497320056416408
 50
244.2967454338569
 51
292.7001965497073
  0
ARC
  5
102F
  8
0
 10
4.0094759362865338
 20
13.68665446676639
 30
0.0
 40
0.1062416399216408
 50
286.20439435822038
 51
344.7753797429034
  0
ARC
  5
1030
  8
0
 10
3.7713754005932461
 20
13.73146743660778
 30
0.0
 40
0.3482881684087812
 50
347.94966699476419
 51
3.041047578661126
  0
ARC
  5
1031
  8
0
 10
4.129861444085658
 20
13.761105805303091
 30
0.0
 40
0.0154535769905467
 50
191.34432759496099
 51
226.23978659558949
  0
ARC
  5
1032
  8
0
 10
2.5272808787884831
 20
14.169347239060849
 30
0.0
 40
1.6398423052000859
 50
345.47482615469528
 51
2.684380647421468
  0
ARC
  5
103E
  8
0
 10
-11.69159013085295
 20
13.152352007533141
 30
0.0
 40
15.89459364715119
 50
3.9459614670274878
 51
7.1203037591133951
  0
ARC
  5
103F
  8
0
 10
6.418018613690057
 20
15.39098227881049
 30
0.0
 40
2.3529564856692948
 50
172.74748901870001
 51
186.55106705984679
  0
ARC
  5
1040
  8
0
 10
4.3691663289544866
 20
15.66489380225214
 30
0.0
 40
0.2862154337796048
 50
141.73425641020941
 51
175.3643952053566
  0
ARC
  5
1041
  8
0
 10
4.1262419839255458
 20
15.85241235127463
 30
0.0
 40
0.0208968188588051
 50
330.58670569271737
 51
4.9924214236058964
  0
ARC
  5
1042
  8
0
 10
4.1637017542805204
 20
15.853920219852119
 30
0.0
 40
0.0166451290740582
 50
150.64282688142629
 51
178.93058687484989
  0
ARC
  5
1043
  8
0
 10
4.1192423304051076
 20
15.94481700919132
 30
0.0
 40
0.0879911233937236
 50
289.90102137273561
 51
314.942215248313
  0
ARC
  5
1044
  8
0
 10
4.132387999893802
 20
15.927258579704761
 30
0.0
 40
0.0663492951721271
 50
317.61880009168181
 51
34.149804110281572
  0
ARC
  5
1045
  8
0
 10
4.2455624044000704
 20
16.015042469190359
 30
0.0
 40
0.077129612587109
 50
193.1158045110879
 51
220.9375915524713
  0
ARC
  5
1046
  8
0
 10
3.8198758398459169
 20
15.900568428625411
 30
0.0
 40
0.363733628545468
 50
15.462113197734091
 51
23.946097125122989
  0
ARC
  5
1047
  8
0
 10
5.1914159688973944
 20
16.42929431733209
 30
0.0
 40
1.1068520669641611
 50
178.1470395579947
 51
199.98160048551969
  0
ARC
  5
1048
  8
0
 10
3.8227581473511929
 20
16.806068702960872
 30
0.0
 40
0.4302513615273147
 50
307.57794119664999
 51
86.815444254673451
  0
ARC
  5
1049
  8
0
 10
3.872043030851084
 20
16.802287355798981
 30
0.0
 40
0.4340967219679683
 50
93.336829149741376
 51
232.45712071209729
  0
ARC
  5
104A
  8
0
 10
2.478685734351056
 20
16.429735418427718
 30
0.0
 40
1.1291944062397801
 50
337.50729069725338
 51
1.4390341112626761
  0
ARC
  5
104B
  8
0
 10
3.446768740108237
 20
16.014808109145271
 30
0.0
 40
0.0771230075964745
 50
317.69889364772922
 51
347.21718425547942
  0
ARC
  5
104C
  8
0
 10
3.560376263397607
 20
15.9271073024193
 30
0.0
 40
0.0669401650213288
 50
147.67435529158061
 51
254.82982570198669
  0
ARC
  5
104D
  8
0
 10
3.5286395672918429
 20
15.85389746934343
 30
0.0
 40
0.016618961576344
 50
355.46102938835759
 51
31.172882881072379
  0
ARC
  5
104E
  8
0
 10
3.5628414138926141
 20
15.85151944414841
 30
0.0
 40
0.0176670060124211
 50
176.55101641017669
 51
211.2686941607179
  0
ARC
  5
104F
  8
0
 10
3.8464591161491821
 20
16.79022914906956
 30
0.0
 40
1.077839372431965
 50
283.2484040373979
 51
256.71226675642458
  0
ARC
  5
1050
  8
0
 10
3.8460376587131448
 20
14.20463732750404
 30
0.0
 40
1.804902683075281
 50
80.899174558106054
 51
99.075312181733466
  0
ARC
  5
1051
  8
0
 10
4.1124925899893423
 20
15.85839573594593
 30
0.0
 40
0.1298256992993012
 50
54.816986106676822
 51
81.570853067935104
  0
ARC
  5
1052
  8
0
 10
3.5775597803890018
 20
15.867285118771751
 30
0.0
 40
0.1207543847587777
 50
97.716605514587371
 51
127.64299011135989
  0
ARC
  5
1053
  8
0
 10
3.584573561415525
 20
15.821767425008559
 30
0.0
 40
0.0503975209770238
 50
99.750409959612924
 51
141.3430673967103
  0
ARC
  5
1054
  8
0
 10
3.8560792914215338
 20
14.390639202115651
 30
0.0
 40
1.507045073440207
 50
81.846029200540272
 51
100.7090122238684
  0
ARC
  5
1055
  8
0
 10
4.1106500372703358
 20
15.82529348724001
 30
0.0
 40
0.0457804786115258
 50
37.259710154754103
 51
77.591686931451974
  0
ARC
  5
1056
  8
0
 10
4.0333787744872396
 20
15.624734173452261
 30
0.0
 40
0.2602795695228196
 50
70.447370818582357
 51
81.949660105912471
  0
ARC
  5
1057
  8
0
 10
3.883945679380977
 20
16.772620289200731
 30
0.0
 40
1.2597488778767361
 50
103.20443685942151
 51
149.9434847732054
  0
ARC
  5
1058
  8
0
 10
5.0109279213833338
 20
16.202167763096419
 30
0.0
 40
2.5218927198631969
 50
151.55015256009571
 51
171.86512396822201
  0
ARC
  5
1059
  8
0
 10
20.903298160712168
 20
13.090258012731059
 30
0.0
 40
18.713190774293199
 50
169.31759705919319
 51
170.24196494057259
  0
ARC
  5
105A
  8
0
 10
2.7085002569793821
 20
16.239693990382939
 30
0.0
 40
0.2486508435032928
 50
174.87308920672879
 51
253.22686454085331
  0
ARC
  5
105B
  8
0
 10
3.8316403117226141
 20
16.81156858717841
 30
0.0
 40
1.2167120449545079
 50
40.292758709827453
 51
77.411894590428105
  0
ARC
  5
1067
  8
0
 10
3.200800121038287
 20
16.384636645929429
 30
0.0
 40
1.9756951459294749
 50
9.1257044696097882
 51
37.904825094743913
  0
ARC
  5
1068
  8
0
 10
-9.1286909262291882
 20
13.833339540076169
 30
0.0
 40
14.56467333235627
 50
9.5985720531616252
 51
11.343139822606849
  0
ARC
  5
1069
  8
0
 10
4.9888882652681339
 20
16.23682451435376
 30
0.0
 40
0.2444823064858112
 50
281.39928181914911
 51
5.8902186421459151
  0
ARC
  5
106A
  8
0
 10
13.503280662901719
 20
14.456312253705599
 30
0.0
 40
10.976709715166001
 50
167.92813345373821
 51
170.4405899063415
  0
ARC
  5
106B
  8
0
 10
2.7572965153948861
 20
16.271285844578141
 30
0.0
 40
0.0787028486739808
 50
174.21657474413371
 51
253.84200229394099
  0
ARC
  5
106C
  8
0
 10
2.5404077578437079
 20
15.21662903041898
 30
0.0
 40
0.9982905303574394
 50
60.634512394737961
 51
78.736543278571233
  0
ARC
  5
106D
  8
0
 10
-6.5452955798620893
 20
14.315700700028909
 30
0.0
 40
11.72480637760847
 50
9.6405665207277451
 51
11.99269589929308
  0
ARC
  5
106E
  8
0
 10
4.936181927217322
 20
16.270719029730241
 30
0.0
 40
0.0782018502716924
 50
279.0167272429116
 51
6.2376764577673613
  0
ARC
  5
106F
  8
0
 10
5.1483328791661034
 20
15.22363510534375
 30
0.0
 40
0.9902343104633978
 50
101.6461165454274
 51
119.3372943970558
  0
ARC
  5
1070
  8
0
 10
3.8464632612501259
 20
17.81374463743753
 30
0.0
 40
0.1124575249451364
 50
26.16388830692442
 51
153.83564761256861
  0
LINE
  5
1086
  8
0
 10
3.9473979899130738
 20
17.863331686820629
 30
0.0
 11
3.9474041438026628
 21
17.863319160542432
 31
0.0
  0
LINE
  5
1087
  8
0
 10
3.745528934232341
 20
17.863332504363338
 30
0.0
 11
3.7455234254639138
 21
17.863321291462519
 31
0.0
  0
LINE
  5
1088
  8
0
 10
3.533440995920476
 20
17.821615288773309
 30
0.0
 11
3.533440995920476
 21
17.821602504795749
 31
0.0
  0
ATTDEF
  5
10F3
  8
DEFPOINTS
 10
3.84158956645802
 20
16.793629567314269
 30
0.0
 40
0.001
  1
PREMIUM MATERIALS
  3

  2
MATERIAL
 70
     0
1001
AcDbAttr
1070
     0
1070
     1
  0
ATTDEF
  5
10F4
  8
DEFPOINTS
 10
3.84158956645802
 20
16.795296233980942
 30
0.0
 40
0.001
  1
BATHROOM SINK FAUCET
  3

  2
PRODUCT
 70
     0
1001
AcDbAttr
1070
     0
1070
     1
  0
ATTDEF
  5
10F5
  8
DEFPOINTS
 10
3.84158956645802
 20
16.79696290064761
 30
0.0
 40
0.001
  1
DEVONSHIRE
  3

  2
TRADENAME
 70
     0
1001
AcDbAttr
1070
     0
1070
     1
  0
ATTDEF
  5
10F6
  8
DEFPOINTS
 10
3.84158956645802
 20
16.798629567314268
 30
0.0
 40
0.001
  1
K-193-4
  3

  2
MODELNUMBER
 70
     0
1001
AcDbAttr
1070
     0
1070
     1
  0
ENDSEC
  0
EOF
