  0
SECTION
  2
HEADER
  9
$ACADVER
  1
AC1009
  9
$INSBASE
 10
554.28144889877058
 20
76.929122518951345
 30
0.0
  9
$EXTMIN
 10
524.28144889872056
 20
59.429138802170371
 30
0.0
  9
$EXTMAX
 10
584.28144889882049
 20
78.429122518951345
 30
0.0
  9
$LIMMIN
 10
0.0
 20
0.0
  9
$LIMMAX
 10
11.692913385800001
 20
8.2677165353999982
  9
$ORTHOMODE
 70
     1
  9
$REGENMODE
 70
     1
  9
$FILLMODE
 70
     1
  9
$QTEXTMODE
 70
     0
  9
$MIRRTEXT
 70
     0
  9
$DRAGMODE
 70
     2
  9
$LTSCALE
 40
0.6431102362
  9
$OSMODE
 70
  3071
  9
$ATTMODE
 70
     1
  9
$TEXTSIZE
 40
0.2
  9
$TRACEWID
 40
0.05
  9
$TEXTSTYLE
  7
STANDARD
  9
$CLAYER
  8
0
  9
$CELTYPE
  6
BYLAYER
  9
$CECOLOR
 62
   256
  9
$DIMSCALE
 40
1.0
  9
$DIMASZ
 40
0.1875
  9
$DIMEXO
 40
0.0625
  9
$DIMDLI
 40
0.4443307087
  9
$DIMRND
 40
0.0
  9
$DIMDLE
 40
0.0
  9
$DIMEXE
 40
0.125
  9
$DIMTP
 40
0.01
  9
$DIMTM
 40
0.01
  9
$DIMTXT
 40
2.0
  9
$DIMCEN
 40
0.1052362205
  9
$DIMTSZ
 40
0.0
  9
$DIMTOL
 70
     1
  9
$DIMLIM
 70
     0
  9
$DIMTIH
 70
     1
  9
$DIMTOH
 70
     1
  9
$DIMSE1
 70
     0
  9
$DIMSE2
 70
     0
  9
$DIMTAD
 70
     0
  9
$DIMZIN
 70
     0
  9
$DIMBLK
  1

  9
$DIMASO
 70
     1
  9
$DIMSHO
 70
     1
  9
$DIMPOST
  1
\X
  9
$DIMAPOST
  1

  9
$DIMALT
 70
     1
  9
$DIMALTD
 70
     2
  9
$DIMALTF
 40
25.399999999999999
  9
$DIMLFAC
 40
1.0
  9
$DIMTOFL
 70
     0
  9
$DIMTVP
 40
0.0
  9
$DIMTIX
 70
     0
  9
$DIMSOXD
 70
     0
  9
$DIMSAH
 70
     0
  9
$DIMBLK1
  1

  9
$DIMBLK2
  1

  9
$DIMSTYLE
  2
STANDARD
  9
$DIMCLRD
 70
     0
  9
$DIMCLRE
 70
     0
  9
$DIMCLRT
 70
     0
  9
$DIMTFAC
 40
1.0
  9
$DIMGAP
 40
0.09
  9
$LUNITS
 70
     2
  9
$LUPREC
 70
     4
  9
$SKETCHINC
 40
0.1
  9
$FILLETRAD
 40
0.0
  9
$AUNITS
 70
     0
  9
$AUPREC
 70
     0
  9
$MENU
  1
.
  9
$ELEVATION
 40
0.0
  9
$PELEVATION
 40
0.0
  9
$THICKNESS
 40
0.0
  9
$LIMCHECK
 70
     0
  9
$BLIPMODE
 70
     0
  9
$CHAMFERA
 40
0.0
  9
$CHAMFERB
 40
0.0
  9
$SKPOLY
 70
     0
  9
$TDCREATE
 40
2458060.4683680669
  9
$TDUPDATE
 40
2458494.4720711112
  9
$TDINDWG
 40
0.2466276968
  9
$TDUSRTIMER
 40
0.2466276968
  9
$USRTIMER
 70
     1
  9
$ANGBASE
 50
0.0
  9
$ANGDIR
 70
     0
  9
$PDMODE
 70
     0
  9
$PDSIZE
 40
0.3125
  9
$PLINEWID
 40
0.0
  9
$COORDS
 70
     1
  9
$SPLFRAME
 70
     0
  9
$SPLINETYPE
 70
     6
  9
$SPLINESEGS
 70
     8
  9
$ATTDIA
 70
     1
  9
$ATTREQ
 70
     1
  9
$HANDLING
 70
     1
  9
$HANDSEED
  5
43A5
  9
$SURFTAB1
 70
     6
  9
$SURFTAB2
 70
     6
  9
$SURFTYPE
 70
     6
  9
$SURFU
 70
     6
  9
$SURFV
 70
     6
  9
$UCSNAME
  2

  9
$UCSORG
 10
0.0
 20
0.0
 30
0.0
  9
$UCSXDIR
 10
1.0
 20
0.0
 30
0.0
  9
$UCSYDIR
 10
0.0
 20
1.0
 30
0.0
  9
$PUCSNAME
  2

  9
$PUCSORG
 10
0.0
 20
0.0
 30
0.0
  9
$PUCSXDIR
 10
1.0
 20
0.0
 30
0.0
  9
$PUCSYDIR
 10
0.0
 20
1.0
 30
0.0
  9
$USERI1
 70
     0
  9
$USERI2
 70
     0
  9
$USERI3
 70
     0
  9
$USERI4
 70
     0
  9
$USERI5
 70
     0
  9
$USERR1
 40
0.0
  9
$USERR2
 40
0.0
  9
$USERR3
 40
0.0
  9
$USERR4
 40
0.0
  9
$USERR5
 40
0.0
  9
$WORLDVIEW
 70
     1
  9
$SHADEDGE
 70
     3
  9
$SHADEDIF
 70
    70
  9
$TILEMODE
 70
     1
  9
$MAXACTVP
 70
    64
  9
$PLIMCHECK
 70
     0
  9
$PEXTMIN
 10
1.0000000000000000E+020
 20
1.0000000000000000E+020
 30
1.0000000000000000E+020
  9
$PEXTMAX
 10
-1.0000000000000000E+020
 20
-1.0000000000000000E+020
 30
-1.0000000000000000E+020
  9
$PLIMMIN
 10
0.0
 20
0.0
  9
$PLIMMAX
 10
12.0
 20
9.0
  9
$UNITMODE
 70
     0
  9
$VISRETAIN
 70
     1
  9
$PLINEGEN
 70
     0
  9
$PSLTSCALE
 70
     1
  0
ENDSEC
  0
SECTION
  2
TABLES
  0
TABLE
  2
VPORT
 70
     1
  0
VPORT
  2
*ACTIVE
 70
     0
 10
0.0
 20
0.0
 11
1.0
 21
1.0
 12
0.0
 22
0.0
 13
0.0
 23
0.0
 14
1.0
 24
1.0
 15
0.0
 25
0.0
 16
0.0
 26
0.0
 36
182.49303922736539
 17
554.28144889877058
 27
68.929130660560858
 37
0.0
 40
62.967987616417062
 41
2.1808755760368661
 42
50.0
 43
0.0
 44
0.0
 50
0.0
 51
0.0
 71
     0
 72
   100
 73
     1
 74
     1
 75
     0
 76
     0
 77
     0
 78
     0
  0
ENDTAB
  0
TABLE
  2
LTYPE
 70
     2
  0
LTYPE
  2
CONTINUOUS
 70
     0
  3
Solid line
 72
    65
 73
     0
 40
0.0
  0
LTYPE
  2
PHANTOM2
 70
     0
  3
___ _ _ ___ _ _ ___ _ _ ___ _ _
 72
    65
 73
     6
 40
1.25
 49
0.625
 49
-0.125
 49
0.125
 49
-0.125
 49
0.125
 49
-0.125
  0
ENDTAB
  0
TABLE
  2
LAYER
 70
     2
  0
LAYER
  2
0
 70
     0
 62
   255
  6
CONTINUOUS
  0
LAYER
  2
DEFPOINTS
 70
     0
 62
     7
  6
CONTINUOUS
  0
ENDTAB
  0
TABLE
  2
STYLE
 70
     1
  0
STYLE
  2
STANDARD
 70
     0
 40
0.0
 41
0.8
 50
0.0
 71
     0
 42
0.2
  3
txt
  4

  0
ENDTAB
  0
TABLE
  2
VIEW
 70
     0
  0
ENDTAB
  0
TABLE
  2
UCS
 70
     0
  0
ENDTAB
  0
TABLE
  2
APPID
 70
     9
  0
APPID
  2
ACAD
 70
     0
  0
APPID
  2
ACAD_MLEADERVER
 70
     0
  0
APPID
  2
ACAD_EXEMPT_FROM_CAD_STANDARDS
 70
     0
  0
APPID
  2
ACAD_NAV_VCDISPLAY
 70
     0
  0
APPID
  2
ACAECLAYERSTANDARD
 70
     0
  0
APPID
  2
ACCMTRANSPARENCY
 70
     0
  0
APPID
  2
ACAD_DSTYLE_DIMJAG
 70
     0
  0
APPID
  2
ACAD_DSTYLE_DIMTALN
 70
     0
  0
APPID
  2
ACDBATTR
 70
     0
  0
ENDTAB
  0
TABLE
  2
DIMSTYLE
 70
     1
  0
DIMSTYLE
  2
STANDARD
 70
     0
  3

  4

  5

  6

  7

 40
1.0
 41
0.1875
 42
0.0625
 43
0.38
 44
0.125
 45
0.0
 46
0.0
 47
0.01
 48
0.01
140
0.15625
141
0.09
142
0.0
143
25.399999999999999
144
1.0
145
0.0
146
1.0
147
0.09
 71
     1
 72
     0
 73
     1
 74
     1
 75
     0
 76
     0
 77
     0
 78
     4
170
     0
171
     2
172
     0
173
     0
174
     0
175
     0
176
     0
177
     0
178
     0
  0
ENDTAB
  0
ENDSEC
  0
SECTION
  2
BLOCKS
  0
BLOCK
  8
0
  2
$MODEL_SPACE
 70
     0
 10
0.0
 20
0.0
 30
0.0
  3
$MODEL_SPACE
  1

  0
ENDBLK
  5
21
  8
0
  0
BLOCK
 67
     1
  8
0
  2
$PAPER_SPACE
 70
     0
 10
0.0
 20
0.0
 30
0.0
  3
$PAPER_SPACE
  1

  0
ENDBLK
  5
1D
 67
     1
  8
0
  0
ENDSEC
  0
SECTION
  2
ENTITIES
  0
ATTDEF
  5
3930
  8
DEFPOINTS
 10
554.27640975567397
 20
76.927284871592406
 30
0.0
 40
0.001
  1
K-1946
  3

  2
MODELNUMBER
 70
     0
1001
ACDBATTR
1070
     0
1070
     1
  0
ATTDEF
  5
3931
  8
DEFPOINTS
 10
554.27640975567397
 20
76.92561820492574
 30
0.0
 40
0.001
  1
ARCHER
  3

  2
TRADENAME
 70
     0
1001
ACDBATTR
1070
     0
1070
     1
  0
ATTDEF
  5
3932
  8
DEFPOINTS
 10
554.27640975567397
 20
76.923951538259075
 30
0.0
 40
0.001
  1
BATH
  3

  2
PRODUCT
 70
     0
1001
ACDBATTR
1070
     0
1070
     1
  0
ATTDEF
  5
3933
  8
DEFPOINTS
 10
554.27640975567397
 20
76.92228487159241
 30
0.0
 40
0.001
  1
ACRYLIC
  3

  2
MATERIAL
 70
     0
1001
ACDBATTR
1070
     0
1070
     1
  0
LINE
  5
42A3
  8
0
 10
524.28144889872056
 20
76.929122518951345
 30
0.0
 11
524.34764432572035
 21
78.192206508051342
 31
0.0
  0
LINE
  5
42A4
  8
0
 10
527.52404107842051
 20
76.929122518951345
 30
0.0
 11
528.69987341201386
 21
63.48929744766977
 31
0.0
  0
LINE
  5
42A5
  8
0
 10
533.46716389242044
 20
60.221300744151343
 30
0.0
 11
533.70224579662045
 21
59.986218839951341
 31
0.0
  0
LINE
  5
42A6
  8
0
 10
535.53144889882049
 20
59.673684810451341
 30
0.0
 11
535.53144890972044
 21
59.823455789351343
 31
0.0
  0
LINE
  5
42A7
  8
0
 10
543.28144887862038
 20
59.678968845051337
 30
0.0
 11
543.28144889882049
 21
59.986673069151337
 31
0.0
  0
LINE
  5
42A8
  8
0
 10
544.65644889882037
 20
59.997884503451353
 30
0.0
 11
544.65644889882037
 21
59.67217684445135
 31
0.0
  0
LINE
  5
42A9
  8
0
 10
570.73986283122053
 20
61.378719230351351
 30
0.0
 11
571.23252438982036
 21
61.395923351051337
 31
0.0
  0
LINE
  5
42AA
  8
0
 10
535.78044888402053
 20
59.429138802170407
 30
0.0
 11
565.90644890082058
 21
59.429138802170407
 31
0.0
  0
LINE
  5
42AB
  8
0
 10
534.19014947562039
 20
59.784122518951342
 30
0.0
 11
535.53144890685792
 21
59.78412242133453
 31
0.0
  0
LINE
  5
42AC
  8
0
 10
568.04033147722055
 20
60.179122518951338
 30
0.0
 11
570.02256632032038
 21
60.179122518951338
 31
0.0
  0
LINE
  5
42AD
  8
0
 10
533.46716389242044
 20
60.221300744151343
 30
0.0
 11
535.33315467322052
 21
60.221300744151343
 31
0.0
  0
LINE
  5
42AE
  8
0
 10
564.78144889882037
 20
60.554122518951338
 30
0.0
 11
563.78144889882049
 21
60.554122518951338
 31
0.0
  0
LINE
  5
42AF
  8
0
 10
533.46716389242044
 20
60.221300744151343
 30
0.0
 11
531.81498088742035
 21
60.27899624595134
 31
0.0
  0
LINE
  5
42B0
  8
0
 10
528.45139969022046
 20
63.482683105751342
 30
0.0
 11
574.61948216362055
 21
64.711672155351337
 31
0.0
  0
LINE
  5
42B1
  8
0
 10
554.15644887482051
 20
59.679015011551343
 30
0.0
 11
554.15644888002055
 21
60.338577663751337
 31
0.0
  0
LINE
  5
42B2
  8
0
 10
555.65644891392037
 20
60.355538865951353
 30
0.0
 11
555.65644889882049
 21
59.669341265951338
 31
0.0
  0
LINE
  5
42B3
  8
0
 10
563.53144889882037
 20
60.804122518951338
 30
0.0
 11
563.53144889882037
 21
60.896369236051342
 31
0.0
  0
LINE
  5
42B4
  8
0
 10
565.03144889882049
 20
60.964359951651339
 30
0.0
 11
565.03144889882049
 21
60.804122518951338
 31
0.0
  0
LINE
  5
42B5
  8
0
 10
524.28144889872056
 20
76.929122518951345
 30
0.0
 11
584.28144889882049
 21
76.929122518951345
 31
0.0
  0
LINE
  5
42B6
  8
0
 10
566.15644889882037
 20
59.679122507851339
 30
0.0
 11
566.15644889882037
 21
60.75023443865134
 31
0.0
  0
LINE
  5
42B7
  8
0
 10
583.96559608822054
 20
78.429122518951345
 30
0.0
 11
524.59730170942055
 21
78.429122518951345
 31
0.0
  0
LINE
  5
42B8
  8
0
 10
567.79048377042045
 20
60.437847393151337
 30
0.0
 11
567.80110945952049
 21
60.74212731655134
 31
0.0
  0
LINE
  5
42B9
  8
0
 10
570.25753217635383
 20
60.862685583978248
 30
0.0
 11
570.27241402712048
 21
60.437847393151337
 31
0.0
  0
LINE
  5
42BA
  8
0
 10
574.61948216362055
 20
64.711672155351337
 30
0.0
 11
574.58042707632057
 21
64.436903211251348
 31
0.0
  0
LINE
  5
42BB
  8
0
 10
584.21525347182035
 20
78.192206508051342
 30
0.0
 11
584.28144889882049
 21
76.929122518951345
 31
0.0
  0
ARC
  5
42BC
  8
0
 10
534.19014947562039
 20
60.474122518951347
 30
0.0
 40
0.69
 50
225.00000000010081
 51
270.0
  0
ARC
  5
42BD
  8
0
 10
542.03175792022057
 20
60.469727255651343
 30
0.0
 40
0.5008769989000002
 50
242.0490308483009
 51
269.91257835420208
  0
ARC
  5
42BE
  8
0
 10
555.09296539262039
 20
85.465744345851334
 30
0.0
 40
26.25
 50
325.2652473335994
 51
341.02202643936789
  0
ARC
  5
42BF
  8
0
 10
524.59730170942055
 20
78.179122518951345
 30
0.0
 40
0.25
 50
90.0
 51
176.99999999999969
  0
ARC
  5
42C0
  8
0
 10
587.96490916082053
 20
62.674620790751341
 30
0.0
 40
13.75
 50
145.2652473335994
 51
171.51051690540029
  0
ARC
  5
42C1
  8
0
 10
567.29480637501615
 20
60.756953887519309
 30
0.0
 40
0.506520128509531
 50
358.32263072861889
 51
91.237035679678485
  0
ARC
  5
42C2
  8
0
 10
570.79332582858501
 20
60.845316734465356
 30
0.0
 40
0.5360751017391121
 50
95.723647327945017
 51
178.14329006329851
  0
ARC
  5
42C3
  8
0
 10
564.78144889882037
 20
60.804122518951338
 30
0.0
 40
0.25
 50
270.0
 51
359.99999999719989
  0
ARC
  5
42C4
  8
0
 10
563.78144889882049
 20
60.804122518951338
 30
0.0
 40
0.25
 50
180.0000000112997
 51
270.0
  0
ARC
  5
42C5
  8
0
 10
570.02256632032038
 20
60.429122518951353
 30
0.0
 40
0.25
 50
269.99999999949841
 51
2.0000000010000489
  0
ARC
  5
42C6
  8
0
 10
568.04033147722055
 20
60.429122518951353
 30
0.0
 40
0.25
 50
177.9999999989999
 51
270.00000000049829
  0
ARC
  5
42C7
  8
0
 10
583.96559608822054
 20
78.179122518951345
 30
0.0
 40
0.25
 50
3.0000000000003091
 51
90.0
  0
ARC
  5
42C8
  8
0
 10
532.73214929826702
 20
64.609511371627974
 30
0.0
 40
4.4265741999393651
 50
194.74750846662019
 51
258.04191966271259
  0
ARC
  5
42C9
  8
0
 10
535.78193626125096
 20
59.679693815261743
 30
0.0
 40
0.2505594278334317
 50
181.37421939994309
 51
269.659877342833
  0
ARC
  5
42CA
  8
0
 10
535.03104353286346
 20
59.82238276827875
 30
0.0
 40
0.5004065272970824
 50
0.1228593604365059
 51
52.862389459735603
  0
ARC
  5
42CB
  8
0
 10
565.89704998201205
 20
59.68853833207038
 30
0.0
 40
0.2595697512945045
 50
272.07511131382279
 51
357.92115463999778
  0
ARC
  5
42CC
  8
0
 10
570.29639289845954
 20
65.789928968758176
 30
0.0
 40
4.4926192290863849
 50
282.02690483411908
 51
342.4723294266484
  0
ARC
  5
42CD
  8
0
 10
566.67256663129365
 20
60.743620508995591
 30
0.0
 40
0.5161601087246491
 50
106.67474029161779
 51
179.2658079931191
  0
ARC
  5
42CE
  8
0
 10
553.90744599702236
 20
59.678126980278662
 30
0.0
 40
0.2490044613079949
 50
270.6552489110897
 51
0.2043359046205914
  0
ARC
  5
42CF
  8
0
 10
-203.0830419854986
 20
23191.331088212781
 30
0.0
 40
23142.893044721412
 50
271.82843663500228
 51
271.9161412597179
  0
ARC
  5
42D0
  8
0
 10
555.90707696058632
 20
59.679970595387289
 30
0.0
 40
0.2508533595325336
 50
182.42850287733859
 51
269.24869070954469
  0
ARC
  5
42D1
  8
0
 10
565.28155376888344
 20
60.957558558451247
 30
0.0
 40
0.2501973320774744
 50
109.05964058865629
 51
178.44227301181519
  0
ARC
  5
42D2
  8
0
 10
563.28121705642582
 20
60.889004830465019
 30
0.0
 40
0.2503401873808555
 50
1.685747085351921
 51
76.413300680683406
  0
ARC
  5
42D3
  8
0
 10
554.6675164899259
 20
60.33537643062823
 30
0.0
 40
0.5110776357735869
 50
93.156225146869986
 51
179.64111451228891
  0
ARC
  5
42D4
  8
0
 10
555.14711209524489
 20
60.352776847047487
 30
0.0
 40
0.5093443075238708
 50
0.3106990681584999
 51
90.874432843052247
  0
ARC
  5
42D5
  8
0
 10
543.03244476308521
 20
59.67812805403404
 30
0.0
 40
0.2490055350449444
 50
270.65524712746219
 51
0.193465049990444
  0
ARC
  5
42D6
  8
0
 10
544.90547092534825
 20
59.678219372079141
 30
0.0
 40
0.2490953268051079
 50
181.39001119975521
 51
269.37633051053211
  0
ARC
  5
42D7
  8
0
 10
543.79566535804952
 20
59.978662976822562
 30
0.0
 40
0.5142788431591113
 50
93.486789173409775
 51
179.10755993916999
  0
ARC
  5
42D8
  8
0
 10
544.14547557488504
 20
59.993212407347599
 30
0.0
 40
0.5109946831970114
 50
0.5238706524102457
 51
90.346179347460364
  0
ARC
  5
42D9
  8
0
 10
542.5611285369074
 20
60.677493862080397
 30
0.0
 40
1.0033393777955759
 50
194.75753267340539
 51
220.39487067854631
  0
LINE
  5
42DA
  8
0
 10
542.03099368461767
 20
59.968850839785098
 30
0.0
 11
543.03100338122044
 21
59.967521532351341
 31
0.0
  0
ARC
  5
42DB
  8
0
 10
543.01264297482646
 20
60.165359026129188
 30
0.0
 40
0.1986876404491632
 50
275.30217564367308
 51
325.26374288911649
  0
ARC
  5
42DC
  8
0
 10
544.04197038731172
 20
59.785914070596782
 30
0.0
 40
0.906046939251871
 50
129.77806978257041
 51
162.91201015367139
  0
ENDSEC
  0
EOF
