  0
SECTION
  2
HEADER
  9
$ACADVER
  1
AC1009
  9
$INSBASE
 10
681.42794124448471
 20
-89.024798328028865
 30
0.0
  9
$EXTMIN
 10
651.42794124443469
 20
-104.02479832802889
 30
0.0
  9
$EXTMAX
 10
711.42794124453474
 20
-74.024798328028879
 30
0.0
  9
$LIMMIN
 10
0.0
 20
0.0
  9
$LIMMAX
 10
11.692913385800001
 20
8.2677165353999982
  9
$ORTHOMODE
 70
     1
  9
$REGENMODE
 70
     1
  9
$FILLMODE
 70
     1
  9
$QTEXTMODE
 70
     0
  9
$MIRRTEXT
 70
     0
  9
$DRAGMODE
 70
     2
  9
$LTSCALE
 40
0.6431102362
  9
$OSMODE
 70
  3071
  9
$ATTMODE
 70
     1
  9
$TEXTSIZE
 40
0.2
  9
$TRACEWID
 40
0.05
  9
$TEXTSTYLE
  7
STANDARD
  9
$CLAYER
  8
0
  9
$CELTYPE
  6
BYLAYER
  9
$CECOLOR
 62
   256
  9
$DIMSCALE
 40
1.0
  9
$DIMASZ
 40
0.1875
  9
$DIMEXO
 40
0.0625
  9
$DIMDLI
 40
0.4443307087
  9
$DIMRND
 40
0.0
  9
$DIMDLE
 40
0.0
  9
$DIMEXE
 40
0.125
  9
$DIMTP
 40
0.01
  9
$DIMTM
 40
0.01
  9
$DIMTXT
 40
2.0
  9
$DIMCEN
 40
0.1052362205
  9
$DIMTSZ
 40
0.0
  9
$DIMTOL
 70
     1
  9
$DIMLIM
 70
     0
  9
$DIMTIH
 70
     1
  9
$DIMTOH
 70
     1
  9
$DIMSE1
 70
     0
  9
$DIMSE2
 70
     0
  9
$DIMTAD
 70
     0
  9
$DIMZIN
 70
     0
  9
$DIMBLK
  1

  9
$DIMASO
 70
     1
  9
$DIMSHO
 70
     1
  9
$DIMPOST
  1
\X
  9
$DIMAPOST
  1

  9
$DIMALT
 70
     1
  9
$DIMALTD
 70
     2
  9
$DIMALTF
 40
25.399999999999999
  9
$DIMLFAC
 40
1.0
  9
$DIMTOFL
 70
     0
  9
$DIMTVP
 40
0.0
  9
$DIMTIX
 70
     0
  9
$DIMSOXD
 70
     0
  9
$DIMSAH
 70
     0
  9
$DIMBLK1
  1

  9
$DIMBLK2
  1

  9
$DIMSTYLE
  2
STANDARD
  9
$DIMCLRD
 70
     0
  9
$DIMCLRE
 70
     0
  9
$DIMCLRT
 70
     0
  9
$DIMTFAC
 40
1.0
  9
$DIMGAP
 40
0.09
  9
$LUNITS
 70
     2
  9
$LUPREC
 70
     4
  9
$SKETCHINC
 40
0.1
  9
$FILLETRAD
 40
0.0
  9
$AUNITS
 70
     0
  9
$AUPREC
 70
     0
  9
$MENU
  1
.
  9
$ELEVATION
 40
0.0
  9
$PELEVATION
 40
0.0
  9
$THICKNESS
 40
0.0
  9
$LIMCHECK
 70
     0
  9
$BLIPMODE
 70
     0
  9
$CHAMFERA
 40
0.0
  9
$CHAMFERB
 40
0.0
  9
$SKPOLY
 70
     0
  9
$TDCREATE
 40
2458060.4683680669
  9
$TDUPDATE
 40
2458494.4722108692
  9
$TDINDWG
 40
0.249623588
  9
$TDUSRTIMER
 40
0.249623588
  9
$USRTIMER
 70
     1
  9
$ANGBASE
 50
0.0
  9
$ANGDIR
 70
     0
  9
$PDMODE
 70
     0
  9
$PDSIZE
 40
0.3125
  9
$PLINEWID
 40
0.0
  9
$COORDS
 70
     1
  9
$SPLFRAME
 70
     0
  9
$SPLINETYPE
 70
     6
  9
$SPLINESEGS
 70
     8
  9
$ATTDIA
 70
     1
  9
$ATTREQ
 70
     1
  9
$HANDLING
 70
     1
  9
$HANDSEED
  5
4434
  9
$SURFTAB1
 70
     6
  9
$SURFTAB2
 70
     6
  9
$SURFTYPE
 70
     6
  9
$SURFU
 70
     6
  9
$SURFV
 70
     6
  9
$UCSNAME
  2

  9
$UCSORG
 10
0.0
 20
0.0
 30
0.0
  9
$UCSXDIR
 10
1.0
 20
0.0
 30
0.0
  9
$UCSYDIR
 10
0.0
 20
1.0
 30
0.0
  9
$PUCSNAME
  2

  9
$PUCSORG
 10
0.0
 20
0.0
 30
0.0
  9
$PUCSXDIR
 10
1.0
 20
0.0
 30
0.0
  9
$PUCSYDIR
 10
0.0
 20
1.0
 30
0.0
  9
$USERI1
 70
     0
  9
$USERI2
 70
     0
  9
$USERI3
 70
     0
  9
$USERI4
 70
     0
  9
$USERI5
 70
     0
  9
$USERR1
 40
0.0
  9
$USERR2
 40
0.0
  9
$USERR3
 40
0.0
  9
$USERR4
 40
0.0
  9
$USERR5
 40
0.0
  9
$WORLDVIEW
 70
     1
  9
$SHADEDGE
 70
     3
  9
$SHADEDIF
 70
    70
  9
$TILEMODE
 70
     1
  9
$MAXACTVP
 70
    64
  9
$PLIMCHECK
 70
     0
  9
$PEXTMIN
 10
1.0000000000000000E+020
 20
1.0000000000000000E+020
 30
1.0000000000000000E+020
  9
$PEXTMAX
 10
-1.0000000000000000E+020
 20
-1.0000000000000000E+020
 30
-1.0000000000000000E+020
  9
$PLIMMIN
 10
0.0
 20
0.0
  9
$PLIMMAX
 10
12.0
 20
9.0
  9
$UNITMODE
 70
     0
  9
$VISRETAIN
 70
     1
  9
$PLINEGEN
 70
     0
  9
$PSLTSCALE
 70
     1
  0
ENDSEC
  0
SECTION
  2
TABLES
  0
TABLE
  2
VPORT
 70
     1
  0
VPORT
  2
*ACTIVE
 70
     0
 10
0.0
 20
0.0
 11
1.0
 21
1.0
 12
0.0
 22
0.0
 13
0.0
 23
0.0
 14
1.0
 24
1.0
 15
0.0
 25
0.0
 16
0.0
 26
0.0
 36
194.51369040156271
 17
681.42794124448471
 27
-89.024798328028893
 37
0.0
 40
67.158580424396575
 41
2.1808755760368661
 42
50.0
 43
0.0
 44
0.0
 50
0.0
 51
0.0
 71
     0
 72
   100
 73
     1
 74
     1
 75
     0
 76
     0
 77
     0
 78
     0
  0
ENDTAB
  0
TABLE
  2
LTYPE
 70
     2
  0
LTYPE
  2
CONTINUOUS
 70
     0
  3
Solid line
 72
    65
 73
     0
 40
0.0
  0
LTYPE
  2
PHANTOM2
 70
     0
  3
___ _ _ ___ _ _ ___ _ _ ___ _ _
 72
    65
 73
     6
 40
1.25
 49
0.625
 49
-0.125
 49
0.125
 49
-0.125
 49
0.125
 49
-0.125
  0
ENDTAB
  0
TABLE
  2
LAYER
 70
     2
  0
LAYER
  2
0
 70
     0
 62
   255
  6
CONTINUOUS
  0
LAYER
  2
DEFPOINTS
 70
     0
 62
     7
  6
CONTINUOUS
  0
ENDTAB
  0
TABLE
  2
STYLE
 70
     1
  0
STYLE
  2
STANDARD
 70
     0
 40
0.0
 41
0.8
 50
0.0
 71
     0
 42
0.2
  3
txt
  4

  0
ENDTAB
  0
TABLE
  2
VIEW
 70
     0
  0
ENDTAB
  0
TABLE
  2
UCS
 70
     0
  0
ENDTAB
  0
TABLE
  2
APPID
 70
     9
  0
APPID
  2
ACAD
 70
     0
  0
APPID
  2
ACAD_MLEADERVER
 70
     0
  0
APPID
  2
ACAD_EXEMPT_FROM_CAD_STANDARDS
 70
     0
  0
APPID
  2
ACAD_NAV_VCDISPLAY
 70
     0
  0
APPID
  2
ACAECLAYERSTANDARD
 70
     0
  0
APPID
  2
ACCMTRANSPARENCY
 70
     0
  0
APPID
  2
ACAD_DSTYLE_DIMJAG
 70
     0
  0
APPID
  2
ACAD_DSTYLE_DIMTALN
 70
     0
  0
APPID
  2
ACDBATTR
 70
     0
  0
ENDTAB
  0
TABLE
  2
DIMSTYLE
 70
     1
  0
DIMSTYLE
  2
STANDARD
 70
     0
  3

  4

  5

  6

  7

 40
1.0
 41
0.1875
 42
0.0625
 43
0.38
 44
0.125
 45
0.0
 46
0.0
 47
0.01
 48
0.01
140
0.15625
141
0.09
142
0.0
143
25.399999999999999
144
1.0
145
0.0
146
1.0
147
0.09
 71
     1
 72
     0
 73
     1
 74
     1
 75
     0
 76
     0
 77
     0
 78
     4
170
     0
171
     2
172
     0
173
     0
174
     0
175
     0
176
     0
177
     0
178
     0
  0
ENDTAB
  0
ENDSEC
  0
SECTION
  2
BLOCKS
  0
BLOCK
  8
0
  2
$MODEL_SPACE
 70
     0
 10
0.0
 20
0.0
 30
0.0
  3
$MODEL_SPACE
  1

  0
ENDBLK
  5
21
  8
0
  0
BLOCK
 67
     1
  8
0
  2
$PAPER_SPACE
 70
     0
 10
0.0
 20
0.0
 30
0.0
  3
$PAPER_SPACE
  1

  0
ENDBLK
  5
1D
 67
     1
  8
0
  0
ENDSEC
  0
SECTION
  2
ENTITIES
  0
ATTDEF
  5
3930
  8
DEFPOINTS
 10
681.42443552580755
 20
-89.019053136023615
 30
0.0
 40
0.001
  1
K-1946
  3

  2
MODELNUMBER
 70
     0
1001
ACDBATTR
1070
     0
1070
     1
  0
ATTDEF
  5
3931
  8
DEFPOINTS
 10
681.42443552580755
 20
-89.020719802690266
 30
0.0
 40
0.001
  1
ARCHER
  3

  2
TRADENAME
 70
     0
1001
ACDBATTR
1070
     0
1070
     1
  0
ATTDEF
  5
3932
  8
DEFPOINTS
 10
681.42443552580755
 20
-89.022386469356931
 30
0.0
 40
0.001
  1
BATH
  3

  2
PRODUCT
 70
     0
1001
ACDBATTR
1070
     0
1070
     1
  0
ATTDEF
  5
3933
  8
DEFPOINTS
 10
681.42443552580755
 20
-89.024053136023596
 30
0.0
 40
0.001
  1
ACRYLIC
  3

  2
MATERIAL
 70
     0
1001
ACDBATTR
1070
     0
1070
     1
  0
LINE
  5
4323
  8
0
 10
651.42794124443469
 20
-103.0443249465289
 30
0.0
 11
651.42794124443469
 21
-75.005271709428882
 31
0.0
  0
LINE
  5
4324
  8
0
 10
652.29688391513469
 20
-102.54876258322891
 30
0.0
 11
652.29688391513469
 21
-75.500834072728878
 31
0.0
  0
LINE
  5
4325
  8
0
 10
654.83921491643468
 20
-79.881589591528893
 30
0.0
 11
654.83921503643478
 21
-98.168007064728883
 31
0.0
  0
LINE
  5
4326
  8
0
 10
654.97793299143473
 20
-92.649798328028879
 30
0.0
 11
654.97793299143473
 21
-85.399798328028879
 31
0.0
  0
LINE
  5
4327
  8
0
 10
655.05419426633455
 20
-85.399798328028879
 30
0.0
 11
655.05419426633455
 21
-92.649798328028879
 31
0.0
  0
LINE
  5
4328
  8
0
 10
652.40841462593471
 20
-104.02479832802889
 30
0.0
 11
710.44746786303472
 21
-104.02479832802889
 31
0.0
  0
LINE
  5
4329
  8
0
 10
709.95190549973472
 20
-103.1558556574289
 30
0.0
 11
652.90397698923471
 21
-103.1558556574289
 31
0.0
  0
LINE
  5
432A
  8
0
 10
656.74716452403459
 20
-100.63885899722889
 30
0.0
 11
705.72680671363457
 21
-100.63885899722889
 31
0.0
  0
LINE
  5
432B
  8
0
 10
656.95000478443455
 20
-100.0605038909289
 30
0.0
 11
704.57438695803467
 21
-100.0605038909289
 31
0.0
  0
LINE
  5
432C
  8
0
 10
655.04329979843465
 20
-92.774798328028865
 30
0.0
 11
654.9888274592347
 21
-92.774798328028865
 31
0.0
  0
LINE
  5
432D
  8
0
 10
654.9888274592347
 20
-85.274798328028865
 30
0.0
 11
655.04329979843465
 21
-85.274798328028865
 31
0.0
  0
LINE
  5
432E
  8
0
 10
704.57438719243476
 20
-77.989092763728891
 30
0.0
 11
656.95000478443455
 21
-77.989092765028886
 31
0.0
  0
LINE
  5
432F
  8
0
 10
705.72680671883461
 20
-77.410737657828875
 30
0.0
 11
656.74716452373468
 21
-77.410737657828889
 31
0.0
  0
LINE
  5
4330
  8
0
 10
652.90397698923471
 20
-74.893740998628886
 30
0.0
 11
709.95190549973472
 21
-74.893740998628886
 31
0.0
  0
LINE
  5
4331
  8
0
 10
652.40841462593471
 20
-74.024798328028893
 30
0.0
 11
710.44746786305529
 21
-74.024798328028879
 31
0.0
  0
LINE
  5
4332
  8
0
 10
710.55899857383474
 20
-75.500834072728878
 30
0.0
 11
710.55899857383474
 21
-102.54876258322891
 31
0.0
  0
LINE
  5
4333
  8
0
 10
711.42794124453474
 20
-75.005271709428882
 30
0.0
 11
711.42794124453474
 21
-103.0443249465289
 31
0.0
  0
ARC
  5
4334
  8
0
 10
652.40841462617618
 20
-103.0443249462875
 30
0.0
 40
0.980473381741433
 50
180.0000000141064
 51
269.99999998589118
  0
ARC
  5
4335
  8
0
 10
710.44746786279325
 20
-103.0443249462874
 30
0.0
 40
0.980473381741426
 50
270.00000001410882
 51
359.99999998589198
  0
ARC
  5
4336
  8
0
 10
710.45265156485812
 20
-103.049505404069
 30
0.0
 40
0.1321085014602424
 50
267.75130249838969
 51
2.2474347184569989
  0
ARC
  5
4337
  8
0
 10
652.40323343796535
 20
-103.04950441744241
 30
0.0
 40
0.1321109754330591
 50
177.75311703701959
 51
272.247709637215
  0
ARC
  5
4338
  8
0
 10
638.22794124453458
 20
-89.024798328028865
 30
0.0
 40
68.706562701899998
 50
351.85021364480048
 51
8.1497863551995593
  0
ARC
  5
4339
  8
0
 10
652.40841462600542
 20
-75.005271709599583
 30
0.0
 40
0.980473381570718
 50
90.000000005334769
 51
179.99999999002409
  0
ARC
  5
433A
  8
0
 10
652.40323092831056
 20
-75.00009125885849
 30
0.0
 40
0.1321085061201352
 50
87.751206157688173
 51
182.24735018880301
  0
ARC
  5
433B
  8
0
 10
710.447467862964
 20
-75.005271709599555
 30
0.0
 40
0.9804733815706754
 50
0.0000000099734053
 51
89.999999994665217
  0
ARC
  5
433C
  8
0
 10
710.45265177427507
 20
-75.000091175813552
 30
0.0
 40
0.1321082951914754
 50
357.75252870784118
 51
92.248855820643016
  0
CIRCLE
  5
433D
  8
0
 10
662.67794124453474
 20
-89.024798328028865
 30
0.0
 40
1.125
  0
CIRCLE
  5
433E
  8
0
 10
662.67794124453474
 20
-89.024798328028865
 30
0.0
 40
1.7079462481000001
  0
ARC
  5
433F
  8
0
 10
652.95848986334249
 20
-69.042022452962343
 30
0.0
 40
5.851972453040192
 50
264.60633435324712
 51
269.466264953603
  0
ARC
  5
4340
  8
0
 10
646.28692362092715
 20
-75.563580218013854
 30
0.0
 40
6.0102878314352948
 50
0.5981667956526811
 51
5.3300118918632258
  0
ARC
  5
4341
  8
0
 10
646.72888453953385
 20
-102.5089008734288
 30
0.0
 40
5.5681420602028231
 50
354.48199893003277
 51
359.58982238245102
  0
ARC
  5
4342
  8
0
 10
652.95883248688301
 20
-109.0138292684978
 30
0.0
 40
5.8582304455870178
 50
90.536516011039566
 51
95.391251673649478
  0
ARC
  5
4343
  8
0
 10
709.89227149941678
 20
-109.1064925083448
 30
0.0
 40
5.9509356529434259
 50
84.646766967761707
 51
89.425832521028894
  0
ARC
  5
4344
  8
0
 10
716.41260891127195
 20
-102.49411201923451
 30
0.0
 40
5.8538654465829376
 50
180.53491016840351
 51
185.3932688912806
  0
ARC
  5
4345
  8
0
 10
709.89736265622241
 20
-69.04141161051011
 30
0.0
 40
5.8525835482133086
 50
270.53397272306722
 51
275.39339627775939
  0
ARC
  5
4346
  8
0
 10
716.47840560814257
 20
-75.558891545219694
 30
0.0
 40
5.9196917409546668
 50
174.63375923217041
 51
179.438061706952
  0
ARC
  5
4347
  8
0
 10
713.9688445815616
 20
-77.744760406663389
 30
0.0
 40
7.341469575482181
 50
182.3835081039511
 51
189.8755969150919
  0
ARC
  5
4348
  8
0
 10
705.68876705925834
 20
-78.427611954865981
 30
0.0
 40
1.0175855500523461
 50
21.777896297429081
 51
87.857654437034014
  0
ARC
  5
4349
  8
0
 10
687.63590406092817
 20
-81.172325905576088
 30
0.0
 40
32.822078225988953
 50
175.49984040440219
 51
177.74624820231301
  0
ARC
  5
434A
  8
0
 10
656.07563687865741
 20
-78.565026886337094
 30
0.0
 40
1.16106589189072
 50
88.532256553445364
 51
181.58017600719771
  0
ARC
  5
434B
  8
0
 10
656.2199746154588
 20
-98.108603280719052
 30
0.0
 40
20.704578492273448
 50
88.540949691951951
 51
90.317128706396005
  0
ARC
  5
434C
  8
0
 10
679.34723736184537
 20
-97.363286210223876
 30
0.0
 40
24.521230270043691
 50
181.88063111826091
 51
184.88742257817759
  0
ARC
  5
434D
  8
0
 10
656.90861577614714
 20
-149.04373747838511
 30
0.0
 40
48.405147735362938
 50
90.191105552359375
 51
90.950814724440846
  0
ARC
  5
434E
  8
0
 10
656.07905834398514
 20
-99.481302070395955
 30
0.0
 40
1.164250145800038
 50
178.58002017946649
 51
271.29530014161497
  0
ARC
  5
434F
  8
0
 10
713.97361164177505
 20
-100.30531231494879
 30
0.0
 40
7.3462472644732477
 50
170.12729212368021
 51
177.61527353736719
  0
ARC
  5
4350
  8
0
 10
655.47147271170707
 20
-92.669758265019254
 30
0.0
 40
0.4939431693739735
 50
177.68408252529241
 51
192.27805622256631
  0
ARC
  5
4351
  8
0
 10
654.53057296723921
 20
-92.66713648239552
 30
0.0
 40
0.5239082710103004
 50
348.14137559246382
 51
1.8964855950506729
  0
ARC
  5
4352
  8
0
 10
655.43436282968923
 20
-85.376604051720875
 30
0.0
 40
0.4570187870345289
 50
167.12877889431849
 51
182.90908235782621
  0
ARC
  5
4353
  8
0
 10
654.57083569945519
 20
-85.378951045434064
 30
0.0
 40
0.4838079302444787
 50
357.530360341201
 51
12.43177849764262
  0
ARC
  5
4354
  8
0
 10
656.94703908198687
 20
-80.097453578887439
 30
0.0
 40
2.1083628996938071
 50
89.919405577846888
 51
148.99720539652179
  0
ARC
  5
4355
  8
0
 10
656.69861145330412
 20
-80.037083516149508
 30
0.0
 40
1.865886878113403
 50
146.65624055687579
 51
175.21970488079469
  0
ARC
  5
4356
  8
0
 10
656.94703908198687
 20
-97.952143077370323
 30
0.0
 40
2.1083628996938071
 50
211.00279460347821
 51
270.08059442214659
  0
ARC
  5
4357
  8
0
 10
656.69860970390346
 20
-98.012514001029786
 30
0.0
 40
1.8658849434705229
 50
184.78027355856909
 51
213.34376688570691
  0
ARC
  5
4358
  8
0
 10
704.55617541823119
 20
-79.731712058896974
 30
0.0
 40
1.7427144564190331
 50
14.857353469887819
 51
89.401234787134243
  0
ARC
  5
4359
  8
0
 10
644.00874401037015
 20
14701.590747077949
 30
0.0
 40
14780.78118040351
 50
270.06456767325119
 51
270.20230794154202
  0
ARC
  5
435A
  8
0
 10
660.74360252415545
 20
-83.823076024792471
 30
0.0
 40
4.642685486820433
 50
90.964210735440815
 51
179.3027363019084
  0
LINE
  5
435B
  8
0
 10
656.10126081903377
 20
-83.766578038787799
 30
0.0
 11
656.08655454492703
 21
-94.279902715041089
 31
0.0
  0
ARC
  5
435C
  8
0
 10
660.75461995560624
 20
-94.200661741228416
 30
0.0
 40
4.6687379247833984
 50
180.97250936933489
 51
268.90594666057763
  0
ARC
  5
435D
  8
0
 10
644.00883466792072
 20
-14879.505887374569
 30
0.0
 40
14780.646724197601
 50
89.797690573099416
 51
89.935432088761274
  0
ARC
  5
435E
  8
0
 10
696.12867895235013
 20
-94.066924523719607
 30
0.0
 40
4.8848806352181899
 50
270.82110201703478
 51
353.89416443152339
  0
ARC
  5
435F
  8
0
 10
638.07071929381323
 20
-89.024798328028865
 30
0.0
 40
63.160478519016543
 50
354.94817525192269
 51
5.0518247480774026
  0
ARC
  5
4360
  8
0
 10
641.8742544155358
 20
-89.024798254703839
 30
0.0
 40
65.63143323119894
 50
351.21744833993228
 51
8.7825324670381431
  0
ARC
  5
4361
  8
0
 10
696.12839262252714
 20
-83.982986559059654
 30
0.0
 40
4.8851987929817318
 50
6.1091451880698777
 51
89.175582126460753
  0
ARC
  5
4362
  8
0
 10
660.61497188090141
 20
-83.668260588061514
 30
0.0
 40
1.5991419824661319
 50
89.24709170373535
 51
180.54034462579401
  0
ARC
  5
4363
  8
0
 10
677.92624689679769
 20
5293.7750007439608
 30
0.0
 40
5375.8720625725964
 50
269.81572092486232
 51
270.1958398171887
  0
ARC
  5
4364
  8
0
 10
696.3377551273104
 20
-83.860655977991357
 30
0.0
 40
1.7953694550521271
 50
4.809841998844985
 51
91.166394325861376
  0
ARC
  5
4365
  8
0
 10
638.085572219082
 20
-89.024759639624619
 30
0.0
 40
60.275987978664922
 50
354.94148480416851
 51
5.0584419920401968
  0
ARC
  5
4366
  8
0
 10
696.33565711472579
 20
-94.186533385923497
 30
0.0
 40
1.797656480589048
 50
268.90197832731451
 51
355.11931166682081
  0
ARC
  5
4367
  8
0
 10
677.95043092686865
 20
-5472.3944327205472
 30
0.0
 40
5376.4418903187188
 50
89.804438663347398
 51
90.184517267448115
  0
ARC
  5
4368
  8
0
 10
660.64204858866583
 20
-94.354360724368675
 30
0.0
 40
1.626073018600942
 50
180.41910085408639
 51
269.78636011401989
  0
ARC
  5
4369
  8
0
 10
1043.825882079884
 20
-89.020545560619254
 30
0.0
 40
384.84699203253649
 50
179.20537492981541
 51
180.79589144966261
  0
ARC
  5
436B
  8
0
 10
705.68878420750696
 20
-99.621937375699972
 30
0.0
 40
1.017632200407016
 50
272.1412808412947
 51
338.21292942015617
  0
ARC
  5
436C
  8
0
 10
704.55622724318835
 20
-98.317951234202525
 30
0.0
 40
1.742647278340447
 50
270.59707656447279
 51
345.1443273020804
  0
ENDSEC
  0
EOF
