  0
SECTION
  2
HEADER
  9
$ACADVER
  1
AC1009
  9
$INSBASE
 10
858.62258749917089
 20
88.741238659135789
 30
0.0
  9
$EXTMIN
 10
825.62258749917089
 20
71.241240402250824
 30
0.0
  9
$EXTMAX
 10
891.622587499171
 20
90.241238659135803
 30
0.0
  9
$LIMMIN
 10
0.0
 20
0.0
  9
$LIMMAX
 10
11.692913385800001
 20
8.2677165353999982
  9
$ORTHOMODE
 70
     1
  9
$REGENMODE
 70
     1
  9
$FILLMODE
 70
     1
  9
$QTEXTMODE
 70
     0
  9
$MIRRTEXT
 70
     0
  9
$DRAGMODE
 70
     2
  9
$LTSCALE
 40
0.6431102362
  9
$OSMODE
 70
  3071
  9
$ATTMODE
 70
     1
  9
$TEXTSIZE
 40
0.2
  9
$TRACEWID
 40
0.05
  9
$TEXTSTYLE
  7
STANDARD
  9
$CLAYER
  8
0
  9
$CELTYPE
  6
BYLAYER
  9
$CECOLOR
 62
   256
  9
$DIMSCALE
 40
1.0
  9
$DIMASZ
 40
0.1875
  9
$DIMEXO
 40
0.0625
  9
$DIMDLI
 40
0.4443307087
  9
$DIMRND
 40
0.0
  9
$DIMDLE
 40
0.0
  9
$DIMEXE
 40
0.125
  9
$DIMTP
 40
0.01
  9
$DIMTM
 40
0.01
  9
$DIMTXT
 40
2.0
  9
$DIMCEN
 40
0.1052362205
  9
$DIMTSZ
 40
0.0
  9
$DIMTOL
 70
     1
  9
$DIMLIM
 70
     0
  9
$DIMTIH
 70
     1
  9
$DIMTOH
 70
     1
  9
$DIMSE1
 70
     0
  9
$DIMSE2
 70
     0
  9
$DIMTAD
 70
     0
  9
$DIMZIN
 70
     0
  9
$DIMBLK
  1

  9
$DIMASO
 70
     1
  9
$DIMSHO
 70
     1
  9
$DIMPOST
  1
\X
  9
$DIMAPOST
  1

  9
$DIMALT
 70
     1
  9
$DIMALTD
 70
     2
  9
$DIMALTF
 40
25.399999999999999
  9
$DIMLFAC
 40
1.0
  9
$DIMTOFL
 70
     0
  9
$DIMTVP
 40
0.0
  9
$DIMTIX
 70
     0
  9
$DIMSOXD
 70
     0
  9
$DIMSAH
 70
     0
  9
$DIMBLK1
  1

  9
$DIMBLK2
  1

  9
$DIMSTYLE
  2
STANDARD
  9
$DIMCLRD
 70
     0
  9
$DIMCLRE
 70
     0
  9
$DIMCLRT
 70
     0
  9
$DIMTFAC
 40
1.0
  9
$DIMGAP
 40
0.09
  9
$LUNITS
 70
     2
  9
$LUPREC
 70
     4
  9
$SKETCHINC
 40
0.1
  9
$FILLETRAD
 40
0.0
  9
$AUNITS
 70
     0
  9
$AUPREC
 70
     0
  9
$MENU
  1
.
  9
$ELEVATION
 40
0.0
  9
$PELEVATION
 40
0.0
  9
$THICKNESS
 40
0.0
  9
$LIMCHECK
 70
     0
  9
$BLIPMODE
 70
     0
  9
$CHAMFERA
 40
0.0
  9
$CHAMFERB
 40
0.0
  9
$SKPOLY
 70
     0
  9
$TDCREATE
 40
2458060.4683680669
  9
$TDUPDATE
 40
2458495.658760231
  9
$TDINDWG
 40
0.2528066435
  9
$TDUSRTIMER
 40
0.2528066435
  9
$USRTIMER
 70
     1
  9
$ANGBASE
 50
0.0
  9
$ANGDIR
 70
     0
  9
$PDMODE
 70
     0
  9
$PDSIZE
 40
0.3125
  9
$PLINEWID
 40
0.0
  9
$COORDS
 70
     1
  9
$SPLFRAME
 70
     0
  9
$SPLINETYPE
 70
     6
  9
$SPLINESEGS
 70
     8
  9
$ATTDIA
 70
     1
  9
$ATTREQ
 70
     1
  9
$HANDLING
 70
     1
  9
$HANDSEED
  5
46D3
  9
$SURFTAB1
 70
     6
  9
$SURFTAB2
 70
     6
  9
$SURFTYPE
 70
     6
  9
$SURFU
 70
     6
  9
$SURFV
 70
     6
  9
$UCSNAME
  2

  9
$UCSORG
 10
0.0
 20
0.0
 30
0.0
  9
$UCSXDIR
 10
1.0
 20
0.0
 30
0.0
  9
$UCSYDIR
 10
0.0
 20
1.0
 30
0.0
  9
$PUCSNAME
  2

  9
$PUCSORG
 10
0.0
 20
0.0
 30
0.0
  9
$PUCSXDIR
 10
1.0
 20
0.0
 30
0.0
  9
$PUCSYDIR
 10
0.0
 20
1.0
 30
0.0
  9
$USERI1
 70
     0
  9
$USERI2
 70
     0
  9
$USERI3
 70
     0
  9
$USERI4
 70
     0
  9
$USERI5
 70
     0
  9
$USERR1
 40
0.0
  9
$USERR2
 40
0.0
  9
$USERR3
 40
0.0
  9
$USERR4
 40
0.0
  9
$USERR5
 40
0.0
  9
$WORLDVIEW
 70
     1
  9
$SHADEDGE
 70
     3
  9
$SHADEDIF
 70
    70
  9
$TILEMODE
 70
     1
  9
$MAXACTVP
 70
    64
  9
$PLIMCHECK
 70
     0
  9
$PEXTMIN
 10
1.0000000000000000E+020
 20
1.0000000000000000E+020
 30
1.0000000000000000E+020
  9
$PEXTMAX
 10
-1.0000000000000000E+020
 20
-1.0000000000000000E+020
 30
-1.0000000000000000E+020
  9
$PLIMMIN
 10
0.0
 20
0.0
  9
$PLIMMAX
 10
12.0
 20
9.0
  9
$UNITMODE
 70
     0
  9
$VISRETAIN
 70
     1
  9
$PLINEGEN
 70
     0
  9
$PSLTSCALE
 70
     1
  0
ENDSEC
  0
SECTION
  2
TABLES
  0
TABLE
  2
VPORT
 70
     1
  0
VPORT
  2
*ACTIVE
 70
     0
 10
0.0
 20
0.0
 11
1.0
 21
1.0
 12
0.0
 22
0.0
 13
0.0
 23
0.0
 14
1.0
 24
1.0
 15
0.0
 25
0.0
 16
0.0
 26
0.0
 36
197.90236948936081
 17
858.62258749917089
 27
80.741239530693321
 37
0.0
 40
68.689096377193323
 41
2.1638418079096038
 42
50.0
 43
0.0
 44
0.0
 50
0.0
 51
0.0
 71
     0
 72
   100
 73
     1
 74
     1
 75
     0
 76
     0
 77
     0
 78
     0
  0
ENDTAB
  0
TABLE
  2
LTYPE
 70
     2
  0
LTYPE
  2
CONTINUOUS
 70
     0
  3
Solid line
 72
    65
 73
     0
 40
0.0
  0
LTYPE
  2
PHANTOM2
 70
     0
  3
___ _ _ ___ _ _ ___ _ _ ___ _ _
 72
    65
 73
     6
 40
1.25
 49
0.625
 49
-0.125
 49
0.125
 49
-0.125
 49
0.125
 49
-0.125
  0
ENDTAB
  0
TABLE
  2
LAYER
 70
     2
  0
LAYER
  2
0
 70
     0
 62
   255
  6
CONTINUOUS
  0
LAYER
  2
DEFPOINTS
 70
     0
 62
     7
  6
CONTINUOUS
  0
ENDTAB
  0
TABLE
  2
STYLE
 70
     1
  0
STYLE
  2
STANDARD
 70
     0
 40
0.0
 41
0.8
 50
0.0
 71
     0
 42
0.2
  3
txt
  4

  0
ENDTAB
  0
TABLE
  2
VIEW
 70
     0
  0
ENDTAB
  0
TABLE
  2
UCS
 70
     0
  0
ENDTAB
  0
TABLE
  2
APPID
 70
     9
  0
APPID
  2
ACAD
 70
     0
  0
APPID
  2
ACAD_MLEADERVER
 70
     0
  0
APPID
  2
ACAD_EXEMPT_FROM_CAD_STANDARDS
 70
     0
  0
APPID
  2
ACAD_NAV_VCDISPLAY
 70
     0
  0
APPID
  2
ACAECLAYERSTANDARD
 70
     0
  0
APPID
  2
ACCMTRANSPARENCY
 70
     0
  0
APPID
  2
ACAD_DSTYLE_DIMJAG
 70
     0
  0
APPID
  2
ACAD_DSTYLE_DIMTALN
 70
     0
  0
APPID
  2
ACDBATTR
 70
     0
  0
ENDTAB
  0
TABLE
  2
DIMSTYLE
 70
     1
  0
DIMSTYLE
  2
STANDARD
 70
     0
  3

  4

  5

  6

  7

 40
1.0
 41
0.1875
 42
0.0625
 43
0.38
 44
0.125
 45
0.0
 46
0.0
 47
0.01
 48
0.01
140
0.15625
141
0.09
142
0.0
143
25.399999999999999
144
1.0
145
0.0
146
1.0
147
0.09
 71
     1
 72
     0
 73
     1
 74
     1
 75
     0
 76
     0
 77
     0
 78
     4
170
     0
171
     2
172
     0
173
     0
174
     0
175
     0
176
     0
177
     0
178
     0
  0
ENDTAB
  0
ENDSEC
  0
SECTION
  2
BLOCKS
  0
BLOCK
  8
0
  2
$MODEL_SPACE
 70
     0
 10
0.0
 20
0.0
 30
0.0
  3
$MODEL_SPACE
  1

  0
ENDBLK
  5
21
  8
0
  0
BLOCK
 67
     1
  8
0
  2
$PAPER_SPACE
 70
     0
 10
0.0
 20
0.0
 30
0.0
  3
$PAPER_SPACE
  1

  0
ENDBLK
  5
1D
 67
     1
  8
0
  0
ENDSEC
  0
SECTION
  2
ENTITIES
  0
ATTDEF
  5
3930
  8
DEFPOINTS
 10
858.61728968806744
 20
88.739345292081936
 30
0.0
 40
0.001
  1
K-1948
  3

  2
MODELNUMBER
 70
     0
1001
ACDBATTR
1070
     0
1070
     1
  0
ATTDEF
  5
3931
  8
DEFPOINTS
 10
858.61728968806744
 20
88.737678625415271
 30
0.0
 40
0.001
  1
ARCHER
  3

  2
TRADENAME
 70
     0
1001
ACDBATTR
1070
     0
1070
     1
  0
ATTDEF
  5
3932
  8
DEFPOINTS
 10
858.61728968806744
 20
88.736011958748605
 30
0.0
 40
0.001
  1
BATH
  3

  2
PRODUCT
 70
     0
1001
ACDBATTR
1070
     0
1070
     1
  0
ATTDEF
  5
3933
  8
DEFPOINTS
 10
858.61728968806744
 20
88.734345292081954
 30
0.0
 40
0.001
  1
ACRYLIC
  3

  2
MATERIAL
 70
     0
1001
ACDBATTR
1070
     0
1070
     1
  0
LINE
  5
45CD
  8
0
 10
825.62258749917089
 20
88.741238659135789
 30
0.0
 11
825.68878292607076
 21
90.004322648235785
 31
0.0
  0
LINE
  5
45CE
  8
0
 10
829.1151796788597
 20
88.741238659135789
 30
0.0
 11
830.309861478735
 21
75.085963201639188
 31
0.0
  0
LINE
  5
45CF
  8
0
 10
835.04338439707089
 20
71.593334980135793
 30
0.0
 11
834.80830249287078
 21
71.828416884335795
 31
0.0
  0
LINE
  5
45D0
  8
0
 10
847.62258749917078
 20
71.4855990029358
 30
0.0
 11
847.62258748367094
 21
71.685428570235786
 31
0.0
  0
LINE
  5
45D1
  8
0
 10
848.99758749917078
 20
71.485137151335792
 30
0.0
 11
848.99758751247089
 21
71.697450835235784
 31
0.0
  0
LINE
  5
45D2
  8
0
 10
837.12158734613502
 20
71.241240402250824
 30
0.0
 11
865.498587544271
 21
71.241240402250824
 31
0.0
  0
LINE
  5
45D3
  8
0
 10
866.24658751367053
 20
71.241240402250824
 30
0.0
 11
873.12358750017097
 21
71.241240402250824
 31
0.0
  0
LINE
  5
45D4
  8
0
 10
835.53128807607095
 20
71.391238659135794
 30
0.0
 11
836.89320531524072
 21
71.391238659135794
 31
0.0
  0
LINE
  5
45D5
  8
0
 10
836.67801357167093
 20
71.828416884335795
 30
0.0
 11
834.80830249287078
 21
71.828416884335795
 31
0.0
  0
LINE
  5
45D6
  8
0
 10
872.12258749917089
 20
71.991238659135803
 30
0.0
 11
871.12258749917089
 21
71.991238659135803
 31
0.0
  0
LINE
  5
45D7
  8
0
 10
847.37606748647079
 20
71.991238659135803
 30
0.0
 11
846.35776846650015
 21
71.991238659135803
 31
0.0
  0
LINE
  5
45D8
  8
0
 10
875.38147007767088
 20
71.991238659135803
 30
0.0
 11
877.36370492077083
 21
71.991238659135803
 31
0.0
  0
LINE
  5
45D9
  8
0
 10
834.80830249287078
 20
71.828416884335795
 30
0.0
 11
833.42487574707081
 21
71.876727210835796
 31
0.0
  0
LINE
  5
45DA
  8
0
 10
830.0615162815709
 20
75.079016001035797
 30
0.0
 11
881.45778964437079
 21
76.516773708435792
 31
0.0
  0
LINE
  5
45DB
  8
0
 10
864.49758749917089
 20
71.481189353835774
 30
0.0
 11
864.49758748372119
 21
72.254059451786389
 31
0.0
  0
LINE
  5
45DC
  8
0
 10
865.74758749917089
 20
71.480973606835775
 30
0.0
 11
865.74758749917089
 21
72.524214303835805
 31
0.0
  0
LINE
  5
45DD
  8
0
 10
832.82226409747091
 20
84.158619124235784
 30
0.0
 11
879.9493963391709
 21
84.158641882735779
 31
0.0
  0
LINE
  5
45DE
  8
0
 10
865.99758750967089
 20
72.270377856335784
 30
0.0
 11
865.99758749917078
 21
71.480655805235784
 31
0.0
  0
LINE
  5
45DF
  8
0
 10
825.62258749917089
 20
88.741238659135789
 30
0.0
 11
891.622587499171
 21
88.741238659135789
 31
0.0
  0
LINE
  5
45E0
  8
0
 10
891.30673468857094
 20
90.241238659135803
 30
0.0
 11
825.93844030977084
 21
90.241238659135803
 31
0.0
  0
LINE
  5
45E1
  8
0
 10
870.87258749917078
 20
72.241238659135803
 30
0.0
 11
870.87259773580206
 21
72.702227219529007
 31
0.0
  0
LINE
  5
45E2
  8
0
 10
872.37258245145222
 20
72.771114431312654
 30
0.0
 11
872.37258749917089
 21
72.241238659135803
 31
0.0
  0
LINE
  5
45E3
  8
0
 10
873.37258749917089
 20
71.479273917035783
 30
0.0
 11
873.37258748657075
 21
72.559435043135792
 31
0.0
  0
LINE
  5
45E4
  8
0
 10
877.59859688400707
 20
72.678239992871084
 30
0.0
 11
877.61355262747088
 21
72.249963533335801
 31
0.0
  0
LINE
  5
45E5
  8
0
 10
875.1316223708709
 20
72.249963533335801
 30
0.0
 11
875.14239939747085
 21
72.558577195535804
 31
0.0
  0
LINE
  5
45E6
  8
0
 10
881.45778964437079
 20
76.516773708435792
 30
0.0
 11
881.41781401967091
 21
76.235952583135798
 31
0.0
  0
LINE
  5
45E7
  8
0
 10
891.55639207227091
 20
90.004322648235785
 30
0.0
 11
891.622587499171
 21
88.741238659135789
 31
0.0
  0
ARC
  5
45E8
  8
0
 10
835.53128807607095
 20
72.081238659135792
 30
0.0
 40
0.69
 50
225.00000000010081
 51
270.0
  0
ARC
  5
45E9
  8
0
 10
825.93844030977084
 20
89.991238659135789
 30
0.0
 40
0.25
 50
90.0
 51
177.0000000000002
  0
ARC
  5
45EA
  8
0
 10
865.99658440898065
 20
72.524218528330465
 30
0.0
 40
0.2489969098455307
 50
143.5073472313519
 51
180.0009720832073
  0
ARC
  5
45EB
  8
0
 10
874.63357293138529
 20
72.572420080747207
 30
0.0
 40
0.5090147326553733
 50
358.44162330249873
 51
90.953652477995064
  0
ARC
  5
45EC
  8
0
 10
870.62256419057098
 20
72.702198331435795
 30
0.0
 40
0.2500335469
 50
0.0066197749998156
 51
82.904446768051983
  0
ARC
  5
45ED
  8
0
 10
872.62260354317095
 20
72.771097383235798
 30
0.0
 40
0.2500210923
 50
104.4232599016493
 51
179.99609319819999
  0
ARC
  5
45EE
  8
0
 10
875.38147007767088
 20
72.241238659135803
 30
0.0
 40
0.25
 50
177.9999999989999
 51
270.00000000050159
  0
ARC
  5
45EF
  8
0
 10
877.36370492077083
 20
72.241238659135803
 30
0.0
 40
0.25
 50
269.99999999949841
 51
2.0000000010000489
  0
ARC
  5
45F0
  8
0
 10
872.12258749917089
 20
72.241238659135803
 30
0.0
 40
0.25
 50
270.0
 51
0.0
  0
ARC
  5
45F1
  8
0
 10
871.12258749917089
 20
72.241238659135803
 30
0.0
 40
0.25
 50
180.0
 51
270.0
  0
ARC
  5
45F2
  8
0
 10
894.80229610277081
 20
74.473670152335785
 30
0.0
 40
13.75
 50
145.2652473335994
 51
171.48474352520211
  0
ARC
  5
45F3
  8
0
 10
861.93035233467106
 20
97.264793707435786
 30
0.0
 40
26.25
 50
325.2652473335994
 51
341.05218391987569
  0
ARC
  5
45F4
  8
0
 10
891.30673468857094
 20
89.991238659135789
 30
0.0
 40
0.25
 50
2.9999999999997309
 51
90.0
  0
ARC
  5
45F5
  8
0
 10
834.34623116472665
 20
76.211835806459874
 30
0.0
 40
4.4319366355462826
 50
194.8093655388075
 51
258.0012690936988
  0
ARC
  5
45F6
  8
0
 10
836.37335631386406
 20
71.4298555546562
 30
0.0
 40
0.501664407996373
 50
4.6648267824026508
 51
52.605978101971637
  0
ARC
  5
45F7
  8
0
 10
837.12189927170289
 20
71.49057779974936
 30
0.0
 40
0.249337592610705
 50
184.58315805653709
 51
269.92832198696988
  0
ARC
  5
45F8
  8
0
 10
865.49838778572689
 20
71.490626937722013
 30
0.0
 40
0.2493866154744389
 50
270.04589389329328
 51
357.78162380440631
  0
ARC
  5
45F9
  8
0
 10
877.13696962347603
 20
77.583395200702995
 30
0.0
 40
4.4878982109746151
 50
282.10468075749628
 51
342.52803410576291
  0
ARC
  5
45FA
  8
0
 10
25693.749368275821
 20
-752180.55584216013
 30
0.0
 40
752662.95486077294
 50
91.889412716943227
 51
91.892565975980688
  0
ARC
  5
45FB
  8
0
 10
864.24861496410392
 20
71.490382574618565
 30
0.0
 40
0.2491422054290558
 50
270.02951712983202
 51
357.88533478629842
  0
ARC
  5
45FC
  8
0
 10
865.01660777611824
 20
72.245297934832394
 30
0.0
 40
0.5190942381680012
 50
94.097346306234797
 51
179.03288893454479
  0
ARC
  5
45FD
  8
0
 10
865.48132517590227
 20
72.26327829963796
 30
0.0
 40
0.5163111474424663
 50
0.7878726944957313
 51
90.133795544018426
  0
ARC
  5
45FE
  8
0
 10
849.24660158803079
 20
71.490307793638664
 30
0.0
 40
0.2490677658642425
 50
181.1895447985321
 51
269.90064467456187
  0
ARC
  5
45FF
  8
0
 10
847.37357630772726
 20
71.490295461278095
 30
0.0
 40
0.2490554761194735
 50
270.10485899240098
 51
358.91950502014743
  0
ARC
  5
4600
  8
0
 10
848.16168424715056
 20
71.669506008407396
 30
0.0
 40
0.5393318536574026
 50
95.933096833125674
 51
178.3082249588997
  0
ARC
  5
4601
  8
0
 10
848.4608262865039
 20
71.681718034978303
 30
0.0
 40
0.5369917454723914
 50
1.678893710910889
 51
87.855745695751509
  0
ARC
  5
4602
  8
0
 10
845.99041249882748
 20
71.868200132512186
 30
0.0
 40
0.2679968955784444
 50
46.453334217609729
 51
89.322774832796711
  0
ARC
  5
4603
  8
0
 10
846.36527405943389
 20
72.280530516912634
 30
0.0
 40
0.2893892066080906
 50
228.9028637821695
 51
268.51381110506878
  0
ARC
  5
4604
  8
0
 10
847.37969452343168
 20
72.241168181597715
 30
0.0
 40
0.2499558392899893
 50
269.1685683191792
 51
322.5176767720971
  0
ARC
  5
4605
  8
0
 10
847.83020791902925
 20
71.859386158953271
 30
0.0
 40
0.3410850925453309
 50
100.4671737826813
 51
137.67155870608559
  0
ARC
  5
4606
  8
0
 10
866.24683069401567
 20
71.490685184702144
 30
0.0
 40
0.2494449009879171
 50
182.30430067389199
 51
269.94414313716868
  0
ARC
  5
4607
  8
0
 10
873.12326469846187
 20
71.490830694232756
 30
0.0
 40
0.2495905007258321
 50
270.07410210184167
 51
357.34608732840633
  0
ARC
  5
4608
  8
0
 10
873.8725187941692
 20
72.559453303878684
 30
0.0
 40
0.4999313079319742
 50
98.295263964009536
 51
180.0020928145162
  0
ARC
  5
4609
  8
0
 10
878.11462653447165
 20
72.680541782703557
 30
0.0
 40
0.5160347840939931
 50
94.061761783795262
 51
180.25557052378161
  0
LINE
  5
460B
  8
0
 10
829.51610494631143
 20
84.158641882742685
 30
0.0
 11
884.67439077000824
 21
84.158641882742685
 31
0.0
  0
ENDSEC
  0
EOF
