  0
SECTION
  2
HEADER
  9
$ACADVER
  1
AC1009
  9
$INSBASE
 10
914.53840955163605
 20
-65.75290393675516
 30
0.0
  9
$EXTMIN
 10
881.53840955163594
 20
-81.752903936755189
 30
0.0
  9
$EXTMAX
 10
947.53840955163605
 20
-49.75290393675516
 30
0.0
  9
$LIMMIN
 10
0.0
 20
0.0
  9
$LIMMAX
 10
11.692913385800001
 20
8.2677165353999982
  9
$ORTHOMODE
 70
     1
  9
$REGENMODE
 70
     1
  9
$FILLMODE
 70
     1
  9
$QTEXTMODE
 70
     0
  9
$MIRRTEXT
 70
     0
  9
$DRAGMODE
 70
     2
  9
$LTSCALE
 40
0.6431102362
  9
$OSMODE
 70
  3071
  9
$ATTMODE
 70
     1
  9
$TEXTSIZE
 40
0.2
  9
$TRACEWID
 40
0.05
  9
$TEXTSTYLE
  7
STANDARD
  9
$CLAYER
  8
0
  9
$CELTYPE
  6
BYLAYER
  9
$CECOLOR
 62
   256
  9
$DIMSCALE
 40
1.0
  9
$DIMASZ
 40
0.1875
  9
$DIMEXO
 40
0.0625
  9
$DIMDLI
 40
0.4443307087
  9
$DIMRND
 40
0.0
  9
$DIMDLE
 40
0.0
  9
$DIMEXE
 40
0.125
  9
$DIMTP
 40
0.01
  9
$DIMTM
 40
0.01
  9
$DIMTXT
 40
2.0
  9
$DIMCEN
 40
0.1052362205
  9
$DIMTSZ
 40
0.0
  9
$DIMTOL
 70
     1
  9
$DIMLIM
 70
     0
  9
$DIMTIH
 70
     1
  9
$DIMTOH
 70
     1
  9
$DIMSE1
 70
     0
  9
$DIMSE2
 70
     0
  9
$DIMTAD
 70
     0
  9
$DIMZIN
 70
     0
  9
$DIMBLK
  1

  9
$DIMASO
 70
     1
  9
$DIMSHO
 70
     1
  9
$DIMPOST
  1
\X
  9
$DIMAPOST
  1

  9
$DIMALT
 70
     1
  9
$DIMALTD
 70
     2
  9
$DIMALTF
 40
25.399999999999999
  9
$DIMLFAC
 40
1.0
  9
$DIMTOFL
 70
     0
  9
$DIMTVP
 40
0.0
  9
$DIMTIX
 70
     0
  9
$DIMSOXD
 70
     0
  9
$DIMSAH
 70
     0
  9
$DIMBLK1
  1

  9
$DIMBLK2
  1

  9
$DIMSTYLE
  2
STANDARD
  9
$DIMCLRD
 70
     0
  9
$DIMCLRE
 70
     0
  9
$DIMCLRT
 70
     0
  9
$DIMTFAC
 40
1.0
  9
$DIMGAP
 40
0.09
  9
$LUNITS
 70
     2
  9
$LUPREC
 70
     4
  9
$SKETCHINC
 40
0.1
  9
$FILLETRAD
 40
0.0
  9
$AUNITS
 70
     0
  9
$AUPREC
 70
     0
  9
$MENU
  1
.
  9
$ELEVATION
 40
0.0
  9
$PELEVATION
 40
0.0
  9
$THICKNESS
 40
0.0
  9
$LIMCHECK
 70
     0
  9
$BLIPMODE
 70
     0
  9
$CHAMFERA
 40
0.0
  9
$CHAMFERB
 40
0.0
  9
$SKPOLY
 70
     0
  9
$TDCREATE
 40
2458060.4683680669
  9
$TDUPDATE
 40
2458495.658896354
  9
$TDINDWG
 40
0.2539539468
  9
$TDUSRTIMER
 40
0.2539539468
  9
$USRTIMER
 70
     1
  9
$ANGBASE
 50
0.0
  9
$ANGDIR
 70
     0
  9
$PDMODE
 70
     0
  9
$PDSIZE
 40
0.3125
  9
$PLINEWID
 40
0.0
  9
$COORDS
 70
     1
  9
$SPLFRAME
 70
     0
  9
$SPLINETYPE
 70
     6
  9
$SPLINESEGS
 70
     8
  9
$ATTDIA
 70
     1
  9
$ATTREQ
 70
     1
  9
$HANDLING
 70
     1
  9
$HANDSEED
  5
477C
  9
$SURFTAB1
 70
     6
  9
$SURFTAB2
 70
     6
  9
$SURFTYPE
 70
     6
  9
$SURFU
 70
     6
  9
$SURFV
 70
     6
  9
$UCSNAME
  2

  9
$UCSORG
 10
0.0
 20
0.0
 30
0.0
  9
$UCSXDIR
 10
1.0
 20
0.0
 30
0.0
  9
$UCSYDIR
 10
0.0
 20
1.0
 30
0.0
  9
$PUCSNAME
  2

  9
$PUCSORG
 10
0.0
 20
0.0
 30
0.0
  9
$PUCSXDIR
 10
1.0
 20
0.0
 30
0.0
  9
$PUCSYDIR
 10
0.0
 20
1.0
 30
0.0
  9
$USERI1
 70
     0
  9
$USERI2
 70
     0
  9
$USERI3
 70
     0
  9
$USERI4
 70
     0
  9
$USERI5
 70
     0
  9
$USERR1
 40
0.0
  9
$USERR2
 40
0.0
  9
$USERR3
 40
0.0
  9
$USERR4
 40
0.0
  9
$USERR5
 40
0.0
  9
$WORLDVIEW
 70
     1
  9
$SHADEDGE
 70
     3
  9
$SHADEDIF
 70
    70
  9
$TILEMODE
 70
     1
  9
$MAXACTVP
 70
    64
  9
$PLIMCHECK
 70
     0
  9
$PEXTMIN
 10
1.0000000000000000E+020
 20
1.0000000000000000E+020
 30
1.0000000000000000E+020
  9
$PEXTMAX
 10
-1.0000000000000000E+020
 20
-1.0000000000000000E+020
 30
-1.0000000000000000E+020
  9
$PLIMMIN
 10
0.0
 20
0.0
  9
$PLIMMAX
 10
12.0
 20
9.0
  9
$UNITMODE
 70
     0
  9
$VISRETAIN
 70
     1
  9
$PLINEGEN
 70
     0
  9
$PSLTSCALE
 70
     1
  0
ENDSEC
  0
SECTION
  2
TABLES
  0
TABLE
  2
VPORT
 70
     1
  0
VPORT
  2
*ACTIVE
 70
     0
 10
0.0
 20
0.0
 11
1.0
 21
1.0
 12
0.0
 22
0.0
 13
0.0
 23
0.0
 14
1.0
 24
1.0
 15
0.0
 25
0.0
 16
0.0
 26
0.0
 36
211.3533796500754
 17
914.53840955163605
 27
-65.752903936755175
 37
0.0
 40
73.367946994667562
 41
2.1638418079096038
 42
50.0
 43
0.0
 44
0.0
 50
0.0
 51
0.0
 71
     0
 72
   100
 73
     1
 74
     1
 75
     0
 76
     0
 77
     0
 78
     0
  0
ENDTAB
  0
TABLE
  2
LTYPE
 70
     2
  0
LTYPE
  2
CONTINUOUS
 70
     0
  3
Solid line
 72
    65
 73
     0
 40
0.0
  0
LTYPE
  2
PHANTOM2
 70
     0
  3
___ _ _ ___ _ _ ___ _ _ ___ _ _
 72
    65
 73
     6
 40
1.25
 49
0.625
 49
-0.125
 49
0.125
 49
-0.125
 49
0.125
 49
-0.125
  0
ENDTAB
  0
TABLE
  2
LAYER
 70
     2
  0
LAYER
  2
0
 70
     0
 62
   255
  6
CONTINUOUS
  0
LAYER
  2
DEFPOINTS
 70
     0
 62
     7
  6
CONTINUOUS
  0
ENDTAB
  0
TABLE
  2
STYLE
 70
     1
  0
STYLE
  2
STANDARD
 70
     0
 40
0.0
 41
0.8
 50
0.0
 71
     0
 42
0.2
  3
txt
  4

  0
ENDTAB
  0
TABLE
  2
VIEW
 70
     0
  0
ENDTAB
  0
TABLE
  2
UCS
 70
     0
  0
ENDTAB
  0
TABLE
  2
APPID
 70
     9
  0
APPID
  2
ACAD
 70
     0
  0
APPID
  2
ACAD_MLEADERVER
 70
     0
  0
APPID
  2
ACAD_EXEMPT_FROM_CAD_STANDARDS
 70
     0
  0
APPID
  2
ACAD_NAV_VCDISPLAY
 70
     0
  0
APPID
  2
ACAECLAYERSTANDARD
 70
     0
  0
APPID
  2
ACCMTRANSPARENCY
 70
     0
  0
APPID
  2
ACAD_DSTYLE_DIMJAG
 70
     0
  0
APPID
  2
ACAD_DSTYLE_DIMTALN
 70
     0
  0
APPID
  2
ACDBATTR
 70
     0
  0
ENDTAB
  0
TABLE
  2
DIMSTYLE
 70
     1
  0
DIMSTYLE
  2
STANDARD
 70
     0
  3

  4

  5

  6

  7

 40
1.0
 41
0.1875
 42
0.0625
 43
0.38
 44
0.125
 45
0.0
 46
0.0
 47
0.01
 48
0.01
140
0.15625
141
0.09
142
0.0
143
25.399999999999999
144
1.0
145
0.0
146
1.0
147
0.09
 71
     1
 72
     0
 73
     1
 74
     1
 75
     0
 76
     0
 77
     0
 78
     4
170
     0
171
     2
172
     0
173
     0
174
     0
175
     0
176
     0
177
     0
178
     0
  0
ENDTAB
  0
ENDSEC
  0
SECTION
  2
BLOCKS
  0
BLOCK
  8
0
  2
$MODEL_SPACE
 70
     0
 10
0.0
 20
0.0
 30
0.0
  3
$MODEL_SPACE
  1

  0
ENDBLK
  5
21
  8
0
  0
BLOCK
 67
     1
  8
0
  2
$PAPER_SPACE
 70
     0
 10
0.0
 20
0.0
 30
0.0
  3
$PAPER_SPACE
  1

  0
ENDBLK
  5
1D
 67
     1
  8
0
  0
ENDSEC
  0
SECTION
  2
ENTITIES
  0
ATTDEF
  5
3930
  8
DEFPOINTS
 10
914.53504823537594
 20
-65.747447141254
 30
0.0
 40
0.001
  1
K-1948
  3

  2
MODELNUMBER
 70
     0
1001
ACDBATTR
1070
     0
1070
     1
  0
ATTDEF
  5
3931
  8
DEFPOINTS
 10
914.53504823537594
 20
-65.749113807920665
 30
0.0
 40
0.001
  1
ARCHER
  3

  2
TRADENAME
 70
     0
1001
ACDBATTR
1070
     0
1070
     1
  0
ATTDEF
  5
3932
  8
DEFPOINTS
 10
914.53504823537594
 20
-65.75078047458733
 30
0.0
 40
0.001
  1
BATH
  3

  2
PRODUCT
 70
     0
1001
ACDBATTR
1070
     0
1070
     1
  0
ATTDEF
  5
3933
  8
DEFPOINTS
 10
914.53504823537594
 20
-65.752447141253995
 30
0.0
 40
0.001
  1
ACRYLIC
  3

  2
MATERIAL
 70
     0
1001
ACDBATTR
1070
     0
1070
     1
  0
LINE
  5
461B
  8
0
 10
881.53840955163594
 20
-50.733377318151902
 30
0.0
 11
881.53840955163594
 21
-80.77243055525517
 31
0.0
  0
LINE
  5
461C
  8
0
 10
882.40735222223589
 20
-80.276868191955174
 30
0.0
 11
882.40735222223589
 21
-51.228939681455167
 31
0.0
  0
LINE
  5
461D
  8
0
 10
885.20083477383605
 20
-55.65771856825517
 30
0.0
 11
885.20083477383605
 21
-75.848089305255172
 31
0.0
  0
LINE
  5
461E
  8
0
 10
882.51888293313596
 20
-81.752903936755146
 30
0.0
 11
946.55793617016525
 21
-81.752903936755146
 31
0.0
  0
LINE
  5
461F
  8
0
 10
946.06237380693619
 20
-80.883961266155168
 30
0.0
 11
883.01444529643595
 21
-80.883961266155168
 31
0.0
  0
LINE
  5
4620
  8
0
 10
887.07768777253602
 20
-78.414465142255182
 30
0.0
 11
941.30368708073581
 21
-78.414465142955166
 31
0.0
  0
LINE
  5
4621
  8
0
 10
887.24509386503587
 20
-77.788609296155173
 30
0.0
 11
940.07203423603596
 21
-77.788609296155173
 31
0.0
  0
LINE
  5
4622
  8
0
 10
936.44728953113599
 20
-55.150852925155156
 30
0.0
 11
888.77983432653593
 21
-55.150852925155156
 31
0.0
  0
LINE
  5
4623
  8
0
 10
940.07203423603596
 20
-53.717198577355163
 30
0.0
 11
887.24509386503587
 21
-53.717198577355163
 31
0.0
  0
LINE
  5
4624
  8
0
 10
941.30368707843604
 20
-53.091342731255168
 30
0.0
 11
887.07768771793587
 21
-53.091342731255168
 31
0.0
  0
LINE
  5
4625
  8
0
 10
883.01444529643595
 20
-50.621846607355167
 30
0.0
 11
946.06237380693619
 21
-50.621846607355167
 31
0.0
  0
LINE
  5
4626
  8
0
 10
882.51888293313596
 20
-49.75290393675516
 30
0.0
 11
946.55793617023596
 21
-49.75290393675516
 31
0.0
  0
ARC
  5
4627
  8
0
 10
882.51888293337731
 20
-80.772430555013685
 30
0.0
 40
0.9804733817415183
 50
180.00000001411209
 51
269.99999998588459
  0
ARC
  5
4628
  8
0
 10
882.51370092080106
 20
-80.77761264478832
 30
0.0
 40
0.1321083087264206
 50
177.75193509050939
 51
272.24811283750478
  0
ARC
  5
4629
  8
0
 10
873.83840946316116
 20
-65.752903943739909
 30
0.0
 40
68.688879522174673
 50
350.97223043602622
 51
9.0277694621065674
  0
ARC
  5
462A
  8
0
 10
882.51888293320656
 20
-50.73337731832585
 30
0.0
 40
0.9804733815706896
 50
90.000000004129717
 51
179.9999999900258
  0
ARC
  5
462B
  8
0
 10
882.513698337336
 20
-50.728194021855167
 30
0.0
 40
0.1321056277
 50
87.750767324702323
 51
182.24863434959951
  0
CIRCLE
  5
462C
  8
0
 10
892.78840956698605
 20
-65.75290393675516
 30
0.0
 40
1.125
  0
CIRCLE
  5
462D
  8
0
 10
892.78840955163594
 20
-65.75290393675516
 30
0.0
 40
1.7079462481000001
  0
CIRCLE
  5
462E
  8
0
 10
892.78840955163594
 20
-65.75290393675516
 30
0.0
 40
1.125
  0
ARC
  5
462F
  8
0
 10
877.01622227811288
 20
-80.246185744017197
 30
0.0
 40
5.3912172546680219
 50
354.39835337872398
 51
359.67391700628872
  0
ARC
  5
4630
  8
0
 10
883.06930975677062
 20
-86.742126736798326
 30
0.0
 40
5.8584223806792624
 50
90.536586092590952
 51
95.391162566169399
  0
ARC
  5
4631
  8
0
 10
883.06935865161699
 20
-44.762376702388188
 30
0.0
 40
5.8597272158173777
 50
264.60956020505313
 51
269.4630552875704
  0
ARC
  5
4632
  8
0
 10
876.13307028133715
 20
-51.30534581466577
 30
0.0
 40
6.274747147979693
 50
0.6976945923062444
 51
5.2300011205313881
  0
LINE
  5
4633
  8
0
 10
885.33271453548582
 20
-69.37790393675516
 30
0.0
 11
885.33271453548582
 21
-62.12790393675516
 31
0.0
  0
LINE
  5
4634
  8
0
 10
885.40897581038598
 20
-62.12790393675516
 30
0.0
 11
885.40897581038598
 21
-69.37790393675516
 31
0.0
  0
LINE
  5
4635
  8
0
 10
885.39808134248585
 20
-69.50290393675516
 30
0.0
 11
885.34360900328591
 21
-69.50290393675516
 31
0.0
  0
LINE
  5
4636
  8
0
 10
885.34360900328591
 20
-62.00290393675516
 30
0.0
 11
885.39808134248585
 21
-62.00290393675516
 31
0.0
  0
ARC
  5
4637
  8
0
 10
885.82625425575839
 20
-69.397863873745536
 30
0.0
 40
0.4939431693739735
 50
177.68408252529241
 51
192.27805622256611
  0
ARC
  5
4638
  8
0
 10
884.88535451129042
 20
-69.395242091121801
 30
0.0
 40
0.5239082710103004
 50
348.14137559246348
 51
1.8964855950514869
  0
ARC
  5
4639
  8
0
 10
885.78914437374056
 20
-62.104709660447163
 30
0.0
 40
0.4570187870345289
 50
167.12877889431951
 51
182.90908235782621
  0
ARC
  5
463A
  8
0
 10
884.92561724350639
 20
-62.107056654160353
 30
0.0
 40
0.4838079302444787
 50
357.530360341201
 51
12.43177849764262
  0
LINE
  5
463B
  8
0
 10
892.38709492753594
 20
-58.807457084955168
 30
0.0
 11
930.97789629060355
 21
-58.807457084955168
 31
0.0
  0
LINE
  5
463C
  8
0
 10
892.38709492783585
 20
-72.698350787655158
 30
0.0
 11
930.97789629030331
 21
-72.698350787655158
 31
0.0
  0
LINE
  5
463D
  8
0
 10
891.07171564073587
 20
-75.58302579775517
 30
0.0
 11
932.18787193883668
 21
-75.58302579775517
 31
0.0
  0
LINE
  5
463E
  8
0
 10
886.46551743019995
 20
-60.53946956554018
 30
0.0
 11
886.46551748613604
 21
-70.984864499267417
 31
0.0
  0
LINE
  5
463F
  8
0
 10
889.38926018913594
 20
-61.783588611355157
 30
0.0
 11
889.38926018913594
 21
-69.722219262110514
 31
0.0
  0
ARC
  5
4640
  8
0
 10
891.08352294325653
 20
-60.540772657904007
 30
0.0
 40
4.6180056969076952
 50
90.146520987299525
 51
179.9838324812371
  0
ARC
  5
4641
  8
0
 10
891.13158323128755
 20
-70.916848389983244
 30
0.0
 40
4.6665614459899132
 50
180.83512754264629
 51
269.2649289188854
  0
ARC
  5
4642
  8
0
 10
892.51523312693621
 20
-69.571364277251163
 30
0.0
 40
3.1296108439096888
 50
182.7628689298769
 51
267.65343641566761
  0
ARC
  5
4643
  8
0
 10
892.51526963623371
 20
-61.934480370841499
 30
0.0
 40
3.129649083591481
 50
92.347203854148447
 51
177.2364908225091
  0
ARC
  5
4644
  8
0
 10
888.87584738278701
 20
-58.318356931251209
 30
0.0
 40
3.1689588409452738
 50
91.736212166388043
 51
179.44264863252411
  0
ARC
  5
4645
  8
0
 10
887.73478554174517
 20
-56.191037310046312
 30
0.0
 40
2.1000417278456318
 50
93.080664691676063
 51
177.34819716473689
  0
ARC
  5
4646
  8
0
 10
926.78504937312016
 20
-55.877918909487178
 30
0.0
 40
41.148623425641091
 50
180.30070291467979
 51
183.35708993885859
  0
LINE
  5
4647
  8
0
 10
936.44728953113577
 20
-76.354954948255184
 30
0.0
 11
888.77983432653593
 21
-76.35495494825517
 31
0.0
  0
ARC
  5
4648
  8
0
 10
888.86165320626151
 20
-73.201356037197087
 30
0.0
 40
3.1546601117880151
 50
180.30732219743001
 51
268.51381700365528
  0
ARC
  5
4649
  8
0
 10
887.82091579853966
 20
-75.229282595188323
 30
0.0
 40
2.1915476100095059
 50
184.7807135525081
 51
264.79042459107558
  0
ARC
  5
464A
  8
0
 10
926.78504937311834
 20
-75.627888963923183
 30
0.0
 40
41.148623425639109
 50
176.64291006114129
 51
179.69929708532021
  0
LINE
  5
464B
  8
0
 10
947.53840955163605
 20
-50.733377318151902
 30
0.0
 11
947.53840955163605
 21
-80.77243055525517
 31
0.0
  0
LINE
  5
464C
  8
0
 10
946.66946688113603
 20
-80.276868191955174
 30
0.0
 11
946.66946688113603
 21
-51.228939681455167
 31
0.0
  0
ARC
  5
464D
  8
0
 10
946.55793617006509
 20
-80.772430555184357
 30
0.0
 40
0.9804733815708246
 50
270.00000000584288
 51
359.99999999586049
  0
ARC
  5
464E
  8
0
 10
946.56311818257109
 20
-80.77761264478832
 30
0.0
 40
0.1321083087264206
 50
267.75188716248869
 51
2.2480649094906271
  0
ARC
  5
464F
  8
0
 10
946.55793617023596
 20
-50.733377318155149
 30
0.0
 40
0.9804733813999889
 50
359.99999999999841
 51
90.0
  0
ARC
  5
4650
  8
0
 10
946.56312076603604
 20
-50.728194021855167
 30
0.0
 40
0.1321056277
 50
357.75136565040049
 51
92.249232675297677
  0
ARC
  5
4651
  8
0
 10
952.06059682525881
 20
-80.246185744017197
 30
0.0
 40
5.3912172546680219
 50
180.32608299371131
 51
185.6016466212759
  0
ARC
  5
4652
  8
0
 10
946.0075093466013
 20
-86.742126736798326
 30
0.0
 40
5.8584223806792624
 50
84.608837433830601
 51
89.46341390740254
  0
ARC
  5
4653
  8
0
 10
946.00746045175492
 20
-44.762376702388188
 30
0.0
 40
5.8597272158173777
 50
270.53694471242949
 51
275.39043979494039
  0
ARC
  5
4654
  8
0
 10
952.94374882203465
 20
-51.30534581466577
 30
0.0
 40
6.274747147979693
 50
174.7699988794686
 51
179.30230540769369
  0
LINE
  5
4655
  8
0
 10
936.79407014937271
 20
-60.53946956554018
 30
0.0
 11
936.79407009343674
 21
-70.984864499267417
 31
0.0
  0
LINE
  5
4656
  8
0
 10
933.97573102900344
 20
-61.783588611355157
 30
0.0
 11
933.97573102900344
 21
-69.722219262110514
 31
0.0
  0
ARC
  5
4657
  8
0
 10
932.17606463631614
 20
-60.540772657904007
 30
0.0
 40
4.6180056969076952
 50
0.0161675187628576
 51
89.853479012693953
  0
ARC
  5
4658
  8
0
 10
932.128004348285
 20
-70.916848389983244
 30
0.0
 40
4.6665614459899132
 50
270.73507108110812
 51
359.16487245735368
  0
ARC
  5
4659
  8
0
 10
930.84975809120294
 20
-69.571364277251163
 30
0.0
 40
3.1296108439096888
 50
272.34656358432602
 51
357.2371310701231
  0
ARC
  5
465A
  8
0
 10
930.84972158190567
 20
-61.934480370841499
 30
0.0
 40
3.129649083591481
 50
2.7635091774908851
 51
87.652796145851525
  0
ARC
  5
465B
  8
0
 10
936.35127647488468
 20
-58.318356931251209
 30
0.0
 40
3.1689588409452738
 50
0.557351367475861
 51
88.263787833611957
  0
ARC
  5
465C
  8
0
 10
937.49233831592676
 20
-56.191037310046312
 30
0.0
 40
2.1000417278456318
 50
2.6518028352630711
 51
86.919335308323909
  0
ARC
  5
465D
  8
0
 10
898.44207448455165
 20
-55.877918909487178
 30
0.0
 40
41.148623425641091
 50
356.64291006114132
 51
359.69929708532021
  0
ARC
  5
465E
  8
0
 10
936.36547065141042
 20
-73.201356037197087
 30
0.0
 40
3.1546601117880151
 50
271.48618299633807
 51
359.69267780257002
  0
ARC
  5
465F
  8
0
 10
937.40620805913215
 20
-75.229282595188323
 30
0.0
 40
2.1915476100095059
 50
275.20957540891789
 51
355.21928644749181
  0
ARC
  5
4660
  8
0
 10
898.44207448455359
 20
-75.627888963923183
 30
0.0
 40
41.148623425639109
 50
0.3007029146798131
 51
3.3570899388586959
  0
LINE
  5
4661
  8
0
 10
887.62192543743595
 20
-77.411777443550207
 30
0.0
 11
937.60519842023598
 21
-77.411777443550207
 31
0.0
  0
LINE
  5
4662
  8
0
 10
891.07171345183599
 20
-55.922782061055173
 30
0.0
 11
932.18787412773554
 21
-55.922782061055173
 31
0.0
  0
LINE
  5
4663
  8
0
 10
887.62192543743595
 20
-54.094030429860133
 30
0.0
 11
937.60519842023587
 21
-54.094030429860133
 31
0.0
  0
ARC
  5
4664
  8
0
 10
887.27136147585963
 20
-59.067635819783931
 30
0.0
 40
5.9794304582046083
 50
91.856134995491701
 51
103.85380632959971
  0
ARC
  5
4665
  8
0
 10
886.22979894700245
 20
-54.2487850066017
 30
0.0
 40
1.060988449259876
 50
111.5772540931181
 51
138.124896285033
  0
ARC
  5
4666
  8
0
 10
886.25154884910683
 20
-54.196182052341548
 30
0.0
 40
1.0434525363058551
 50
141.07411414897561
 51
179.9056787066074
  0
ARC
  5
4667
  8
0
 10
872.80634518229135
 20
-54.864552596797417
 30
0.0
 40
12.419842369900859
 50
356.33843900284262
 51
3.0927833919303769
  0
ARC
  5
4668
  8
0
 10
887.27136144550786
 20
-72.438172211819534
 30
0.0
 40
5.979430297442847
 50
256.14619359004718
 51
268.14386576902751
  0
ARC
  5
4669
  8
0
 10
886.22979894700245
 20
-77.257022866908642
 30
0.0
 40
1.060988449259876
 50
221.87510371496691
 51
248.4227459068818
  0
ARC
  5
466A
  8
0
 10
886.25154884910683
 20
-77.309625821168794
 30
0.0
 40
1.0434525363058551
 50
180.09432129339089
 51
218.9258858510243
  0
ARC
  5
466B
  8
0
 10
875.41074460744005
 20
-76.628328179414268
 30
0.0
 40
9.8211322242859254
 50
356.012118272789
 51
4.5566593324379152
  0
ARC
  5
466C
  8
0
 10
887.29987010979585
 20
-75.683872734849075
 30
0.0
 40
2.105449222728625
 50
184.4733837561198
 51
268.50920090523721
  0
ARC
  5
466D
  8
0
 10
939.99427772422086
 20
-76.037207527611756
 30
0.0
 40
1.753126986269562
 50
272.54207593953907
 51
343.63732025821582
  0
ARC
  5
466E
  8
0
 10
887.30413853283835
 20
-55.826431747667399
 30
0.0
 40
2.1100594398123742
 50
91.603486543012451
 51
175.4139288703434
  0
ARC
  5
466F
  8
0
 10
939.99089105384246
 20
-55.472921098832998
 30
0.0
 40
1.7575965943415399
 50
16.46672050484602
 51
87.353878007650664
  0
ARC
  5
4670
  8
0
 10
873.46037216586262
 20
-65.752903905238213
 30
0.0
 40
69.676140107820146
 50
350.1828808486016
 51
9.8171200242655914
  0
ARC
  5
4671
  8
0
 10
941.26148821961965
 20
-53.948392373903587
 30
0.0
 40
0.8580878938949872
 50
5.0507444925323837
 51
87.181183707546893
  0
ARC
  5
4672
  8
0
 10
941.26810682263726
 20
-77.564296984226701
 30
0.0
 40
0.8509123649836874
 50
272.39647845424457
 51
355.37166204854458
  0
ENDSEC
  0
EOF
