  0
SECTION
  2
HEADER
  9
$ACADVER
  1
AC1009
  9
$INSBASE
 10
986.67896163642718
 20
127.58294281643241
 30
0.0
  9
$EXTMIN
 10
970.67896163637715
 20
110.08294455955109
 30
0.0
  9
$EXTMAX
 10
1002.678961636477
 20
129.08294281643239
 30
0.0
  9
$LIMMIN
 10
0.0
 20
0.0
  9
$LIMMAX
 10
11.692913385800001
 20
8.2677165353999982
  9
$ORTHOMODE
 70
     1
  9
$REGENMODE
 70
     1
  9
$FILLMODE
 70
     1
  9
$QTEXTMODE
 70
     0
  9
$MIRRTEXT
 70
     0
  9
$DRAGMODE
 70
     2
  9
$LTSCALE
 40
0.6431102362
  9
$OSMODE
 70
  3071
  9
$ATTMODE
 70
     1
  9
$TEXTSIZE
 40
0.2
  9
$TRACEWID
 40
0.05
  9
$TEXTSTYLE
  7
STANDARD
  9
$CLAYER
  8
0
  9
$CELTYPE
  6
BYLAYER
  9
$CECOLOR
 62
   256
  9
$DIMSCALE
 40
1.0
  9
$DIMASZ
 40
0.1875
  9
$DIMEXO
 40
0.0625
  9
$DIMDLI
 40
0.4443307087
  9
$DIMRND
 40
0.0
  9
$DIMDLE
 40
0.0
  9
$DIMEXE
 40
0.125
  9
$DIMTP
 40
0.01
  9
$DIMTM
 40
0.01
  9
$DIMTXT
 40
2.0
  9
$DIMCEN
 40
0.1052362205
  9
$DIMTSZ
 40
0.0
  9
$DIMTOL
 70
     1
  9
$DIMLIM
 70
     0
  9
$DIMTIH
 70
     1
  9
$DIMTOH
 70
     1
  9
$DIMSE1
 70
     0
  9
$DIMSE2
 70
     0
  9
$DIMTAD
 70
     0
  9
$DIMZIN
 70
     0
  9
$DIMBLK
  1

  9
$DIMASO
 70
     1
  9
$DIMSHO
 70
     1
  9
$DIMPOST
  1
\X
  9
$DIMAPOST
  1

  9
$DIMALT
 70
     1
  9
$DIMALTD
 70
     2
  9
$DIMALTF
 40
25.399999999999999
  9
$DIMLFAC
 40
1.0
  9
$DIMTOFL
 70
     0
  9
$DIMTVP
 40
0.0
  9
$DIMTIX
 70
     0
  9
$DIMSOXD
 70
     0
  9
$DIMSAH
 70
     0
  9
$DIMBLK1
  1

  9
$DIMBLK2
  1

  9
$DIMSTYLE
  2
STANDARD
  9
$DIMCLRD
 70
     0
  9
$DIMCLRE
 70
     0
  9
$DIMCLRT
 70
     0
  9
$DIMTFAC
 40
1.0
  9
$DIMGAP
 40
0.09
  9
$LUNITS
 70
     2
  9
$LUPREC
 70
     4
  9
$SKETCHINC
 40
0.1
  9
$FILLETRAD
 40
0.0
  9
$AUNITS
 70
     0
  9
$AUPREC
 70
     0
  9
$MENU
  1
.
  9
$ELEVATION
 40
0.0
  9
$PELEVATION
 40
0.0
  9
$THICKNESS
 40
0.0
  9
$LIMCHECK
 70
     0
  9
$BLIPMODE
 70
     0
  9
$CHAMFERA
 40
0.0
  9
$CHAMFERB
 40
0.0
  9
$SKPOLY
 70
     0
  9
$TDCREATE
 40
2458060.4683680669
  9
$TDUPDATE
 40
2458495.6590495831
  9
$TDINDWG
 40
0.2542529861
  9
$TDUSRTIMER
 40
0.2542529861
  9
$USRTIMER
 70
     1
  9
$ANGBASE
 50
0.0
  9
$ANGDIR
 70
     0
  9
$PDMODE
 70
     0
  9
$PDSIZE
 40
0.3125
  9
$PLINEWID
 40
0.0
  9
$COORDS
 70
     1
  9
$SPLFRAME
 70
     0
  9
$SPLINETYPE
 70
     6
  9
$SPLINESEGS
 70
     8
  9
$ATTDIA
 70
     1
  9
$ATTREQ
 70
     1
  9
$HANDLING
 70
     1
  9
$HANDSEED
  5
484F
  9
$SURFTAB1
 70
     6
  9
$SURFTAB2
 70
     6
  9
$SURFTYPE
 70
     6
  9
$SURFU
 70
     6
  9
$SURFV
 70
     6
  9
$UCSNAME
  2

  9
$UCSORG
 10
0.0
 20
0.0
 30
0.0
  9
$UCSXDIR
 10
1.0
 20
0.0
 30
0.0
  9
$UCSYDIR
 10
0.0
 20
1.0
 30
0.0
  9
$PUCSNAME
  2

  9
$PUCSORG
 10
0.0
 20
0.0
 30
0.0
  9
$PUCSXDIR
 10
1.0
 20
0.0
 30
0.0
  9
$PUCSYDIR
 10
0.0
 20
1.0
 30
0.0
  9
$USERI1
 70
     0
  9
$USERI2
 70
     0
  9
$USERI3
 70
     0
  9
$USERI4
 70
     0
  9
$USERI5
 70
     0
  9
$USERR1
 40
0.0
  9
$USERR2
 40
0.0
  9
$USERR3
 40
0.0
  9
$USERR4
 40
0.0
  9
$USERR5
 40
0.0
  9
$WORLDVIEW
 70
     1
  9
$SHADEDGE
 70
     3
  9
$SHADEDIF
 70
    70
  9
$TILEMODE
 70
     1
  9
$MAXACTVP
 70
    64
  9
$PLIMCHECK
 70
     0
  9
$PEXTMIN
 10
1.0000000000000000E+020
 20
1.0000000000000000E+020
 30
1.0000000000000000E+020
  9
$PEXTMAX
 10
-1.0000000000000000E+020
 20
-1.0000000000000000E+020
 30
-1.0000000000000000E+020
  9
$PLIMMIN
 10
0.0
 20
0.0
  9
$PLIMMAX
 10
12.0
 20
9.0
  9
$UNITMODE
 70
     0
  9
$VISRETAIN
 70
     1
  9
$PLINEGEN
 70
     0
  9
$PSLTSCALE
 70
     1
  0
ENDSEC
  0
SECTION
  2
TABLES
  0
TABLE
  2
VPORT
 70
     1
  0
VPORT
  2
*ACTIVE
 70
     0
 10
0.0
 20
0.0
 11
1.0
 21
1.0
 12
0.0
 22
0.0
 13
0.0
 23
0.0
 14
1.0
 24
1.0
 15
0.0
 25
0.0
 16
0.0
 26
0.0
 36
107.2365751429751
 17
986.67896163642718
 27
119.5829436879917
 37
0.0
 40
37.227171423102369
 41
2.1638418079096038
 42
50.0
 43
0.0
 44
0.0
 50
0.0
 51
0.0
 71
     0
 72
   100
 73
     1
 74
     1
 75
     0
 76
     0
 77
     0
 78
     0
  0
ENDTAB
  0
TABLE
  2
LTYPE
 70
     2
  0
LTYPE
  2
CONTINUOUS
 70
     0
  3
Solid line
 72
    65
 73
     0
 40
0.0
  0
LTYPE
  2
PHANTOM2
 70
     0
  3
___ _ _ ___ _ _ ___ _ _ ___ _ _
 72
    65
 73
     6
 40
1.25
 49
0.625
 49
-0.125
 49
0.125
 49
-0.125
 49
0.125
 49
-0.125
  0
ENDTAB
  0
TABLE
  2
LAYER
 70
     2
  0
LAYER
  2
0
 70
     0
 62
   255
  6
CONTINUOUS
  0
LAYER
  2
DEFPOINTS
 70
     0
 62
     7
  6
CONTINUOUS
  0
ENDTAB
  0
TABLE
  2
STYLE
 70
     1
  0
STYLE
  2
STANDARD
 70
     0
 40
0.0
 41
0.8
 50
0.0
 71
     0
 42
0.2
  3
txt
  4

  0
ENDTAB
  0
TABLE
  2
VIEW
 70
     0
  0
ENDTAB
  0
TABLE
  2
UCS
 70
     0
  0
ENDTAB
  0
TABLE
  2
APPID
 70
     9
  0
APPID
  2
ACAD
 70
     0
  0
APPID
  2
ACAD_MLEADERVER
 70
     0
  0
APPID
  2
ACAD_EXEMPT_FROM_CAD_STANDARDS
 70
     0
  0
APPID
  2
ACAD_NAV_VCDISPLAY
 70
     0
  0
APPID
  2
ACAECLAYERSTANDARD
 70
     0
  0
APPID
  2
ACCMTRANSPARENCY
 70
     0
  0
APPID
  2
ACAD_DSTYLE_DIMJAG
 70
     0
  0
APPID
  2
ACAD_DSTYLE_DIMTALN
 70
     0
  0
APPID
  2
ACDBATTR
 70
     0
  0
ENDTAB
  0
TABLE
  2
DIMSTYLE
 70
     1
  0
DIMSTYLE
  2
STANDARD
 70
     0
  3

  4

  5

  6

  7

 40
1.0
 41
0.1875
 42
0.0625
 43
0.38
 44
0.125
 45
0.0
 46
0.0
 47
0.01
 48
0.01
140
0.15625
141
0.09
142
0.0
143
25.399999999999999
144
1.0
145
0.0
146
1.0
147
0.09
 71
     1
 72
     0
 73
     1
 74
     1
 75
     0
 76
     0
 77
     0
 78
     4
170
     0
171
     2
172
     0
173
     0
174
     0
175
     0
176
     0
177
     0
178
     0
  0
ENDTAB
  0
ENDSEC
  0
SECTION
  2
BLOCKS
  0
BLOCK
  8
0
  2
$MODEL_SPACE
 70
     0
 10
0.0
 20
0.0
 30
0.0
  3
$MODEL_SPACE
  1

  0
ENDBLK
  5
21
  8
0
  0
BLOCK
 67
     1
  8
0
  2
$PAPER_SPACE
 70
     0
 10
0.0
 20
0.0
 30
0.0
  3
$PAPER_SPACE
  1

  0
ENDBLK
  5
1D
 67
     1
  8
0
  0
ENDSEC
  0
SECTION
  2
ENTITIES
  0
ATTDEF
  5
3930
  8
DEFPOINTS
 10
986.67512022736753
 20
127.59562625122599
 30
0.0
 40
0.001
  1
K-1948
  3

  2
MODELNUMBER
 70
     0
1001
ACDBATTR
1070
     0
1070
     1
  0
ATTDEF
  5
3931
  8
DEFPOINTS
 10
986.67512022736753
 20
127.5939595845593
 30
0.0
 40
0.001
  1
ARCHER
  3

  2
TRADENAME
 70
     0
1001
ACDBATTR
1070
     0
1070
     1
  0
ATTDEF
  5
3932
  8
DEFPOINTS
 10
986.67512022736753
 20
127.59229291789271
 30
0.0
 40
0.001
  1
BATH
  3

  2
PRODUCT
 70
     0
1001
ACDBATTR
1070
     0
1070
     1
  0
ATTDEF
  5
3933
  8
DEFPOINTS
 10
986.67512022736753
 20
127.590626251226
 30
0.0
 40
0.001
  1
ACRYLIC
  3

  2
MATERIAL
 70
     0
1001
ACDBATTR
1070
     0
1070
     1
  0
LINE
  5
46F4
  8
0
 10
974.4215538161659
 20
127.58294281643241
 30
0.0
 11
974.77103945067711
 21
123.5883037349324
 31
0.0
  0
LINE
  5
46F5
  8
0
 10
976.24841149877705
 20
115.2110801656323
 30
0.0
 11
976.35117981237704
 21
114.0364329663324
 31
0.0
  0
LINE
  5
46F6
  8
0
 10
975.82786195007714
 20
122.8864118156324
 30
0.0
 11
976.49820927025291
 21
115.2243068847673
 31
0.0
  0
LINE
  5
46F7
  8
0
 10
986.30809241789655
 20
110.6701210416324
 30
0.0
 11
984.61467663007716
 21
110.6701210416324
 31
0.0
  0
LINE
  5
46F8
  8
0
 10
984.61467663007716
 20
110.6701210416324
 30
0.0
 11
982.44925557667716
 21
110.7457392111324
 31
0.0
  0
LINE
  5
46F9
  8
0
 10
979.89912299250841
 20
110.8347470706336
 30
0.0
 11
979.70310154347715
 21
110.8422993697324
 31
0.0
  0
LINE
  5
46FA
  8
0
 10
975.36095116887725
 20
123.0186326046324
 30
0.0
 11
975.70987960730781
 21
123.0003460400393
 31
0.0
  0
ARC
  5
46FB
  8
0
 10
975.39366113787719
 20
123.6427760640324
 30
0.0
 40
0.625
 50
184.99999906819971
 51
266.99999999999437
  0
ARC
  5
46FC
  8
0
 10
975.7033376127772
 20
122.87551734823241
 30
0.0
 40
0.125
 50
4.9999999999994591
 51
86.99999969239623
  0
LINE
  5
46FD
  8
0
 10
970.67896163637715
 20
127.58294281643241
 30
0.0
 11
970.74515706327713
 21
128.8460268055324
 31
0.0
  0
LINE
  5
46FE
  8
0
 10
970.67896163637715
 20
127.58294281643241
 30
0.0
 11
1002.678961636477
 21
127.58294281643241
 31
0.0
  0
LINE
  5
46FF
  8
0
 10
1002.363108825877
 20
129.08294281643239
 30
0.0
 11
970.9948144469771
 21
129.08294281643239
 31
0.0
  0
ARC
  5
4700
  8
0
 10
970.9948144469771
 20
128.83294281643239
 30
0.0
 40
0.25
 50
90.0
 51
177.0000000000002
  0
LINE
  5
4701
  8
0
 10
1002.678961636477
 20
127.58294281643241
 30
0.0
 11
1002.612766209577
 21
128.8460268055324
 31
0.0
  0
ARC
  5
4702
  8
0
 10
1002.363108825877
 20
128.83294281643239
 30
0.0
 40
0.25
 50
2.9999999999997309
 51
90.0
  0
ARC
  5
4703
  8
0
 10
981.53390362849507
 20
17.75552783714366
 30
0.0
 40
97.598776153720877
 50
90.507463909044347
 51
93.104389477403146
  0
LINE
  5
4704
  8
0
 10
980.66949076329547
 20
115.3504759497513
 30
0.0
 11
992.68843250955786
 21
115.3504759497514
 31
0.0
  0
LINE
  5
4705
  8
0
 10
984.18784421487703
 20
110.83294281643241
 30
0.0
 11
989.17007905797698
 21
110.83294281643241
 31
0.0
  0
LINE
  5
4706
  8
0
 10
983.95087793697701
 20
111.4605435503324
 30
0.0
 11
983.93799650807705
 21
111.09166769063241
 31
0.0
  0
LINE
  5
4707
  8
0
 10
989.40704524637704
 20
111.4605460834324
 30
0.0
 11
989.41992676467703
 21
111.09166769063241
 31
0.0
  0
ARC
  5
4708
  8
0
 10
984.18784421487703
 20
111.08294281643241
 30
0.0
 40
0.25
 50
178.0000000000006
 51
270.0
  0
ARC
  5
4709
  8
0
 10
989.17007905797698
 20
111.08294281643241
 30
0.0
 40
0.25
 50
270.0
 51
1.9999999999994289
  0
ARC
  5
470A
  8
0
 10
983.44781978491585
 20
111.47479000135129
 30
0.0
 40
0.5032598391705326
 50
358.37783484316083
 51
89.420592252114488
  0
ARC
  5
470B
  8
0
 10
989.90948074518576
 20
111.4753567951786
 30
0.0
 40
0.5026537452815845
 50
90.508558776136027
 51
181.6884667032399
  0
ARC
  5
470C
  8
0
 10
986.67847049734985
 20
16.535003625877831
 30
0.0
 40
95.497509946864966
 50
88.063794378213913
 51
91.935612996636607
  0
LINE
  5
470D
  8
0
 10
986.44983854068164
 20
110.2329428164324
 30
0.0
 11
985.33784960698563
 21
110.2329428164324
 31
0.0
  0
LINE
  5
470E
  8
0
 10
979.46905503458572
 20
111.84148749532829
 30
0.0
 11
979.46875827558586
 21
111.8752301559245
 31
0.0
  0
LINE
  5
470F
  8
0
 10
979.6789616364772
 20
111.08294281643241
 30
0.0
 11
979.67915564901125
 21
111.6285058601881
 31
0.0
  0
LINE
  5
4710
  8
0
 10
981.13428500668545
 20
110.8329282763283
 30
0.0
 11
979.92914903008557
 21
110.8329282763283
 31
0.0
  0
LINE
  5
4711
  8
0
 10
984.84994592798546
 20
110.4350391374324
 30
0.0
 11
984.61467663007716
 21
110.6701210416324
 31
0.0
  0
LINE
  5
4712
  8
0
 10
981.43252324585023
 20
110.31296501242829
 30
0.0
 11
981.38424729284225
 21
110.62346271096079
 31
0.0
  0
LINE
  5
4713
  8
0
 10
981.43252324585023
 20
110.31296501242829
 30
0.0
 11
981.34072786648562
 21
111.4229501789283
 31
0.0
  0
LINE
  5
4714
  8
0
 10
982.01680114364001
 20
111.4138437832929
 30
0.0
 11
981.93091347137602
 21
110.3129623043725
 31
0.0
  0
LINE
  5
4715
  8
0
 10
986.35342430407718
 20
110.58029342563241
 30
0.0
 11
986.42976770128348
 21
110.31296501242829
 31
0.0
  0
LINE
  5
4716
  8
0
 10
986.42976770128348
 20
110.31296501242829
 30
0.0
 11
986.37882912658552
 21
110.8329282763283
 31
0.0
  0
LINE
  5
4717
  8
0
 10
986.9794689353854
 20
110.8329282763283
 30
0.0
 11
986.92815792680915
 21
110.3129623043725
 31
0.0
  0
ARC
  5
4718
  8
0
 10
979.92924135243095
 20
111.08320811586449
 30
0.0
 40
0.2502798565639522
 50
180.06073417503271
 51
269.9788649357082
  0
ARC
  5
4719
  8
0
 10
985.33784960698563
 20
110.9229428164324
 30
0.0
 40
0.69
 50
225.00000000010081
 51
270.0
  0
LINE
  5
471A
  8
0
 10
980.84619039148572
 20
111.8613967347283
 30
0.0
 11
979.93107938578555
 21
111.8679899115283
 31
0.0
  0
ARC
  5
471B
  8
0
 10
980.66234537582181
 20
115.2047482742073
 30
0.0
 40
4.466666449830976
 50
195.1628336529846
 51
257.59878182588318
  0
ARC
  5
471C
  8
0
 10
981.12977700451449
 20
110.57367175260769
 30
0.0
 40
0.2592957137618832
 50
11.070916735789559
 51
89.003830382984987
  0
ARC
  5
471D
  8
0
 10
982.51560324088064
 20
111.3729145709805
 30
0.0
 40
0.5004785036663609
 50
89.779682652603753
 51
175.30910323604729
  0
ARC
  5
471E
  8
0
 10
980.84077008314455
 20
111.3571576412467
 30
0.0
 40
0.5042682253897043
 50
7.4968285555750196
 51
89.384123852094646
  0
ARC
  5
471F
  8
0
 10
981.75159170424593
 20
102.1492001349762
 30
0.0
 40
9.7543074756429782
 50
85.496335958687595
 51
95.325898847960445
  0
ARC
  5
4720
  8
0
 10
979.42469864217696
 20
111.58761101528501
 30
0.0
 40
0.2577222471318198
 50
9.1301696349365233
 51
80.089519792360463
  0
ARC
  5
4721
  8
0
 10
979.81262510009185
 20
119.0941972431373
 30
0.0
 40
7.2271522883676367
 50
267.27284574850933
 51
270.93835919666577
  0
ARC
  5
4722
  8
0
 10
986.67896292258445
 20
110.3329389961773
 30
0.0
 40
0.2499944366299066
 50
184.5826863010202
 51
355.41669105367822
  0
ARC
  5
4723
  8
0
 10
981.6817184671512
 20
110.3329389961773
 30
0.0
 40
0.2499944366299308
 50
184.58268630117061
 51
355.41669105352781
  0
ARC
  5
4724
  8
0
 10
982.4687658642556
 20
110.1955707654604
 30
0.0
 40
0.5505142776845134
 50
92.030994141411171
 51
167.68772095790831
  0
ARC
  5
4725
  8
0
 10
986.11769348123232
 20
110.5176831412854
 30
0.0
 40
0.2439038100256892
 50
14.874384370505499
 51
38.68159134316091
  0
LINE
  5
4726
  8
0
 10
998.93636945668834
 20
127.58294281643241
 30
0.0
 11
998.58688382217713
 21
123.5883037349324
 31
0.0
  0
LINE
  5
4727
  8
0
 10
997.10951177407708
 20
115.2110801656323
 30
0.0
 11
997.00674346047697
 21
114.0364329663324
 31
0.0
  0
LINE
  5
4728
  8
0
 10
997.5300613227771
 20
122.8864118156324
 30
0.0
 11
996.85971400260121
 21
115.2243068847673
 31
0.0
  0
LINE
  5
4729
  8
0
 10
987.04983085495758
 20
110.6701210416324
 30
0.0
 11
988.74324664277708
 21
110.6701210416324
 31
0.0
  0
LINE
  5
472A
  8
0
 10
988.74324664277708
 20
110.6701210416324
 30
0.0
 11
990.90866769617719
 21
110.7457392111324
 31
0.0
  0
LINE
  5
472B
  8
0
 10
993.45880028034583
 20
110.8347470706336
 30
0.0
 11
993.65482172937698
 21
110.8422993697324
 31
0.0
  0
LINE
  5
472C
  8
0
 10
997.99697210397721
 20
123.0186326046324
 30
0.0
 11
997.64804366554665
 21
123.0003460400393
 31
0.0
  0
ARC
  5
472D
  8
0
 10
997.96426213497705
 20
123.6427760640324
 30
0.0
 40
0.625
 50
273.00000000000563
 51
355.00000093180029
  0
ARC
  5
472E
  8
0
 10
997.65458566007715
 20
122.87551734823241
 30
0.0
 40
0.125
 50
93.000000307603784
 51
175.00000000000051
  0
ARC
  5
472F
  8
0
 10
991.82401964435905
 20
17.75552783714366
 30
0.0
 40
97.598776153720877
 50
86.895610522596826
 51
89.492536090942636
  0
LINE
  5
4730
  8
0
 10
986.90808730448725
 20
110.2329428164324
 30
0.0
 11
988.02007366586884
 21
110.2329428164324
 31
0.0
  0
LINE
  5
4731
  8
0
 10
993.88886823826874
 20
111.84148749532829
 30
0.0
 11
993.88916499726827
 21
111.8752301559245
 31
0.0
  0
LINE
  5
4732
  8
0
 10
993.67896163637715
 20
111.08294281643241
 30
0.0
 11
993.67876762384287
 21
111.6285058601881
 31
0.0
  0
LINE
  5
4733
  8
0
 10
992.22363826616879
 20
110.8329282763283
 30
0.0
 11
993.42877424276855
 21
110.8329282763283
 31
0.0
  0
LINE
  5
4734
  8
0
 10
988.50797734486866
 20
110.4350391374324
 30
0.0
 11
988.74324664277708
 21
110.6701210416324
 31
0.0
  0
LINE
  5
4735
  8
0
 10
991.92540002700423
 20
110.31296501242829
 30
0.0
 11
991.9736759800121
 21
110.62346271096079
 31
0.0
  0
LINE
  5
4736
  8
0
 10
991.92540002700423
 20
110.31296501242829
 30
0.0
 11
992.01719540636884
 21
111.4229501789283
 31
0.0
  0
LINE
  5
4737
  8
0
 10
991.34112212921411
 20
111.4138437832929
 30
0.0
 11
991.42700980147833
 21
110.3129623043725
 31
0.0
  0
LINE
  5
4738
  8
0
 10
987.00449896877706
 20
110.58029342563241
 30
0.0
 11
986.92815792680915
 21
110.3129623043725
 31
0.0
  0
ARC
  5
4739
  8
0
 10
993.42868192042329
 20
111.08320811586449
 30
0.0
 40
0.2502798565639522
 50
270.02113506429191
 51
359.939265824968
  0
ARC
  5
473A
  8
0
 10
988.02007366586884
 20
110.9229428164324
 30
0.0
 40
0.69
 50
270.0
 51
314.99999999989922
  0
LINE
  5
473B
  8
0
 10
992.51173288136874
 20
111.8613967347283
 30
0.0
 11
993.4268438870688
 21
111.8679899115283
 31
0.0
  0
ARC
  5
473C
  8
0
 10
992.69557789703254
 20
115.2047482742073
 30
0.0
 40
4.466666449830976
 50
282.40121817411671
 51
344.83716634701608
  0
ARC
  5
473D
  8
0
 10
992.22814626833974
 20
110.57367175260769
 30
0.0
 40
0.2592957137618832
 50
90.996169617015013
 51
168.92908326421039
  0
ARC
  5
473E
  8
0
 10
990.8423200319736
 20
111.3729145709805
 30
0.0
 40
0.5004785036663609
 50
4.6908967639526544
 51
90.220317347396247
  0
ARC
  5
473F
  8
0
 10
992.51715318970935
 20
111.3571576412467
 30
0.0
 40
0.5042682253897043
 50
90.61587614790534
 51
172.50317144442499
  0
ARC
  5
4740
  8
0
 10
991.6063315686082
 20
102.1492001349762
 30
0.0
 40
9.7543074756429782
 50
84.67410115203954
 51
94.503664041312391
  0
ARC
  5
4741
  8
0
 10
993.93322463067716
 20
111.58761101528501
 30
0.0
 40
0.2577222471318198
 50
99.910480207639552
 51
170.86983036506351
  0
ARC
  5
4742
  8
0
 10
993.54529817276205
 20
119.0941972431373
 30
0.0
 40
7.2271522883676367
 50
269.06164080333423
 51
272.72715425149067
  0
ARC
  5
4743
  8
0
 10
991.67620480570304
 20
110.3329389961776
 30
0.0
 40
0.2499944366302508
 50
184.5833089473872
 51
355.41731369791432
  0
ARC
  5
4744
  8
0
 10
990.88915740859863
 20
110.1955707654604
 30
0.0
 40
0.5505142776845134
 50
12.31227904209166
 51
87.969005858588844
  0
ARC
  5
4745
  8
0
 10
987.2402297916218
 20
110.5176831412854
 30
0.0
 40
0.2439038100256892
 50
141.31840865683901
 51
165.12561562949449
  0
ENDSEC
  0
EOF
