  0
SECTION
  2
HEADER
  9
$ACADVER
  1
AC1009
  9
$INSBASE
 10
45.985818046536018
 20
9.3499620448999536
 30
0.0
  9
$EXTMIN
 10
36.013700463448977
 20
2.0200320448998328
 30
0.0
  9
$EXTMAX
 10
55.957935629623073
 20
9.3626939259178901
 30
0.0
  9
$LIMMIN
 10
0.0
 20
0.0
  9
$LIMMAX
 10
11.692913385800001
 20
8.2677165353999982
  9
$ORTHOMODE
 70
     1
  9
$REGENMODE
 70
     1
  9
$FILLMODE
 70
     1
  9
$QTEXTMODE
 70
     0
  9
$MIRRTEXT
 70
     0
  9
$DRAGMODE
 70
     2
  9
$LTSCALE
 40
0.6431102362
  9
$OSMODE
 70
  3071
  9
$ATTMODE
 70
     1
  9
$TEXTSIZE
 40
0.2
  9
$TRACEWID
 40
0.05
  9
$TEXTSTYLE
  7
STANDARD
  9
$CLAYER
  8
0
  9
$CELTYPE
  6
BYLAYER
  9
$CECOLOR
 62
   256
  9
$DIMSCALE
 40
1.0
  9
$DIMASZ
 40
0.1875
  9
$DIMEXO
 40
0.0625
  9
$DIMDLI
 40
0.4443307087
  9
$DIMRND
 40
0.0
  9
$DIMDLE
 40
0.0
  9
$DIMEXE
 40
0.125
  9
$DIMTP
 40
0.01
  9
$DIMTM
 40
0.01
  9
$DIMTXT
 40
0.15625
  9
$DIMCEN
 40
0.1052362205
  9
$DIMTSZ
 40
0.0
  9
$DIMTOL
 70
     1
  9
$DIMLIM
 70
     0
  9
$DIMTIH
 70
     1
  9
$DIMTOH
 70
     1
  9
$DIMSE1
 70
     0
  9
$DIMSE2
 70
     0
  9
$DIMTAD
 70
     0
  9
$DIMZIN
 70
     0
  9
$DIMBLK
  1

  9
$DIMASO
 70
     1
  9
$DIMSHO
 70
     1
  9
$DIMPOST
  1

  9
$DIMAPOST
  1

  9
$DIMALT
 70
     0
  9
$DIMALTD
 70
     2
  9
$DIMALTF
 40
25.399999999999999
  9
$DIMLFAC
 40
1.0
  9
$DIMTOFL
 70
     0
  9
$DIMTVP
 40
0.0
  9
$DIMTIX
 70
     0
  9
$DIMSOXD
 70
     0
  9
$DIMSAH
 70
     0
  9
$DIMBLK1
  1

  9
$DIMBLK2
  1

  9
$DIMSTYLE
  2
STANDARD
  9
$DIMCLRD
 70
     0
  9
$DIMCLRE
 70
     0
  9
$DIMCLRT
 70
     0
  9
$DIMTFAC
 40
1.0
  9
$DIMGAP
 40
0.09
  9
$LUNITS
 70
     2
  9
$LUPREC
 70
     4
  9
$SKETCHINC
 40
0.1
  9
$FILLETRAD
 40
0.0
  9
$AUNITS
 70
     0
  9
$AUPREC
 70
     0
  9
$MENU
  1
.
  9
$ELEVATION
 40
0.0
  9
$PELEVATION
 40
0.0
  9
$THICKNESS
 40
0.0
  9
$LIMCHECK
 70
     0
  9
$BLIPMODE
 70
     0
  9
$CHAMFERA
 40
0.0
  9
$CHAMFERB
 40
0.0
  9
$SKPOLY
 70
     0
  9
$TDCREATE
 40
2457730.529016667
  9
$TDUPDATE
 40
2457732.5881383559
  9
$TDINDWG
 40
0.0880621528
  9
$TDUSRTIMER
 40
0.0880621528
  9
$USRTIMER
 70
     1
  9
$ANGBASE
 50
0.0
  9
$ANGDIR
 70
     0
  9
$PDMODE
 70
     0
  9
$PDSIZE
 40
0.3125
  9
$PLINEWID
 40
0.0
  9
$COORDS
 70
     1
  9
$SPLFRAME
 70
     0
  9
$SPLINETYPE
 70
     6
  9
$SPLINESEGS
 70
     8
  9
$ATTDIA
 70
     1
  9
$ATTREQ
 70
     1
  9
$HANDLING
 70
     1
  9
$HANDSEED
  5
B5E
  9
$SURFTAB1
 70
     6
  9
$SURFTAB2
 70
     6
  9
$SURFTYPE
 70
     6
  9
$SURFU
 70
     6
  9
$SURFV
 70
     6
  9
$UCSNAME
  2

  9
$UCSORG
 10
0.0
 20
0.0
 30
0.0
  9
$UCSXDIR
 10
1.0
 20
0.0
 30
0.0
  9
$UCSYDIR
 10
0.0
 20
1.0
 30
0.0
  9
$PUCSNAME
  2

  9
$PUCSORG
 10
0.0
 20
0.0
 30
0.0
  9
$PUCSXDIR
 10
1.0
 20
0.0
 30
0.0
  9
$PUCSYDIR
 10
0.0
 20
1.0
 30
0.0
  9
$USERI1
 70
     0
  9
$USERI2
 70
     0
  9
$USERI3
 70
     0
  9
$USERI4
 70
     0
  9
$USERI5
 70
     0
  9
$USERR1
 40
0.0
  9
$USERR2
 40
0.0
  9
$USERR3
 40
0.0
  9
$USERR4
 40
0.0
  9
$USERR5
 40
0.0
  9
$WORLDVIEW
 70
     1
  9
$SHADEDGE
 70
     3
  9
$SHADEDIF
 70
    70
  9
$TILEMODE
 70
     1
  9
$MAXACTVP
 70
    64
  9
$PLIMCHECK
 70
     0
  9
$PEXTMIN
 10
1.0000000000000000E+020
 20
1.0000000000000000E+020
 30
1.0000000000000000E+020
  9
$PEXTMAX
 10
-1.0000000000000000E+020
 20
-1.0000000000000000E+020
 30
-1.0000000000000000E+020
  9
$PLIMMIN
 10
0.0
 20
0.0
  9
$PLIMMAX
 10
12.0
 20
9.0
  9
$UNITMODE
 70
     0
  9
$VISRETAIN
 70
     1
  9
$PLINEGEN
 70
     0
  9
$PSLTSCALE
 70
     1
  0
ENDSEC
  0
SECTION
  2
TABLES
  0
TABLE
  2
VPORT
 70
     1
  0
VPORT
  2
*ACTIVE
 70
     0
 10
0.0
 20
0.0
 11
1.0
 21
1.0
 12
0.0
 22
0.0
 13
0.0
 23
0.0
 14
1.0
 24
1.0
 15
0.0
 25
0.0
 16
-0.0000000000000142
 26
0.0
 36
49.795914927616842
 17
45.985818046536018
 27
5.6913629854089427
 37
0.0
 40
21.25293391187693
 41
1.642297650130548
 42
50.0
 43
0.0
 44
0.0
 50
0.0
 51
0.0
 71
     0
 72
   100
 73
     1
 74
     1
 75
     0
 76
     0
 77
     0
 78
     0
  0
ENDTAB
  0
TABLE
  2
LTYPE
 70
     3
  0
LTYPE
  2
CONTINUOUS
 70
     0
  3
Solid line
 72
    65
 73
     0
 40
0.0
  0
LTYPE
  2
PHANTOM2
 70
     0
  3
___ _ _ ___ _ _ ___ _ _ ___ _ _
 72
    65
 73
     6
 40
1.25
 49
0.625
 49
-0.125
 49
0.125
 49
-0.125
 49
0.125
 49
-0.125
  0
ENDTAB
  0
TABLE
  2
LAYER
 70
     3
  0
LAYER
  2
0
 70
     0
 62
     7
  6
CONTINUOUS
  0
LAYER
  2
DEFPOINTS
 70
     0
 62
     7
  6
CONTINUOUS
  0
ENDTAB
  0
TABLE
  2
STYLE
 70
     1
  0
STYLE
  2
STANDARD
 70
     0
 40
0.0
 41
0.8
 50
0.0
 71
     0
 42
0.2
  3
txt
  4

  0
ENDTAB
  0
TABLE
  2
VIEW
 70
     0
  0
ENDTAB
  0
TABLE
  2
UCS
 70
     0
  0
ENDTAB
  0
TABLE
  2
APPID
 70
     5
  0
APPID
  2
ACAD
 70
     0
  0
APPID
  2
ACAD_NAV_VCDISPLAY
 70
     0
  0
APPID
  2
ACAD_MLEADERVER
 70
     0
  0
APPID
  2
ACAD_EXEMPT_FROM_CAD_STANDARDS
 70
     0
  0
APPID
  2
AcDbAttr
 70
     0
  0
ENDTAB
  0
TABLE
  2
DIMSTYLE
 70
     2
  0
DIMSTYLE
  2
STANDARD
 70
     0
  3

  4

  5

  6

  7

 40
1.0
 41
0.1875
 42
0.0625
 43
0.38
 44
0.125
 45
0.0
 46
0.0
 47
0.01
 48
0.01
140
0.15625
141
0.09
142
0.0
143
25.399999999999999
144
1.0
145
0.0
146
1.0
147
0.09
 71
     1
 72
     0
 73
     1
 74
     1
 75
     0
 76
     0
 77
     0
 78
     4
170
     0
171
     2
172
     0
173
     0
174
     0
175
     0
176
     0
177
     0
178
     0
  0
ENDTAB
  0
ENDSEC
  0
SECTION
  2
BLOCKS
  0
BLOCK
  8
0
  2
$MODEL_SPACE
 70
     0
 10
0.0
 20
0.0
 30
0.0
  3
$MODEL_SPACE
  1

  0
ENDBLK
  5
21
  8
0
  0
BLOCK
 67
     1
  8
0
  2
$PAPER_SPACE
 70
     0
 10
0.0
 20
0.0
 30
0.0
  3
$PAPER_SPACE
  1

  0
ENDBLK
  5
1D
 67
     1
  8
0
  0
BLOCK
  8
0
  2
A$C34256A5C
 70
     2
 10
0.0
 20
0.0
 30
0.0
  3
A$C34256A5C
  1

  0
ATTDEF
  5
772
  8
DEFPOINTS
 10
-0.0000000008036558
 20
-0.000000002400351
 30
0.0
 40
0.001
  1
BRASS
  3

  2
MATERIAL
 70
     0
1001
AcDbAttr
1070
     0
1070
     1
  0
ATTDEF
  5
773
  8
DEFPOINTS
 10
-0.0000000008036558
 20
0.0016666642663141
 30
0.0
 40
0.001
  1
THERMOSTATIC TEMPERING VALVE
  3

  2
PRODUCT
 70
     0
1001
AcDbAttr
1070
     0
1070
     1
  0
ATTDEF
  5
774
  8
DEFPOINTS
 10
-0.0000000008036558
 20
0.0033333309329793
 30
0.0
 40
0.001
  1

  3

  2
TRADENAME
 70
     0
1001
AcDbAttr
1070
     0
1070
     1
  0
ATTDEF
  5
775
  8
DEFPOINTS
 10
-0.0000000008036558
 20
0.0049999975996444
 30
0.0
 40
0.001
  1
K-99799
  3

  2
MODELNUMBER
 70
     0
1001
AcDbAttr
1070
     0
1070
     1
  0
ENDBLK
  5
779
  8
0
  0
ENDSEC
  0
SECTION
  2
ENTITIES
  0
LINE
  5
A53
  8
0
 10
36.072866916172117
 20
9.3499620448999075
 30
0.0
 11
55.89770989603398
 21
9.3499620448999998
 31
0.0
  0
ARC
  5
A54
  8
0
 10
55.89105605560659
 20
9.2834009650956872
 30
0.0
 40
0.0668928317321803
 50
1.140747074442005
 51
84.291339452905774
  0
LINE
  5
A55
  8
0
 10
55.957935629623059
 20
9.284732699500001
 30
0.0
 11
55.935989765062018
 21
9.0390505369250782
 31
0.0
  0
ARC
  5
A56
  8
0
 10
55.687979824123808
 20
9.0607464903593691
 30
0.0
 40
0.248957115181696
 50
280.28687186575058
 51
355.0004825710983
  0
LINE
  5
A57
  8
0
 10
55.732437782533992
 20
8.8157911165999998
 30
0.0
 11
55.153096975885397
 21
8.7059060265137074
 31
0.0
  0
ARC
  5
A58
  8
0
 10
55.196445413336207
 20
8.4591734037286752
 30
0.0
 40
0.2505116248316784
 50
99.964596500547074
 51
159.94890692424769
  0
ARC
  5
A59
  8
0
 10
48.307069544839727
 20
11.031548647815249
 30
0.0
 40
7.1034477536587186
 50
308.65195255038668
 51
339.51028577560999
  0
ARC
  5
A5A
  8
0
 10
47.514663074338927
 20
12.113101811151401
 30
0.0
 40
8.4432093977794533
 50
282.63220353254832
 51
308.26723841827862
  0
ARC
  5
A5B
  8
0
 10
46.74503335618418
 20
15.013719678992681
 30
0.0
 40
11.442521255746019
 50
274.67402728580839
 51
283.2163562473354
  0
ARC
  5
A5C
  8
0
 10
47.6985611683426
 20
3.360064428544066
 30
0.0
 40
0.2500798643091317
 50
94.843271218918716
 51
174.98479734070821
  0
LINE
  5
A5D
  8
0
 10
47.449438725433971
 20
3.3819264268999989
 30
0.0
 11
47.350254287156922
 21
2.2482431092130861
 31
0.0
  0
ARC
  5
A5E
  8
0
 10
47.101205612633983
 20
2.2700320448999971
 30
0.0
 40
0.2499999999999978
 50
270.0
 51
355.00000000000051
  0
LINE
  5
A5F
  8
0
 10
55.732005817494411
 20
8.8153619302855883
 30
0.0
 11
47.170000526733979
 21
8.8141901406999992
 31
0.0
  0
ARC
  5
A60
  8
0
 10
47.288937220836097
 20
10.053500121647961
 30
0.0
 40
1.2450040827568289
 50
259.34142327400798
 51
264.51810745858228
  0
ARC
  5
A61
  8
0
 10
47.910047759334503
 20
12.92159863157406
 30
0.0
 40
4.1792611178882151
 50
252.35333273195391
 51
258.24566371577168
  0
ARC
  5
A62
  8
0
 10
46.903771749694997
 20
10.04570841569258
 30
0.0
 40
1.136991703603381
 50
242.9401248797482
 51
256.74730717225088
  0
ARC
  5
A63
  8
0
 10
46.385569844936811
 20
9.0231450611874493
 30
0.0
 40
0.01008211925662
 50
84.535661348039028
 51
158.6305199733176
  0
ARC
  5
A64
  8
0
 10
47.189643664052511
 20
9.7177692390443173
 30
0.0
 40
1.0673023172810621
 50
220.34437436882709
 51
235.02141586754919
  0
ARC
  5
A65
  8
0
 10
47.599963034243324
 20
10.12375915192742
 30
0.0
 40
1.6384504283038259
 50
231.4010645997418
 51
244.9154237261624
  0
ARC
  5
A66
  8
0
 10
47.134961340835972
 20
9.1455641016046059
 30
0.0
 40
0.5554130076215765
 50
245.5790397473566
 51
256.01170367067442
  0
ARC
  5
A67
  8
0
 10
46.689393055779732
 20
7.2140764423813879
 30
0.0
 40
1.4269189211613971
 50
64.114734962680117
 51
77.398391892155374
  0
LINE
  5
A68
  8
0
 10
47.312343664764903
 20
8.4978327067608106
 30
0.0
 11
47.383685193733967
 21
3.381463291999999
 31
0.0
  0
ARC
  5
A69
  8
0
 10
45.788440561240833
 20
3.9316489290912031
 30
0.0
 40
1.6874565691476759
 50
307.22576687971451
 51
340.97114292889972
  0
ARC
  5
A6A
  8
0
 10
45.985288108199661
 20
3.692203542698608
 30
0.0
 40
1.377763206993339
 50
233.26860392478301
 51
306.73141880602611
  0
LINE
  5
A6B
  8
0
 10
47.101203799633979
 20
2.0200320449000002
 30
0.0
 11
44.869371199633981
 21
2.0200320449000002
 31
0.0
  0
ARC
  5
A6C
  8
0
 10
36.082005360671793
 20
9.2822247726794931
 30
0.0
 40
0.0683509269559388
 50
97.683390949952397
 51
177.89714644156979
  0
LINE
  5
A6D
  8
0
 10
36.013700463448991
 20
9.2847328059962173
 30
0.0
 11
36.034586759405947
 21
9.0390505369250782
 31
0.0
  0
ARC
  5
A6E
  8
0
 10
36.282596700344143
 20
9.0607464903593691
 30
0.0
 40
0.248957115181696
 50
184.9995174289017
 51
259.71312813424942
  0
LINE
  5
A6F
  8
0
 10
36.23813874193398
 20
8.8157911165999998
 30
0.0
 11
36.817479548582561
 21
8.7059060265137074
 31
0.0
  0
ARC
  5
A70
  8
0
 10
36.774131111131751
 20
8.4591734037286752
 30
0.0
 40
0.2505116248316784
 50
20.051093075752298
 51
80.035403499452912
  0
ARC
  5
A71
  8
0
 10
43.663506979628231
 20
11.031548647815249
 30
0.0
 40
7.1034477536587186
 50
200.4897142243899
 51
231.3480474496132
  0
ARC
  5
A72
  8
0
 10
44.455913450129032
 20
12.113101811151401
 30
0.0
 40
8.4432093977794533
 50
231.73276158172149
 51
257.3677964674518
  0
ARC
  5
A73
  8
0
 10
45.225543168283792
 20
15.013719678992681
 30
0.0
 40
11.442521255746019
 50
256.7836437526646
 51
265.32597271419189
  0
ARC
  5
A74
  8
0
 10
44.272015356125358
 20
3.360064428544066
 30
0.0
 40
0.2500798643091317
 50
5.0152026592917531
 51
85.15672878108127
  0
LINE
  5
A75
  8
0
 10
44.52113779903398
 20
3.3819264268999989
 30
0.0
 11
44.620322237311044
 21
2.2482431092130861
 31
0.0
  0
ARC
  5
A76
  8
0
 10
44.869370911759979
 20
2.2700320448190552
 30
0.0
 40
0.2499999999192215
 50
184.99999998299739
 51
270.00006597586179
  0
LINE
  5
A77
  8
0
 10
36.238570706973562
 20
8.8153619302855883
 30
0.0
 11
44.800575997733979
 21
8.8141901406999992
 31
0.0
  0
ARC
  5
A78
  8
0
 10
44.681639303631862
 20
10.053500121647961
 30
0.0
 40
1.2450040827568289
 50
275.48189254141772
 51
280.65857672599202
  0
ARC
  5
A79
  8
0
 10
44.060528765133448
 20
12.92159863157406
 30
0.0
 40
4.1792611178882151
 50
281.75433628422832
 51
287.64666726804609
  0
ARC
  5
A7A
  8
0
 10
45.066804774772962
 20
10.04570841569258
 30
0.0
 40
1.136991703603381
 50
283.252692827749
 51
297.05987512025177
  0
ARC
  5
A7B
  8
0
 10
45.585006679531141
 20
9.0231450611874493
 30
0.0
 40
0.01008211925662
 50
21.36948002668235
 51
95.464338651960986
  0
ARC
  5
A7C
  8
0
 10
44.78093286041544
 20
9.7177692390443173
 30
0.0
 40
1.0673023172810621
 50
304.97858413245069
 51
319.655625631173
  0
ARC
  5
A7D
  8
0
 10
44.370613490224628
 20
10.12375915192742
 30
0.0
 40
1.6384504283038259
 50
295.08457627383763
 51
308.5989354002582
  0
ARC
  5
A7E
  8
0
 10
44.83561518363198
 20
9.1455641016046059
 30
0.0
 40
0.5554130076215765
 50
283.98829632932558
 51
294.42096025264328
  0
ARC
  5
A7F
  8
0
 10
45.281183468688234
 20
7.2140764423813879
 30
0.0
 40
1.4269189211613971
 50
102.6016081078446
 51
115.8852650373199
  0
LINE
  5
A80
  8
0
 10
44.658232859703062
 20
8.4978327067608106
 30
0.0
 11
44.586891330733977
 21
3.381463291999999
 31
0.0
  0
ARC
  5
A81
  8
0
 10
46.182135963227118
 20
3.9316489290912031
 30
0.0
 40
1.6874565691476759
 50
199.0288570711003
 51
232.7742331202856
  0
ATTDEF
  5
A82
  8
DEFPOINTS
 10
45.981279647886332
 20
9.3616939259178888
 30
0.0
 40
0.001
  1
K-20000
  3

  2
MODELNUMBER
 70
     0
1001
AcDbAttr
1070
     0
1070
     1
  0
ATTDEF
  5
A83
  8
DEFPOINTS
 10
45.981279647886332
 20
9.3600272592512237
 30
0.0
 40
0.001
  1
CAXTON
  3

  2
TRADENAME
 70
     0
1001
AcDbAttr
1070
     0
1070
     1
  0
ATTDEF
  5
A84
  8
DEFPOINTS
 10
45.981279647886332
 20
9.3583605925845585
 30
0.0
 40
0.001
  1
BATHROOM SINK
  3

  2
PRODUCT
 70
     0
1001
AcDbAttr
1070
     0
1070
     1
  0
ATTDEF
  5
A85
  8
DEFPOINTS
 10
45.981279647886332
 20
9.3566939259178934
 30
0.0
 40
0.001
  1
VITREOUS CHINA
  3

  2
MATERIAL
 70
     0
1001
AcDbAttr
1070
     0
1070
     1
  0
ENDSEC
  0
EOF
