  0
SECTION
  2
HEADER
  9
$ACADVER
  1
AC1009
  9
$INSBASE
 10
5.1083620274216663
 20
25.66040277335
 30
0.0
  9
$EXTMIN
 10
-4.8643302766999996
 20
17.909631283399989
 30
0.0
  9
$EXTMAX
 10
15.0805127032
 20
33.411174263300012
 30
0.0
  9
$LIMMIN
 10
0.0
 20
0.0
  9
$LIMMAX
 10
11.692913385800001
 20
8.2677165353999982
  9
$ORTHOMODE
 70
     1
  9
$REGENMODE
 70
     1
  9
$FILLMODE
 70
     1
  9
$QTEXTMODE
 70
     0
  9
$MIRRTEXT
 70
     0
  9
$DRAGMODE
 70
     2
  9
$LTSCALE
 40
0.6431102362
  9
$OSMODE
 70
  3071
  9
$ATTMODE
 70
     1
  9
$TEXTSIZE
 40
0.2
  9
$TRACEWID
 40
0.05
  9
$TEXTSTYLE
  7
STANDARD
  9
$CLAYER
  8
0
  9
$CELTYPE
  6
BYLAYER
  9
$CECOLOR
 62
   256
  9
$DIMSCALE
 40
1.0
  9
$DIMASZ
 40
0.1875
  9
$DIMEXO
 40
0.0625
  9
$DIMDLI
 40
0.4443307087
  9
$DIMRND
 40
0.0
  9
$DIMDLE
 40
0.0
  9
$DIMEXE
 40
0.125
  9
$DIMTP
 40
0.01
  9
$DIMTM
 40
0.01
  9
$DIMTXT
 40
0.15625
  9
$DIMCEN
 40
0.1052362205
  9
$DIMTSZ
 40
0.0
  9
$DIMTOL
 70
     1
  9
$DIMLIM
 70
     0
  9
$DIMTIH
 70
     1
  9
$DIMTOH
 70
     1
  9
$DIMSE1
 70
     0
  9
$DIMSE2
 70
     0
  9
$DIMTAD
 70
     0
  9
$DIMZIN
 70
     0
  9
$DIMBLK
  1

  9
$DIMASO
 70
     1
  9
$DIMSHO
 70
     1
  9
$DIMPOST
  1

  9
$DIMAPOST
  1

  9
$DIMALT
 70
     0
  9
$DIMALTD
 70
     2
  9
$DIMALTF
 40
25.399999999999999
  9
$DIMLFAC
 40
1.0
  9
$DIMTOFL
 70
     0
  9
$DIMTVP
 40
0.0
  9
$DIMTIX
 70
     0
  9
$DIMSOXD
 70
     0
  9
$DIMSAH
 70
     0
  9
$DIMBLK1
  1

  9
$DIMBLK2
  1

  9
$DIMSTYLE
  2
STANDARD
  9
$DIMCLRD
 70
     0
  9
$DIMCLRE
 70
     0
  9
$DIMCLRT
 70
     0
  9
$DIMTFAC
 40
1.0
  9
$DIMGAP
 40
0.09
  9
$LUNITS
 70
     2
  9
$LUPREC
 70
     4
  9
$SKETCHINC
 40
0.1
  9
$FILLETRAD
 40
0.0
  9
$AUNITS
 70
     0
  9
$AUPREC
 70
     0
  9
$MENU
  1
.
  9
$ELEVATION
 40
0.0
  9
$PELEVATION
 40
0.0
  9
$THICKNESS
 40
0.0
  9
$LIMCHECK
 70
     0
  9
$BLIPMODE
 70
     0
  9
$CHAMFERA
 40
0.0
  9
$CHAMFERB
 40
0.0
  9
$SKPOLY
 70
     0
  9
$TDCREATE
 40
2457730.529016667
  9
$TDUPDATE
 40
2457732.5865322798
  9
$TDINDWG
 40
0.0865549074
  9
$TDUSRTIMER
 40
0.0865549074
  9
$USRTIMER
 70
     1
  9
$ANGBASE
 50
0.0
  9
$ANGDIR
 70
     0
  9
$PDMODE
 70
     0
  9
$PDSIZE
 40
0.3125
  9
$PLINEWID
 40
0.0
  9
$COORDS
 70
     1
  9
$SPLFRAME
 70
     0
  9
$SPLINETYPE
 70
     6
  9
$SPLINESEGS
 70
     8
  9
$ATTDIA
 70
     1
  9
$ATTREQ
 70
     1
  9
$HANDLING
 70
     1
  9
$HANDSEED
  5
9B4
  9
$SURFTAB1
 70
     6
  9
$SURFTAB2
 70
     6
  9
$SURFTYPE
 70
     6
  9
$SURFU
 70
     6
  9
$SURFV
 70
     6
  9
$UCSNAME
  2

  9
$UCSORG
 10
0.0
 20
0.0
 30
0.0
  9
$UCSXDIR
 10
1.0
 20
0.0
 30
0.0
  9
$UCSYDIR
 10
0.0
 20
1.0
 30
0.0
  9
$PUCSNAME
  2

  9
$PUCSORG
 10
0.0
 20
0.0
 30
0.0
  9
$PUCSXDIR
 10
1.0
 20
0.0
 30
0.0
  9
$PUCSYDIR
 10
0.0
 20
1.0
 30
0.0
  9
$USERI1
 70
     0
  9
$USERI2
 70
     0
  9
$USERI3
 70
     0
  9
$USERI4
 70
     0
  9
$USERI5
 70
     0
  9
$USERR1
 40
0.0
  9
$USERR2
 40
0.0
  9
$USERR3
 40
0.0
  9
$USERR4
 40
0.0
  9
$USERR5
 40
0.0
  9
$WORLDVIEW
 70
     1
  9
$SHADEDGE
 70
     3
  9
$SHADEDIF
 70
    70
  9
$TILEMODE
 70
     1
  9
$MAXACTVP
 70
    64
  9
$PLIMCHECK
 70
     0
  9
$PEXTMIN
 10
1.0000000000000000E+020
 20
1.0000000000000000E+020
 30
1.0000000000000000E+020
  9
$PEXTMAX
 10
-1.0000000000000000E+020
 20
-1.0000000000000000E+020
 30
-1.0000000000000000E+020
  9
$PLIMMIN
 10
0.0
 20
0.0
  9
$PLIMMAX
 10
12.0
 20
9.0
  9
$UNITMODE
 70
     0
  9
$VISRETAIN
 70
     1
  9
$PLINEGEN
 70
     0
  9
$PSLTSCALE
 70
     1
  0
ENDSEC
  0
SECTION
  2
TABLES
  0
TABLE
  2
VPORT
 70
     1
  0
VPORT
  2
*ACTIVE
 70
     0
 10
0.0
 20
0.0
 11
1.0
 21
1.0
 12
0.0
 22
0.0
 13
0.0
 23
0.0
 14
1.0
 24
1.0
 15
0.0
 25
0.0
 16
-0.0000000000000133
 26
0.0
 36
59.185777612104921
 17
5.1080912132499989
 27
25.66040277335
 37
0.0
 40
25.260534361936081
 41
1.642297650130548
 42
50.0
 43
0.0
 44
0.0
 50
0.0
 51
0.0
 71
     0
 72
   100
 73
     1
 74
     1
 75
     0
 76
     0
 77
     0
 78
     0
  0
ENDTAB
  0
TABLE
  2
LTYPE
 70
     2
  0
LTYPE
  2
CONTINUOUS
 70
     0
  3
Solid line
 72
    65
 73
     0
 40
0.0
  0
LTYPE
  2
PHANTOM2
 70
     0
  3
___ _ _ ___ _ _ ___ _ _ ___ _ _
 72
    65
 73
     6
 40
1.25
 49
0.625
 49
-0.125
 49
0.125
 49
-0.125
 49
0.125
 49
-0.125
  0
ENDTAB
  0
TABLE
  2
LAYER
 70
     3
  0
LAYER
  2
0
 70
     0
 62
     7
  6
CONTINUOUS
  0
LAYER
  2
DEFPOINTS
 70
     0
 62
     7
  6
CONTINUOUS
  0
ENDTAB
  0
TABLE
  2
STYLE
 70
     1
  0
STYLE
  2
STANDARD
 70
     0
 40
0.0
 41
0.8
 50
0.0
 71
     0
 42
0.2
  3
txt
  4

  0
ENDTAB
  0
TABLE
  2
VIEW
 70
     0
  0
ENDTAB
  0
TABLE
  2
UCS
 70
     0
  0
ENDTAB
  0
TABLE
  2
APPID
 70
     5
  0
APPID
  2
ACAD
 70
     0
  0
APPID
  2
ACAD_NAV_VCDISPLAY
 70
     0
  0
APPID
  2
ACAD_MLEADERVER
 70
     0
  0
APPID
  2
ACAD_EXEMPT_FROM_CAD_STANDARDS
 70
     0
  0
APPID
  2
AcDbAttr
 70
     0
  0
ENDTAB
  0
TABLE
  2
DIMSTYLE
 70
     1
  0
DIMSTYLE
  2
STANDARD
 70
     0
  3

  4

  5

  6

  7

 40
1.0
 41
0.1875
 42
0.0625
 43
0.38
 44
0.125
 45
0.0
 46
0.0
 47
0.01
 48
0.01
140
0.15625
141
0.09
142
0.0
143
25.399999999999999
144
1.0
145
0.0
146
1.0
147
0.09
 71
     1
 72
     0
 73
     1
 74
     1
 75
     0
 76
     0
 77
     0
 78
     4
170
     0
171
     2
172
     0
173
     0
174
     0
175
     0
176
     0
177
     0
178
     0
  0
ENDTAB
  0
ENDSEC
  0
SECTION
  2
BLOCKS
  0
BLOCK
  8
0
  2
$MODEL_SPACE
 70
     0
 10
0.0
 20
0.0
 30
0.0
  3
$MODEL_SPACE
  1

  0
ENDBLK
  5
21
  8
0
  0
BLOCK
 67
     1
  8
0
  2
$PAPER_SPACE
 70
     0
 10
0.0
 20
0.0
 30
0.0
  3
$PAPER_SPACE
  1

  0
ENDBLK
  5
1D
 67
     1
  8
0
  0
ENDSEC
  0
SECTION
  2
ENTITIES
  0
ARC
  5
4D4
  8
0
 10
12.54634238045838
 20
30.877004053059231
 30
0.0
 40
2.5356071218064948
 50
358.0709976592741
 51
91.928999790379365
  0
LINE
  5
4D5
  8
0
 10
15.080512586899999
 20
30.791652773399999
 30
0.0
 11
15.0805127032
 21
20.5291527756
 31
0.0
  0
ARC
  5
4D6
  8
0
 10
12.55315805164242
 20
20.436985935038489
 30
0.0
 40
2.5290346500688332
 50
267.91147959555281
 51
2.0885204547542142
  0
LINE
  5
4DE
  8
0
 10
12.4609912133
 20
17.9096312834
 30
0.0
 11
-2.2448087869999989
 21
17.9096312834
 31
0.0
  0
ARC
  5
4DF
  8
0
 10
-2.3320570461597079
 20
20.441095841590279
 30
0.0
 40
2.532967485047557
 50
178.0077488606974
 51
271.97394798415559
  0
LINE
  5
4E0
  8
0
 10
-4.863493448099999
 20
20.5291527734
 30
0.0
 11
-4.8643302766999996
 21
30.791652771100001
 31
0.0
  0
ARC
  5
4E1
  8
0
 10
-2.3301816302453351
 20
30.87702561677364
 30
0.0
 40
2.5355863000707402
 50
88.070494264547577
 51
181.92950578357221
  0
LINE
  5
4E2
  8
0
 10
-2.2448087866999988
 20
33.411174263299998
 30
0.0
 11
12.4609912136
 21
33.411174263299998
 31
0.0
  0
CIRCLE
  5
4E4
  8
0
 10
5.1080912132999989
 20
25.660402773400001
 30
0.0
 40
0.875
  0
CIRCLE
  5
4E5
  8
0
 10
5.1091147438000002
 20
25.660402773400008
 30
0.0
 40
1.114744805270685
  0
ARC
  5
4E6
  8
0
 10
7.0993045938225334
 20
321.17732075160461
 30
0.0
 40
302.01575444218929
 50
269.62243590791439
 51
270.9948510143177
  0
ARC
  5
4E7
  8
0
 10
12.353174774389631
 20
20.569760351188421
 30
0.0
 40
1.362705509840028
 50
269.5751022794571
 51
2.4121937274980771
  0
ARC
  5
4E8
  8
0
 10
-134.80532207671041
 20
25.66039600935348
 30
0.0
 40
148.60525831371061
 50
358.05901237938292
 51
1.9409927248944601
  0
ARC
  5
4E9
  8
0
 10
12.352362026115321
 20
30.7500568548028
 30
0.0
 40
1.3634758874022499
 50
357.63072557199712
 51
90.403917156246223
  0
ARC
  5
4EA
  8
0
 10
7.0455561810100749
 20
-277.7849524397609
 30
0.0
 40
309.94372131321268
 50
89.020720190514822
 51
90.358159503722874
  0
ARC
  5
4EB
  8
0
 10
5.116512596779053
 20
18.512103647748479
 30
0.0
 40
1.0433600666770131
 50
74.222114801006057
 51
90.406254099944306
  0
ARC
  5
4EC
  8
0
 10
5.3010467134475281
 20
19.165195440496689
 30
0.0
 40
0.3646983468418034
 50
51.878903449449943
 51
74.222114801005986
  0
ARC
  5
4ED
  8
0
 10
5.4935401052182993
 20
19.410505291619181
 30
0.0
 40
0.0528800841740255
 50
304.03092936562189
 51
51.878903449452267
  0
ARC
  5
4EE
  8
0
 10
5.3435374593496139
 20
19.63263461179351
 30
0.0
 40
0.3209140906894566
 50
278.6890390288462
 51
304.03092936562189
  0
ARC
  5
4EF
  8
0
 10
5.1231697933286702
 20
20.68855119684628
 30
0.0
 40
1.399218937804489
 50
269.38254431289408
 51
281.07781460091979
  0
ARC
  5
4F0
  8
0
 10
5.1017168908209474
 20
18.512103647748479
 30
0.0
 40
1.0433600666770131
 50
89.59374590005568
 51
105.777885198994
  0
ARC
  5
4F1
  8
0
 10
4.9171827741524723
 20
19.165195440496689
 30
0.0
 40
0.3646983468418034
 50
105.777885198994
 51
128.12109655054999
  0
ARC
  5
4F2
  8
0
 10
4.7246893823817011
 20
19.410505291619181
 30
0.0
 40
0.0528800841740255
 50
128.12109655054769
 51
235.96907063437811
  0
ARC
  5
4F3
  8
0
 10
4.8746920282503847
 20
19.63263461179351
 30
0.0
 40
0.3209140906894566
 50
235.96907063437811
 51
261.31096097115392
  0
ARC
  5
4F4
  8
0
 10
5.0950596942713302
 20
20.68855119684628
 30
0.0
 40
1.399218937804489
 50
258.92218539908009
 51
270.6174556871058
  0
ARC
  5
4F5
  8
0
 10
3.1179552639538159
 20
321.27136613704761
 30
0.0
 40
302.10980417545818
 50
269.00525432606707
 51
270.37763044738591
  0
ARC
  5
4F6
  8
0
 10
-2.136992468901961
 20
20.5697605373804
 30
0.0
 40
1.362705509840028
 50
177.58780480005311
 51
270.42489624809423
  0
ARC
  5
4F7
  8
0
 10
145.02150451302259
 20
25.660392413707541
 30
0.0
 40
148.60525831371049
 50
178.05900580265671
 51
181.94098614816829
  0
ARC
  5
4F8
  8
0
 10
-2.1361794590034071
 20
30.7500570409739
 30
0.0
 40
1.3634758874022499
 50
89.596081371305004
 51
182.36927295555421
  0
ARC
  5
4F9
  8
0
 10
3.17061835066395
 20
-277.78494294059351
 30
0.0
 40
309.94371186339862
 50
89.641839031318113
 51
90.979278347229567
  0
ATTDEF
  5
7C3
  8
DEFPOINTS
 10
5.1055050662548211
 20
25.67135152106648
 30
0.0
 40
0.001
  1
K-20000
  3

  2
MODELNUMBER
 70
     0
1001
AcDbAttr
1070
     0
1070
     1
  0
ATTDEF
  5
7C4
  8
DEFPOINTS
 10
5.1055050662548211
 20
25.669684854399812
 30
0.0
 40
0.001
  1
CAXTON
  3

  2
TRADENAME
 70
     0
1001
AcDbAttr
1070
     0
1070
     1
  0
ATTDEF
  5
7C5
  8
DEFPOINTS
 10
5.1055050662548211
 20
25.66801818773315
 30
0.0
 40
0.001
  1
BATHROOM SINK
  3

  2
PRODUCT
 70
     0
1001
AcDbAttr
1070
     0
1070
     1
  0
ATTDEF
  5
7C6
  8
DEFPOINTS
 10
5.1055050662548211
 20
25.666351521066481
 30
0.0
 40
0.001
  1
VITREOUS CHINA
  3

  2
MATERIAL
 70
     0
1001
AcDbAttr
1070
     0
1070
     1
  0
ENDSEC
  0
EOF
