  0
SECTION
  2
HEADER
  9
$ACADVER
  1
AC1009
  9
$INSBASE
 10
29.13915397890004
 20
9.3499620448999412
 30
0.0
  9
$EXTMIN
 10
21.388268329409851
 20
2.0200320448999971
 30
0.0
  9
$EXTMAX
 10
36.889811309300008
 20
9.3630554894541902
 30
0.0
  9
$LIMMIN
 10
0.0
 20
0.0
  9
$LIMMAX
 10
11.692913385800001
 20
8.2677165353999982
  9
$ORTHOMODE
 70
     0
  9
$REGENMODE
 70
     1
  9
$FILLMODE
 70
     1
  9
$QTEXTMODE
 70
     0
  9
$MIRRTEXT
 70
     0
  9
$DRAGMODE
 70
     2
  9
$LTSCALE
 40
0.6431102362
  9
$OSMODE
 70
  3071
  9
$ATTMODE
 70
     1
  9
$TEXTSIZE
 40
0.2
  9
$TRACEWID
 40
0.05
  9
$TEXTSTYLE
  7
STANDARD
  9
$CLAYER
  8
0
  9
$CELTYPE
  6
BYLAYER
  9
$CECOLOR
 62
   256
  9
$DIMSCALE
 40
1.0
  9
$DIMASZ
 40
0.1875
  9
$DIMEXO
 40
0.0625
  9
$DIMDLI
 40
0.4443307087
  9
$DIMRND
 40
0.0
  9
$DIMDLE
 40
0.0
  9
$DIMEXE
 40
0.125
  9
$DIMTP
 40
0.01
  9
$DIMTM
 40
0.01
  9
$DIMTXT
 40
0.15625
  9
$DIMCEN
 40
0.1052362205
  9
$DIMTSZ
 40
0.0
  9
$DIMTOL
 70
     1
  9
$DIMLIM
 70
     0
  9
$DIMTIH
 70
     1
  9
$DIMTOH
 70
     1
  9
$DIMSE1
 70
     0
  9
$DIMSE2
 70
     0
  9
$DIMTAD
 70
     0
  9
$DIMZIN
 70
     0
  9
$DIMBLK
  1

  9
$DIMASO
 70
     1
  9
$DIMSHO
 70
     1
  9
$DIMPOST
  1

  9
$DIMAPOST
  1

  9
$DIMALT
 70
     0
  9
$DIMALTD
 70
     2
  9
$DIMALTF
 40
25.399999999999999
  9
$DIMLFAC
 40
1.0
  9
$DIMTOFL
 70
     0
  9
$DIMTVP
 40
0.0
  9
$DIMTIX
 70
     0
  9
$DIMSOXD
 70
     0
  9
$DIMSAH
 70
     0
  9
$DIMBLK1
  1

  9
$DIMBLK2
  1

  9
$DIMSTYLE
  2
STANDARD
  9
$DIMCLRD
 70
     0
  9
$DIMCLRE
 70
     0
  9
$DIMCLRT
 70
     0
  9
$DIMTFAC
 40
1.0
  9
$DIMGAP
 40
0.09
  9
$LUNITS
 70
     2
  9
$LUPREC
 70
     4
  9
$SKETCHINC
 40
0.1
  9
$FILLETRAD
 40
0.0
  9
$AUNITS
 70
     0
  9
$AUPREC
 70
     0
  9
$MENU
  1
.
  9
$ELEVATION
 40
0.0
  9
$PELEVATION
 40
0.0
  9
$THICKNESS
 40
0.0
  9
$LIMCHECK
 70
     0
  9
$BLIPMODE
 70
     0
  9
$CHAMFERA
 40
0.0
  9
$CHAMFERB
 40
0.0
  9
$SKPOLY
 70
     0
  9
$TDCREATE
 40
2457730.529016667
  9
$TDUPDATE
 40
2457732.5736171068
  9
$TDINDWG
 40
0.0738928241
  9
$TDUSRTIMER
 40
0.0738928241
  9
$USRTIMER
 70
     1
  9
$ANGBASE
 50
0.0
  9
$ANGDIR
 70
     0
  9
$PDMODE
 70
     0
  9
$PDSIZE
 40
0.3125
  9
$PLINEWID
 40
0.0
  9
$COORDS
 70
     1
  9
$SPLFRAME
 70
     0
  9
$SPLINETYPE
 70
     6
  9
$SPLINESEGS
 70
     8
  9
$ATTDIA
 70
     1
  9
$ATTREQ
 70
     1
  9
$HANDLING
 70
     1
  9
$HANDSEED
  5
892
  9
$SURFTAB1
 70
     6
  9
$SURFTAB2
 70
     6
  9
$SURFTYPE
 70
     6
  9
$SURFU
 70
     6
  9
$SURFV
 70
     6
  9
$UCSNAME
  2

  9
$UCSORG
 10
0.0
 20
0.0
 30
0.0
  9
$UCSXDIR
 10
1.0
 20
0.0
 30
0.0
  9
$UCSYDIR
 10
0.0
 20
1.0
 30
0.0
  9
$PUCSNAME
  2

  9
$PUCSORG
 10
0.0
 20
0.0
 30
0.0
  9
$PUCSXDIR
 10
1.0
 20
0.0
 30
0.0
  9
$PUCSYDIR
 10
0.0
 20
1.0
 30
0.0
  9
$USERI1
 70
     0
  9
$USERI2
 70
     0
  9
$USERI3
 70
     0
  9
$USERI4
 70
     0
  9
$USERI5
 70
     0
  9
$USERR1
 40
0.0
  9
$USERR2
 40
0.0
  9
$USERR3
 40
0.0
  9
$USERR4
 40
0.0
  9
$USERR5
 40
0.0
  9
$WORLDVIEW
 70
     1
  9
$SHADEDGE
 70
     3
  9
$SHADEDIF
 70
    70
  9
$TILEMODE
 70
     1
  9
$MAXACTVP
 70
    64
  9
$PLIMCHECK
 70
     0
  9
$PEXTMIN
 10
1.0000000000000000E+020
 20
1.0000000000000000E+020
 30
1.0000000000000000E+020
  9
$PEXTMAX
 10
-1.0000000000000000E+020
 20
-1.0000000000000000E+020
 30
-1.0000000000000000E+020
  9
$PLIMMIN
 10
0.0
 20
0.0
  9
$PLIMMAX
 10
12.0
 20
9.0
  9
$UNITMODE
 70
     0
  9
$VISRETAIN
 70
     1
  9
$PLINEGEN
 70
     0
  9
$PSLTSCALE
 70
     1
  0
ENDSEC
  0
SECTION
  2
TABLES
  0
TABLE
  2
VPORT
 70
     1
  0
VPORT
  2
*ACTIVE
 70
     0
 10
0.0
 20
0.0
 11
1.0
 21
1.0
 12
0.0
 22
0.0
 13
0.0
 23
0.0
 14
1.0
 24
1.0
 15
0.0
 25
0.0
 16
-0.0000000000000107
 26
0.0
 36
40.188234043312541
 17
29.139041008815848
 27
5.6915437671770919
 37
0.0
 40
17.1523684904496
 41
1.642297650130548
 42
50.0
 43
0.0
 44
0.0
 50
0.0
 51
0.0
 71
     0
 72
   100
 73
     1
 74
     1
 75
     0
 76
     0
 77
     0
 78
     0
  0
ENDTAB
  0
TABLE
  2
LTYPE
 70
     3
  0
LTYPE
  2
CONTINUOUS
 70
     0
  3
Solid line
 72
    65
 73
     0
 40
0.0
  0
LTYPE
  2
PHANTOM2
 70
     0
  3
___ _ _ ___ _ _ ___ _ _ ___ _ _
 72
    65
 73
     6
 40
1.25
 49
0.625
 49
-0.125
 49
0.125
 49
-0.125
 49
0.125
 49
-0.125
  0
ENDTAB
  0
TABLE
  2
LAYER
 70
     3
  0
LAYER
  2
0
 70
     0
 62
     7
  6
CONTINUOUS
  0
LAYER
  2
DEFPOINTS
 70
     0
 62
     7
  6
CONTINUOUS
  0
ENDTAB
  0
TABLE
  2
STYLE
 70
     1
  0
STYLE
  2
STANDARD
 70
     0
 40
0.0
 41
0.8
 50
0.0
 71
     0
 42
0.2
  3
txt
  4

  0
ENDTAB
  0
TABLE
  2
VIEW
 70
     0
  0
ENDTAB
  0
TABLE
  2
UCS
 70
     0
  0
ENDTAB
  0
TABLE
  2
APPID
 70
     5
  0
APPID
  2
ACAD
 70
     0
  0
APPID
  2
ACAD_NAV_VCDISPLAY
 70
     0
  0
APPID
  2
ACAD_MLEADERVER
 70
     0
  0
APPID
  2
ACAD_EXEMPT_FROM_CAD_STANDARDS
 70
     0
  0
APPID
  2
AcDbAttr
 70
     0
  0
ENDTAB
  0
TABLE
  2
DIMSTYLE
 70
     2
  0
DIMSTYLE
  2
STANDARD
 70
     0
  3

  4

  5

  6

  7

 40
1.0
 41
0.1875
 42
0.0625
 43
0.38
 44
0.125
 45
0.0
 46
0.0
 47
0.01
 48
0.01
140
0.15625
141
0.09
142
0.0
143
25.399999999999999
144
1.0
145
0.0
146
1.0
147
0.09
 71
     1
 72
     0
 73
     1
 74
     1
 75
     0
 76
     0
 77
     0
 78
     4
170
     0
171
     2
172
     0
173
     0
174
     0
175
     0
176
     0
177
     0
178
     0
  0
ENDTAB
  0
ENDSEC
  0
SECTION
  2
BLOCKS
  0
BLOCK
  8
0
  2
$MODEL_SPACE
 70
     0
 10
0.0
 20
0.0
 30
0.0
  3
$MODEL_SPACE
  1

  0
ENDBLK
  5
21
  8
0
  0
BLOCK
 67
     1
  8
0
  2
$PAPER_SPACE
 70
     0
 10
0.0
 20
0.0
 30
0.0
  3
$PAPER_SPACE
  1

  0
ENDBLK
  5
1D
 67
     1
  8
0
  0
ENDSEC
  0
SECTION
  2
ENTITIES
  0
LINE
  5
5F4
  8
0
 10
21.448268329449149
 20
9.3499620448998861
 30
0.0
 11
36.829811309299998
 21
9.3499620448999998
 31
0.0
  0
ARC
  5
5F5
  8
0
 10
36.829811309300013
 20
9.2899620448999993
 30
0.0
 40
0.0600000000000005
 50
355.02612224408921
 51
90.000000000000455
  0
LINE
  5
5F6
  8
0
 10
36.889585369131701
 20
9.2847599519331254
 30
0.0
 11
36.86810823364906
 21
9.0379793600583298
 31
0.0
  0
ARC
  5
5F7
  8
0
 10
36.619340472876253
 20
9.0596294374053414
 30
0.0
 40
0.2497080788621952
 50
280.85720402019069
 51
355.02612224408858
  0
LINE
  5
5F8
  8
0
 10
36.666375969832693
 20
8.8143912130700812
 30
0.0
 11
36.159635719513652
 21
8.7172009012164189
 31
0.0
  0
ARC
  5
5F9
  8
0
 10
36.210759806272783
 20
8.4697800687999312
 30
0.0
 40
0.2526474630005655
 50
101.6746164567235
 51
164.34244426319839
  0
ARC
  5
5FA
  8
0
 10
29.116957860728601
 20
10.098194933720579
 30
0.0
 40
7.0259569328392324
 50
327.05493986076618
 51
347.16957184103182
  0
ARC
  5
5FB
  8
0
 10
29.956518187753041
 20
9.5863748835849911
 30
0.0
 40
6.0431194270348687
 50
300.36046473510919
 51
326.79831772839037
  0
ARC
  5
5FC
  8
0
 10
30.043718907468481
 20
9.4325821536683794
 30
0.0
 40
5.8663433548982677
 50
277.61315231825301
 51
300.38478933028023
  0
ARC
  5
5FD
  8
0
 10
30.85317218144921
 20
3.36996562201585
 30
0.0
 40
0.2500732452220403
 50
97.411267606945842
 51
174.98665295710401
  0
LINE
  5
5FE
  8
0
 10
30.604055624400001
 20
3.3918189736999991
 30
0.0
 11
30.504005700299999
 21
2.248243109199997
 31
0.0
  0
ARC
  5
5FF
  8
0
 10
30.254957025816061
 20
2.2700320448586861
 30
0.0
 40
0.249999999958689
 50
269.99999999631967
 51
355.00000000566632
  0
LINE
  5
600
  8
0
 10
30.2549570258
 20
2.0200320449000002
 30
0.0
 11
28.020042343185342
 21
2.0200510217420389
 31
0.0
  0
ARC
  5
601
  8
0
 10
28.023122612799991
 20
2.2700320449000011
 30
0.0
 40
0.2499999999999929
 50
185.00000000301091
 51
269.29403634256482
  0
ARC
  5
602
  8
0
 10
27.513727050437488
 20
2.2807182853594128
 30
0.0
 40
0.2623645156550949
 50
352.88975902743653
 51
81.337569697892718
  0
ARC
  5
603
  8
0
 10
28.140395641674289
 20
9.0299066286682468
 30
0.0
 40
6.5163232809733422
 50
237.68390022852631
 51
264.83035340824858
  0
ARC
  5
604
  8
0
 10
28.668554748809921
 20
9.6850901735843866
 30
0.0
 40
7.3530030232832617
 50
200.0376302206279
 51
236.935060494212
  0
ARC
  5
605
  8
0
 10
29.383967024378631
 20
10.156429103566889
 30
0.0
 40
8.1889944167245812
 50
195.24998309509479
 51
201.42087445324921
  0
ARC
  5
606
  8
0
 10
22.563411528593281
 20
8.2855842997881108
 30
0.0
 40
1.1165720532208461
 50
182.70167707001889
 51
194.6880630481715
  0
ARC
  5
607
  8
0
 10
9.2927826077887747
 20
8.0719260804377004
 30
0.0
 40
12.156364506912251
 50
0.7589838795236853
 51
5.7257657372150561
  0
ARC
  5
608
  8
0
 10
21.448268329393809
 20
9.2899620449159244
 30
0.0
 40
0.0599999999839631
 50
89.999999947156994
 51
185.00001069049779
  0
ARC
  5
609
  8
0
 10
21.658498267056402
 20
9.0586694026078671
 30
0.0
 40
0.2486590384291647
 50
184.71726901048561
 51
259.23082052631088
  0
LINE
  5
60A
  8
0
 10
21.612035605640202
 20
8.8143897708604761
 30
0.0
 11
36.666044420500008
 21
8.8143877377000024
 31
0.0
  0
ARC
  5
60B
  8
0
 10
21.863663907072642
 20
9.0393518184149624
 30
0.0
 40
0.4506517124603113
 50
183.0634682429679
 51
242.4384564883307
  0
ARC
  5
60C
  8
0
 10
21.831854157007871
 20
8.9780993164634548
 30
0.0
 40
0.3816321105324441
 50
242.417167323288
 51
256.75308293748083
  0
ARC
  5
60D
  8
0
 10
-2.1326400631969431
 20
-88.697662930359698
 30
0.0
 40
100.19100289876749
 50
75.954212193996838
 51
76.212873590532254
  0
ARC
  5
60E
  8
0
 10
29.372014506999541
 20
10.198175217899861
 30
0.0
 40
7.3869323989995221
 50
193.3077747855998
 51
201.77758544866401
  0
ARC
  5
60F
  8
0
 10
28.169193575200939
 20
9.4846359133639702
 30
0.0
 40
6.0091256076956361
 50
199.7141657428661
 51
267.05935843701963
  0
ARC
  5
610
  8
0
 10
29.064947438031108
 20
21.456666904592659
 30
0.0
 40
18.013527823204051
 50
266.16747397064643
 51
268.63610647090547
  0
LINE
  5
611
  8
0
 10
28.636186122428569
 20
3.448242532327622
 30
0.0
 11
28.705318855200002
 21
3.3814825463
 31
0.0
  0
LINE
  5
612
  8
0
 10
28.705318855200002
 20
3.3814825463
 30
0.0
 11
30.604054527076588
 21
3.391819069984737
 31
0.0
  0
LINE
  5
613
  8
0
 10
28.705335673600011
 20
3.381463291999999
 30
0.0
 11
27.77316818204817
 21
2.319775145237104
 31
0.0
  0
ATTDEF
  5
801
  8
DEFPOINTS
 10
29.13548894460785
 20
9.3620554894541872
 30
0.0
 40
0.001
  1
K-20000
  3

  2
MODELNUMBER
 70
     0
1001
AcDbAttr
1070
     0
1070
     1
  0
ATTDEF
  5
802
  8
DEFPOINTS
 10
29.13548894460785
 20
9.3603888227875238
 30
0.0
 40
0.001
  1
CAXTON
  3

  2
TRADENAME
 70
     0
1001
AcDbAttr
1070
     0
1070
     1
  0
ATTDEF
  5
803
  8
DEFPOINTS
 10
29.13548894460785
 20
9.3587221561208587
 30
0.0
 40
0.001
  1
BATHROOM SINK
  3

  2
PRODUCT
 70
     0
1001
AcDbAttr
1070
     0
1070
     1
  0
ATTDEF
  5
804
  8
DEFPOINTS
 10
29.13548894460785
 20
9.3570554894541935
 30
0.0
 40
0.001
  1
VITREOUS CHINA
  3

  2
MATERIAL
 70
     0
1001
AcDbAttr
1070
     0
1070
     1
  0
ENDSEC
  0
EOF
