  0
SECTION
  2
HEADER
  9
$ACADVER
  1
AC1009
  9
$INSBASE
 10
0.0
 20
0.0
 30
0.0
  9
$EXTMIN
 10
-10.228322
 20
-7.990477
 30
0.0
  9
$EXTMAX
 10
10.228322
 20
0.630849
 30
0.0
  9
$LIMMIN
 10
0.0
 20
0.0
  9
$LIMMAX
 10
12.0
 20
9.0
  9
$ORTHOMODE
 70
     0
  9
$REGENMODE
 70
     1
  9
$FILLMODE
 70
     0
  9
$QTEXTMODE
 70
     0
  9
$MIRRTEXT
 70
     1
  9
$DRAGMODE
 70
     2
  9
$LTSCALE
 40
1.0
  9
$OSMODE
 70
     0
  9
$ATTMODE
 70
     1
  9
$TEXTSIZE
 40
0.001
  9
$TRACEWID
 40
0.05
  9
$TEXTSTYLE
  7
STANDARD
  9
$CLAYER
  8
0
  9
$CELTYPE
  6
BYLAYER
  9
$CECOLOR
 62
   256
  9
$DIMSCALE
 40
1.0
  9
$DIMASZ
 40
0.18
  9
$DIMEXO
 40
0.0625
  9
$DIMDLI
 40
0.38
  9
$DIMRND
 40
0.0
  9
$DIMDLE
 40
0.0
  9
$DIMEXE
 40
0.18
  9
$DIMTP
 40
0.0
  9
$DIMTM
 40
0.0
  9
$DIMTXT
 40
0.18
  9
$DIMCEN
 40
0.09
  9
$DIMTSZ
 40
0.0
  9
$DIMTOL
 70
     0
  9
$DIMLIM
 70
     0
  9
$DIMTIH
 70
     1
  9
$DIMTOH
 70
     1
  9
$DIMSE1
 70
     0
  9
$DIMSE2
 70
     0
  9
$DIMTAD
 70
     0
  9
$DIMZIN
 70
     0
  9
$DIMBLK
  1

  9
$DIMASO
 70
     1
  9
$DIMSHO
 70
     1
  9
$DIMPOST
  1

  9
$DIMAPOST
  1

  9
$DIMALT
 70
     0
  9
$DIMALTD
 70
     2
  9
$DIMALTF
 40
25.4
  9
$DIMLFAC
 40
1.0
  9
$DIMTOFL
 70
     0
  9
$DIMTVP
 40
0.0
  9
$DIMTIX
 70
     0
  9
$DIMSOXD
 70
     0
  9
$DIMSAH
 70
     0
  9
$DIMBLK1
  1

  9
$DIMBLK2
  1

  9
$DIMSTYLE
  2
*UNNAMED
  9
$DIMCLRD
 70
     0
  9
$DIMCLRE
 70
     0
  9
$DIMCLRT
 70
     0
  9
$DIMTFAC
 40
1.0
  9
$DIMGAP
 40
0.09
  9
$LUNITS
 70
     2
  9
$LUPREC
 70
     4
  9
$SKETCHINC
 40
0.1
  9
$FILLETRAD
 40
0.0
  9
$AUNITS
 70
     0
  9
$AUPREC
 70
     0
  9
$MENU
  1
acad
  9
$ELEVATION
 40
0.0
  9
$PELEVATION
 40
0.0
  9
$THICKNESS
 40
0.0
  9
$LIMCHECK
 70
     0
  9
$BLIPMODE
 70
     0
  9
$CHAMFERA
 40
0.0
  9
$CHAMFERB
 40
0.0
  9
$SKPOLY
 70
     0
  9
$TDCREATE
 40
2450912.647226967
  9
$TDUPDATE
 40
2450912.647985995
  9
$TDINDWG
 40
0.0000425926
  9
$TDUSRTIMER
 40
0.0000425926
  9
$USRTIMER
 70
     1
  9
$ANGBASE
 50
0.0
  9
$ANGDIR
 70
     0
  9
$PDMODE
 70
     0
  9
$PDSIZE
 40
0.0
  9
$PLINEWID
 40
0.0
  9
$COORDS
 70
     1
  9
$SPLFRAME
 70
     0
  9
$SPLINETYPE
 70
     6
  9
$SPLINESEGS
 70
     8
  9
$ATTDIA
 70
     0
  9
$ATTREQ
 70
     1
  9
$HANDLING
 70
     0
  9
$HANDSEED
  5
0
  9
$SURFTAB1
 70
     6
  9
$SURFTAB2
 70
     6
  9
$SURFTYPE
 70
     6
  9
$SURFU
 70
     6
  9
$SURFV
 70
     6
  9
$UCSNAME
  2

  9
$UCSORG
 10
0.0
 20
0.0
 30
0.0
  9
$UCSXDIR
 10
1.0
 20
0.0
 30
0.0
  9
$UCSYDIR
 10
0.0
 20
1.0
 30
0.0
  9
$PUCSNAME
  2

  9
$PUCSORG
 10
0.0
 20
0.0
 30
0.0
  9
$PUCSXDIR
 10
1.0
 20
0.0
 30
0.0
  9
$PUCSYDIR
 10
0.0
 20
1.0
 30
0.0
  9
$USERI1
 70
     0
  9
$USERI2
 70
     0
  9
$USERI3
 70
     0
  9
$USERI4
 70
     0
  9
$USERI5
 70
     0
  9
$USERR1
 40
0.0
  9
$USERR2
 40
0.0
  9
$USERR3
 40
0.0
  9
$USERR4
 40
0.0
  9
$USERR5
 40
0.0
  9
$WORLDVIEW
 70
     1
  9
$SHADEDGE
 70
     3
  9
$SHADEDIF
 70
    70
  9
$TILEMODE
 70
     1
  9
$MAXACTVP
 70
    16
  9
$PINSBASE
 10
0.0
 20
0.0
 30
0.0
  9
$PLIMCHECK
 70
     0
  9
$PEXTMIN
 10
1.000000E+20
 20
1.000000E+20
 30
1.000000E+20
  9
$PEXTMAX
 10
-1.000000E+20
 20
-1.000000E+20
 30
-1.000000E+20
  9
$PLIMMIN
 10
0.0
 20
0.0
  9
$PLIMMAX
 10
12.0
 20
9.0
  9
$UNITMODE
 70
     0
  9
$VISRETAIN
 70
     0
  9
$PLINEGEN
 70
     0
  9
$PSLTSCALE
 70
     1
  9
$TREEDEPTH
 70
  3020
  9
$DWGCODEPAGE
  3
iso8859-1
  0
ENDSEC
  0
SECTION
  2
TABLES
  0
TABLE
  2
VPORT
 70
     2
  0
VPORT
  2
*ACTIVE
 70
     0
 10
0.0
 20
0.0
 11
1.0
 21
1.0
 12
0.834011
 22
-1.061019
 13
0.0
 23
0.0
 14
1.0
 24
1.0
 15
0.0
 25
0.0
 16
0.0
 26
0.0
 36
1.0
 17
0.0
 27
0.0
 37
0.0
 40
15.375152
 41
1.573846
 42
50.0
 43
0.0
 44
0.0
 50
0.0
 51
0.0
 71
     0
 72
 10000
 73
     1
 74
     1
 75
     0
 76
     0
 77
     0
 78
     0
  0
ENDTAB
  0
TABLE
  2
LTYPE
 70
     2
  0
LTYPE
  2
CONTINUOUS
 70
    64
  3
Solid line
 72
    65
 73
     0
 40
0.0
  0
LTYPE
  2
HIDDEN
 70
    64
  3
__ __ __ __ __ __ __ __ __ __ __ __ __ __ __ __
 72
    65
 73
     2
 40
0.375
 49
0.25
 49
-0.125
  0
ENDTAB
  0
TABLE
  2
LAYER
 70
     1
  0
LAYER
  2
0
 70
    64
 62
     7
  6
CONTINUOUS
  0
ENDTAB
  0
TABLE
  2
STYLE
 70
     1
  0
STYLE
  2
STANDARD
 70
    64
 40
0.0
 41
1.0
 50
0.0
 71
     0
 42
0.001
  3
txt
  4

  0
ENDTAB
  0
TABLE
  2
VIEW
 70
     0
  0
ENDTAB
  0
TABLE
  2
UCS
 70
     0
  0
ENDTAB
  0
TABLE
  2
APPID
 70
     1
  0
APPID
  2
ACAD
 70
    64
  0
ENDTAB
  0
TABLE
  2
DIMSTYLE
 70
     0
  0
ENDTAB
  0
ENDSEC
  0
SECTION
  2
BLOCKS
  0
ENDSEC
  0
SECTION
  2
ENTITIES
  0
ARC
  8
0
  6
HIDDEN
 10
-0.253009
 20
-6.930462
 30
0.0
 40
0.55739
 50
197.41139
 51
231.866966
  0
LINE
  8
0
  6
HIDDEN
 10
-1.040437
 20
-7.979837
 30
0.0
 11
0.0
 21
-7.979837
 31
0.0
  0
LINE
  8
0
 10
10.092601
 20
0.0
 30
0.0
 11
-10.092601
 21
0.0
 31
0.0
  0
LINE
  8
0
 10
-9.584438
 20
0.527279
 30
0.0
 11
9.584438
 21
0.527279
 31
0.0
  0
ARC
  8
0
  6
HIDDEN
 10
-0.602608
 20
0.667671
 30
0.0
 40
8.481307
 50
184.515145
 51
208.646656
  0
LINE
  8
0
  6
HIDDEN
 10
-1.022472
 20
-6.790437
 30
0.0
 11
-1.022472
 21
0.0
 31
0.0
  0
LINE
  8
0
  6
HIDDEN
 10
-0.78432
 20
0.0
 30
0.0
 11
-0.78432
 21
-7.084627
 31
0.0
  0
ARC
  8
0
  6
HIDDEN
 10
2.376034
 20
16.045462
 30
0.0
 40
23.312426
 50
251.87281
 51
260.460706
  0
ARC
  8
0
  6
HIDDEN
 10
-1.538268
 20
-7.247343
 30
0.0
 40
0.306984
 50
8.233728
 51
80.460706
  0
LINE
  8
0
  6
HIDDEN
 10
-1.234449
 20
-7.203379
 30
0.0
 11
-1.101515
 21
-7.918794
 31
0.0
  0
ARC
  8
0
  6
HIDDEN
 10
-1.03249
 20
-7.910808
 30
0.0
 40
0.069485
 50
186.599185
 51
263.43303
  0
ARC
  8
0
  6
HIDDEN
 10
-1.847098
 20
0.63794
 30
0.0
 40
7.396934
 50
213.070274
 51
245.818423
  0
LINE
  8
0
  6
HIDDEN
 10
-1.487394
 20
-6.944604
 30
0.0
 11
-1.151814
 21
-6.944604
 31
0.0
  0
ARC
  8
0
  6
HIDDEN
 10
-1.151814
 20
-6.813264
 30
0.0
 40
0.13134
 50
270.0
 51
10.008475
  0
ARC
  8
0
 10
-9.584438
 20
-0.03193
 30
0.0
 40
0.559209
 50
90.0
 51
172.028906
  0
ARC
  8
0
 10
-10.098227
 20
0.040014
 30
0.0
 40
0.040408
 50
172.028906
 51
278.003777
  0
ARC
  8
0
  6
HIDDEN
 10
0.602608
 20
0.667671
 30
0.0
 40
8.481307
 50
331.353344
 51
355.484855
  0
LINE
  8
0
  6
HIDDEN
 10
0.78432
 20
0.0
 30
0.0
 11
0.78432
 21
-7.084627
 31
0.0
  0
LINE
  8
0
  6
HIDDEN
 10
1.022472
 20
-6.790437
 30
0.0
 11
1.022472
 21
0.0
 31
0.0
  0
ARC
  8
0
  6
HIDDEN
 10
1.847098
 20
0.63794
 30
0.0
 40
7.396934
 50
294.181577
 51
326.929726
  0
ARC
  8
0
  6
HIDDEN
 10
1.538268
 20
-7.247343
 30
0.0
 40
0.306984
 50
99.539294
 51
171.766272
  0
ARC
  8
0
  6
HIDDEN
 10
-0.00889
 20
-6.596847
 30
0.0
 40
0.981525
 50
270.518939
 51
308.133034
  0
LINE
  8
0
  6
HIDDEN
 10
1.040437
 20
-7.979837
 30
0.0
 11
0.0
 21
-7.979837
 31
0.0
  0
ARC
  8
0
  6
HIDDEN
 10
0.00889
 20
-6.596847
 30
0.0
 40
0.981525
 50
231.866966
 51
269.481061
  0
LINE
  8
0
  6
HIDDEN
 10
1.234449
 20
-7.203379
 30
0.0
 11
1.101515
 21
-7.918794
 31
0.0
  0
ARC
  8
0
  6
HIDDEN
 10
1.03249
 20
-7.910808
 30
0.0
 40
0.069485
 50
276.56697
 51
353.400815
  0
ARC
  8
0
  6
HIDDEN
 10
0.253009
 20
-6.930462
 30
0.0
 40
0.55739
 50
308.133034
 51
342.58861
  0
ARC
  8
0
  6
HIDDEN
 10
-2.376034
 20
16.045462
 30
0.0
 40
23.312426
 50
279.539294
 51
288.12719
  0
LINE
  8
0
  6
HIDDEN
 10
1.487394
 20
-6.944604
 30
0.0
 11
1.151814
 21
-6.944604
 31
0.0
  0
ARC
  8
0
  6
HIDDEN
 10
1.151814
 20
-6.813264
 30
0.0
 40
0.13134
 50
169.991525
 51
270.0
  0
ARC
  8
0
 10
9.584438
 20
-0.03193
 30
0.0
 40
0.559209
 50
7.971094
 51
90.0
  0
ARC
  8
0
 10
10.098227
 20
0.040014
 30
0.0
 40
0.040408
 50
261.996223
 51
7.971094
  0
ATTDEF
  8
0
 10
0.0
 20
0.0
 30
0.0
 40
0.001
  1
K-2196-8
  3

  2
MODELNUMBER
 70
     8
  0
ATTDEF
  8
0
 10
0.0
 20
-0.001667
 30
0.0
 40
0.001
  1
PENNINGTON
  3

  2
TRADENAME
 70
     8
  0
ATTDEF
  8
0
 10
0.0
 20
-0.003333
 30
0.0
 40
0.001
  1
LAVATORY
  3

  2
PRODUCT
 70
     8
  0
ATTDEF
  8
0
 10
0.0
 20
-0.005
 30
0.0
 40
0.001
  1
VITREOUS CHINA
  3

  2
MATERIAL
 70
     8
  0
ENDSEC
  0
EOF
