  0
SECTION
  2
HEADER
  9
$ACADVER
  1
AC1009
  9
$INSBASE
 10
0.0
 20
0.0
 30
0.0
  9
$EXTMIN
 10
-10.309187
 20
-8.919688
 30
0.0
  9
$EXTMAX
 10
10.309187
 20
8.919688
 30
0.0
  9
$LIMMIN
 10
0.0
 20
0.0
  9
$LIMMAX
 10
12.0
 20
9.0
  9
$ORTHOMODE
 70
     0
  9
$REGENMODE
 70
     1
  9
$FILLMODE
 70
     0
  9
$QTEXTMODE
 70
     0
  9
$MIRRTEXT
 70
     1
  9
$DRAGMODE
 70
     2
  9
$LTSCALE
 40
1.0
  9
$OSMODE
 70
     0
  9
$ATTMODE
 70
     1
  9
$TEXTSIZE
 40
0.001
  9
$TRACEWID
 40
0.05
  9
$TEXTSTYLE
  7
STANDARD
  9
$CLAYER
  8
0
  9
$CELTYPE
  6
BYLAYER
  9
$CECOLOR
 62
   256
  9
$DIMSCALE
 40
1.0
  9
$DIMASZ
 40
0.18
  9
$DIMEXO
 40
0.0625
  9
$DIMDLI
 40
0.38
  9
$DIMRND
 40
0.0
  9
$DIMDLE
 40
0.0
  9
$DIMEXE
 40
0.18
  9
$DIMTP
 40
0.0
  9
$DIMTM
 40
0.0
  9
$DIMTXT
 40
0.18
  9
$DIMCEN
 40
0.09
  9
$DIMTSZ
 40
0.0
  9
$DIMTOL
 70
     0
  9
$DIMLIM
 70
     0
  9
$DIMTIH
 70
     1
  9
$DIMTOH
 70
     1
  9
$DIMSE1
 70
     0
  9
$DIMSE2
 70
     0
  9
$DIMTAD
 70
     0
  9
$DIMZIN
 70
     0
  9
$DIMBLK
  1

  9
$DIMASO
 70
     1
  9
$DIMSHO
 70
     1
  9
$DIMPOST
  1

  9
$DIMAPOST
  1

  9
$DIMALT
 70
     0
  9
$DIMALTD
 70
     2
  9
$DIMALTF
 40
25.4
  9
$DIMLFAC
 40
1.0
  9
$DIMTOFL
 70
     0
  9
$DIMTVP
 40
0.0
  9
$DIMTIX
 70
     0
  9
$DIMSOXD
 70
     0
  9
$DIMSAH
 70
     0
  9
$DIMBLK1
  1

  9
$DIMBLK2
  1

  9
$DIMSTYLE
  2
*UNNAMED
  9
$DIMCLRD
 70
     0
  9
$DIMCLRE
 70
     0
  9
$DIMCLRT
 70
     0
  9
$DIMTFAC
 40
1.0
  9
$DIMGAP
 40
0.09
  9
$LUNITS
 70
     2
  9
$LUPREC
 70
     4
  9
$SKETCHINC
 40
0.1
  9
$FILLETRAD
 40
0.0
  9
$AUNITS
 70
     0
  9
$AUPREC
 70
     0
  9
$MENU
  1
acad
  9
$ELEVATION
 40
0.0
  9
$PELEVATION
 40
0.0
  9
$THICKNESS
 40
0.0
  9
$LIMCHECK
 70
     0
  9
$BLIPMODE
 70
     0
  9
$CHAMFERA
 40
0.0
  9
$CHAMFERB
 40
0.0
  9
$SKPOLY
 70
     0
  9
$TDCREATE
 40
2450912.647890624
  9
$TDUPDATE
 40
2450912.648061689
  9
$TDINDWG
 40
0.0000375000
  9
$TDUSRTIMER
 40
0.0000375000
  9
$USRTIMER
 70
     1
  9
$ANGBASE
 50
0.0
  9
$ANGDIR
 70
     0
  9
$PDMODE
 70
     0
  9
$PDSIZE
 40
0.0
  9
$PLINEWID
 40
0.0
  9
$COORDS
 70
     1
  9
$SPLFRAME
 70
     0
  9
$SPLINETYPE
 70
     6
  9
$SPLINESEGS
 70
     8
  9
$ATTDIA
 70
     0
  9
$ATTREQ
 70
     1
  9
$HANDLING
 70
     0
  9
$HANDSEED
  5
0
  9
$SURFTAB1
 70
     6
  9
$SURFTAB2
 70
     6
  9
$SURFTYPE
 70
     6
  9
$SURFU
 70
     6
  9
$SURFV
 70
     6
  9
$UCSNAME
  2

  9
$UCSORG
 10
0.0
 20
0.0
 30
0.0
  9
$UCSXDIR
 10
1.0
 20
0.0
 30
0.0
  9
$UCSYDIR
 10
0.0
 20
1.0
 30
0.0
  9
$PUCSNAME
  2

  9
$PUCSORG
 10
0.0
 20
0.0
 30
0.0
  9
$PUCSXDIR
 10
1.0
 20
0.0
 30
0.0
  9
$PUCSYDIR
 10
0.0
 20
1.0
 30
0.0
  9
$USERI1
 70
     0
  9
$USERI2
 70
     0
  9
$USERI3
 70
     0
  9
$USERI4
 70
     0
  9
$USERI5
 70
     0
  9
$USERR1
 40
0.0
  9
$USERR2
 40
0.0
  9
$USERR3
 40
0.0
  9
$USERR4
 40
0.0
  9
$USERR5
 40
0.0
  9
$WORLDVIEW
 70
     1
  9
$SHADEDGE
 70
     3
  9
$SHADEDIF
 70
    70
  9
$TILEMODE
 70
     1
  9
$MAXACTVP
 70
    16
  9
$PINSBASE
 10
0.0
 20
0.0
 30
0.0
  9
$PLIMCHECK
 70
     0
  9
$PEXTMIN
 10
1.000000E+20
 20
1.000000E+20
 30
1.000000E+20
  9
$PEXTMAX
 10
-1.000000E+20
 20
-1.000000E+20
 30
-1.000000E+20
  9
$PLIMMIN
 10
0.0
 20
0.0
  9
$PLIMMAX
 10
12.0
 20
9.0
  9
$UNITMODE
 70
     0
  9
$VISRETAIN
 70
     0
  9
$PLINEGEN
 70
     0
  9
$PSLTSCALE
 70
     1
  9
$TREEDEPTH
 70
  3020
  9
$DWGCODEPAGE
  3
iso8859-1
  0
ENDSEC
  0
SECTION
  2
TABLES
  0
TABLE
  2
VPORT
 70
     2
  0
VPORT
  2
*ACTIVE
 70
     0
 10
0.0
 20
0.0
 11
1.0
 21
1.0
 12
3.751628
 22
0.0
 13
0.0
 23
0.0
 14
1.0
 24
1.0
 15
0.0
 25
0.0
 16
0.0
 26
0.0
 36
1.0
 17
0.0
 27
0.0
 37
0.0
 40
19.444444
 41
1.573846
 42
50.0
 43
0.0
 44
0.0
 50
0.0
 51
0.0
 71
     0
 72
 10000
 73
     1
 74
     1
 75
     0
 76
     0
 77
     0
 78
     0
  0
ENDTAB
  0
TABLE
  2
LTYPE
 70
     1
  0
LTYPE
  2
CONTINUOUS
 70
    64
  3
Solid line
 72
    65
 73
     0
 40
0.0
  0
ENDTAB
  0
TABLE
  2
LAYER
 70
     1
  0
LAYER
  2
0
 70
    64
 62
     7
  6
CONTINUOUS
  0
ENDTAB
  0
TABLE
  2
STYLE
 70
     1
  0
STYLE
  2
STANDARD
 70
    64
 40
0.0
 41
1.0
 50
0.0
 71
     0
 42
0.001
  3
txt
  4

  0
ENDTAB
  0
TABLE
  2
VIEW
 70
     0
  0
ENDTAB
  0
TABLE
  2
UCS
 70
     0
  0
ENDTAB
  0
TABLE
  2
APPID
 70
     1
  0
APPID
  2
ACAD
 70
    64
  0
ENDTAB
  0
TABLE
  2
DIMSTYLE
 70
     0
  0
ENDTAB
  0
ENDSEC
  0
SECTION
  2
BLOCKS
  0
ENDSEC
  0
SECTION
  2
ENTITIES
  0
ARC
  8
0
 10
-0.17865
 20
2.266281
 30
0.0
 40
9.687886
 50
238.225729
 51
262.503596
  0
ARC
  8
0
 10
0.514216
 20
1.502308
 30
0.0
 40
10.163046
 50
289.695455
 51
310.833495
  0
ARC
  8
0
 10
-0.514216
 20
1.502308
 30
0.0
 40
10.163046
 50
229.166505
 51
250.304545
  0
ARC
  8
0
 10
0.514216
 20
1.502308
 30
0.0
 40
9.663046
 50
289.695455
 51
310.833495
  0
ARC
  8
0
 10
-0.514216
 20
1.502308
 30
0.0
 40
9.663046
 50
229.166505
 51
250.304545
  0
ARC
  8
0
 10
0.17865
 20
2.266281
 30
0.0
 40
9.687886
 50
277.496404
 51
301.774271
  0
ARC
  8
0
 10
-0.250385
 20
1.101095
 30
0.0
 40
8.523684
 50
261.959831
 51
271.683317
  0
ARC
  8
0
 10
0.0
 20
2.938817
 30
0.0
 40
11.688817
 50
250.304545
 51
270.0
  0
ARC
  8
0
 10
0.0
 20
2.938817
 30
0.0
 40
11.188817
 50
250.304545
 51
270.0
  0
ARC
  8
0
 10
0.0
 20
2.938817
 30
0.0
 40
11.688817
 50
270.0
 51
289.695455
  0
ARC
  8
0
 10
0.0
 20
2.938817
 30
0.0
 40
11.188817
 50
270.0
 51
289.695455
  0
ARC
  8
0
 10
0.250385
 20
1.101095
 30
0.0
 40
8.523684
 50
268.316683
 51
278.040169
  0
ARC
  8
0
 10
0.0
 20
-2.938817
 30
0.0
 40
11.688817
 50
90.0
 51
109.695455
  0
ARC
  8
0
 10
0.0
 20
-2.938817
 30
0.0
 40
11.188817
 50
90.0
 51
109.695455
  0
CIRCLE
  8
0
 10
0.03379
 20
1.54301
 30
0.0
 40
0.84701
  0
CIRCLE
  8
0
 10
0.060391
 20
1.554404
 30
0.0
 40
1.330035
  0
ARC
  8
0
 10
-0.441684
 20
-8.518458
 30
0.0
 40
12.63524
 50
87.996731
 51
117.245918
  0
ARC
  8
0
 10
-2.529301
 20
0.0
 30
0.0
 40
7.595699
 50
154.391401
 51
180.0
  0
ARC
  8
0
 10
-2.529301
 20
0.0
 30
0.0
 40
7.095699
 50
154.391401
 51
180.0
  0
ARC
  8
0
 10
-3.613848
 20
-1.014311
 30
0.0
 40
4.816722
 50
174.76737
 51
214.99949
  0
ARC
  8
0
 10
-1.305657
 20
0.586498
 30
0.0
 40
8.952638
 50
205.608599
 51
229.166505
  0
ARC
  8
0
 10
-1.305657
 20
0.586498
 30
0.0
 40
8.452638
 50
205.608599
 51
229.166505
  0
ARC
  8
0
 10
-2.529301
 20
0.0
 30
0.0
 40
7.595699
 50
180.0
 51
205.608599
  0
ARC
  8
0
 10
-2.529301
 20
0.0
 30
0.0
 40
7.095699
 50
180.0
 51
205.608599
  0
ARC
  8
0
 10
0.008143
 20
1.809081
 30
0.0
 40
9.406057
 50
216.433182
 51
235.791204
  0
ARC
  8
0
 10
-4.296002
 20
-0.936687
 30
0.0
 40
4.130359
 50
117.860934
 51
174.97667
  0
ARC
  8
0
 10
-1.305657
 20
-0.586498
 30
0.0
 40
8.952638
 50
130.833495
 51
154.391401
  0
ARC
  8
0
 10
-1.305657
 20
-0.586498
 30
0.0
 40
8.452638
 50
130.833495
 51
154.391401
  0
ARC
  8
0
 10
-0.514216
 20
-1.502308
 30
0.0
 40
10.163046
 50
109.695455
 51
130.833495
  0
ARC
  8
0
 10
-0.514216
 20
-1.502308
 30
0.0
 40
9.663046
 50
109.695455
 51
130.833495
  0
LINE
  8
0
 10
-3.766535
 20
5.850868
 30
0.0
 11
-3.766535
 21
5.850868
 31
0.0
  0
ARC
  8
0
 10
2.529301
 20
0.0
 30
0.0
 40
7.095699
 50
0.0
 51
25.608599
  0
ARC
  8
0
 10
4.296002
 20
-0.936687
 30
0.0
 40
4.130359
 50
5.02333
 51
62.139066
  0
ARC
  8
0
 10
2.529301
 20
0.0
 30
0.0
 40
7.595699
 50
0.0
 51
25.608599
  0
ARC
  8
0
 10
0.441684
 20
-8.518458
 30
0.0
 40
12.63524
 50
62.754082
 51
92.003269
  0
ARC
  8
0
 10
1.305657
 20
0.586498
 30
0.0
 40
8.952638
 50
310.833495
 51
334.391401
  0
ARC
  8
0
 10
1.305657
 20
0.586498
 30
0.0
 40
8.452638
 50
310.833495
 51
334.391401
  0
ARC
  8
0
 10
-0.008143
 20
1.809081
 30
0.0
 40
9.406057
 50
304.208796
 51
323.566818
  0
ARC
  8
0
 10
2.529301
 20
0.0
 30
0.0
 40
7.595699
 50
334.391401
 51
0.0
  0
ARC
  8
0
 10
2.529301
 20
0.0
 30
0.0
 40
7.095699
 50
334.391401
 51
360.0
  0
ARC
  8
0
 10
3.613848
 20
-1.014311
 30
0.0
 40
4.816722
 50
325.00051
 51
5.23263
  0
ARC
  8
0
 10
1.305657
 20
-0.586498
 30
0.0
 40
8.952638
 50
25.608599
 51
49.166505
  0
ARC
  8
0
 10
1.305657
 20
-0.586498
 30
0.0
 40
8.452638
 50
25.608599
 51
49.166505
  0
ARC
  8
0
 10
0.0
 20
-2.938817
 30
0.0
 40
11.188817
 50
70.304545
 51
90.0
  0
ARC
  8
0
 10
0.514216
 20
-1.502308
 30
0.0
 40
10.163046
 50
49.166505
 51
70.304545
  0
LINE
  8
0
 10
-0.020886
 20
6.318812
 30
0.0
 11
-0.020886
 21
6.318812
 31
0.0
  0
ARC
  8
0
 10
0.514216
 20
-1.502308
 30
0.0
 40
9.663046
 50
49.166505
 51
70.304545
  0
LINE
  8
0
 10
3.703953
 20
5.850868
 30
0.0
 11
3.703953
 21
5.850868
 31
0.0
  0
ARC
  8
0
 10
0.0
 20
-2.938817
 30
0.0
 40
11.688817
 50
70.304545
 51
90.0
  0
ATTDEF
  8
0
 10
0.0
 20
0.0
 30
0.0
 40
0.001
  1
K-2196-8
  3

  2
MODELNUMBER
 70
     8
  0
ATTDEF
  8
0
 10
0.0
 20
-0.001667
 30
0.0
 40
0.001
  1
PENNINGTON
  3

  2
TRADENAME
 70
     8
  0
ATTDEF
  8
0
 10
0.0
 20
-0.003333
 30
0.0
 40
0.001
  1
LAVATORY
  3

  2
PRODUCT
 70
     8
  0
ATTDEF
  8
0
 10
0.0
 20
-0.005
 30
0.0
 40
0.001
  1
VITREOUS CHINA
  3

  2
MATERIAL
 70
     8
  0
ENDSEC
  0
EOF
