  0
SECTION
  2
HEADER
  9
$ACADVER
  1
AC1009
  9
$INSBASE
 10
0.0
 20
0.0
 30
0.0
  9
$EXTMIN
 10
0.0
 20
-17.18999999999999
 30
0.0
  9
$EXTMAX
 10
21.344509
 20
3.168710017255149
 30
5.5
  9
$LIMMIN
 10
0.0
 20
0.0
  9
$LIMMAX
 10
12.0
 20
9.0
  9
$ORTHOMODE
 70
     1
  9
$REGENMODE
 70
     1
  9
$FILLMODE
 70
     1
  9
$QTEXTMODE
 70
     0
  9
$MIRRTEXT
 70
     1
  9
$DRAGMODE
 70
     2
  9
$LTSCALE
 40
1.0
  9
$OSMODE
 70
     0
  9
$ATTMODE
 70
     1
  9
$TEXTSIZE
 40
0.2
  9
$TRACEWID
 40
0.05
  9
$TEXTSTYLE
  7
STANDARD
  9
$CLAYER
  8
0
  9
$CELTYPE
  6
BYLAYER
  9
$CECOLOR
 62
   256
  9
$DIMSCALE
 40
1.0
  9
$DIMASZ
 40
0.18
  9
$DIMEXO
 40
0.0625
  9
$DIMDLI
 40
0.38
  9
$DIMRND
 40
0.0
  9
$DIMDLE
 40
0.0
  9
$DIMEXE
 40
0.18
  9
$DIMTP
 40
0.0
  9
$DIMTM
 40
0.0
  9
$DIMTXT
 40
0.18
  9
$DIMCEN
 40
0.09
  9
$DIMTSZ
 40
0.0
  9
$DIMTOL
 70
     0
  9
$DIMLIM
 70
     0
  9
$DIMTIH
 70
     1
  9
$DIMTOH
 70
     1
  9
$DIMSE1
 70
     0
  9
$DIMSE2
 70
     0
  9
$DIMTAD
 70
     0
  9
$DIMZIN
 70
     0
  9
$DIMBLK
  1

  9
$DIMASO
 70
     1
  9
$DIMSHO
 70
     1
  9
$DIMPOST
  1

  9
$DIMAPOST
  1

  9
$DIMALT
 70
     0
  9
$DIMALTD
 70
     2
  9
$DIMALTF
 40
25.4
  9
$DIMLFAC
 40
1.0
  9
$DIMTOFL
 70
     0
  9
$DIMTVP
 40
0.0
  9
$DIMTIX
 70
     0
  9
$DIMSOXD
 70
     0
  9
$DIMSAH
 70
     0
  9
$DIMBLK1
  1

  9
$DIMBLK2
  1

  9
$DIMSTYLE
  2
*UNNAMED
  9
$DIMCLRD
 70
     0
  9
$DIMCLRE
 70
     0
  9
$DIMCLRT
 70
     0
  9
$DIMTFAC
 40
1.0
  9
$DIMGAP
 40
0.09
  9
$LUNITS
 70
     2
  9
$LUPREC
 70
     4
  9
$SKETCHINC
 40
0.1
  9
$FILLETRAD
 40
0.0
  9
$AUNITS
 70
     0
  9
$AUPREC
 70
     0
  9
$MENU
  1
acad
  9
$ELEVATION
 40
0.0
  9
$PELEVATION
 40
0.0
  9
$THICKNESS
 40
0.0
  9
$LIMCHECK
 70
     0
  9
$BLIPMODE
 70
     0
  9
$CHAMFERA
 40
0.0
  9
$CHAMFERB
 40
0.0
  9
$SKPOLY
 70
     0
  9
$TDCREATE
 40
2449710.619590625
  9
$TDUPDATE
 40
2449757.528428356
  9
$TDINDWG
 40
0.0001233796
  9
$TDUSRTIMER
 40
0.0001233796
  9
$USRTIMER
 70
     1
  9
$ANGBASE
 50
0.0
  9
$ANGDIR
 70
     0
  9
$PDMODE
 70
     0
  9
$PDSIZE
 40
0.0
  9
$PLINEWID
 40
0.0
  9
$COORDS
 70
     1
  9
$SPLFRAME
 70
     0
  9
$SPLINETYPE
 70
     6
  9
$SPLINESEGS
 70
     8
  9
$ATTDIA
 70
     0
  9
$ATTREQ
 70
     1
  9
$HANDLING
 70
     0
  9
$HANDSEED
  5
0
  9
$SURFTAB1
 70
     6
  9
$SURFTAB2
 70
     6
  9
$SURFTYPE
 70
     6
  9
$SURFU
 70
     6
  9
$SURFV
 70
     6
  9
$UCSNAME
  2

  9
$UCSORG
 10
0.0
 20
0.0
 30
0.0
  9
$UCSXDIR
 10
1.0
 20
0.0
 30
0.0
  9
$UCSYDIR
 10
0.0
 20
1.0
 30
0.0
  9
$PUCSNAME
  2

  9
$PUCSORG
 10
0.0
 20
0.0
 30
0.0
  9
$PUCSXDIR
 10
1.0
 20
0.0
 30
0.0
  9
$PUCSYDIR
 10
0.0
 20
1.0
 30
0.0
  9
$USERI1
 70
     0
  9
$USERI2
 70
     0
  9
$USERI3
 70
     0
  9
$USERI4
 70
     0
  9
$USERI5
 70
     0
  9
$USERR1
 40
0.0
  9
$USERR2
 40
0.0
  9
$USERR3
 40
0.0
  9
$USERR4
 40
0.0
  9
$USERR5
 40
0.0
  9
$WORLDVIEW
 70
     1
  9
$SHADEDGE
 70
     3
  9
$SHADEDIF
 70
    70
  9
$TILEMODE
 70
     1
  9
$MAXACTVP
 70
    16
  9
$PINSBASE
 10
0.0
 20
0.0
 30
2.099472054454647
  9
$PLIMCHECK
 70
     0
  9
$PEXTMIN
 10
1.000000000000000E+20
 20
1.000000000000000E+20
 30
1.000000000000000E+20
  9
$PEXTMAX
 10
-1.000000000000000E+20
 20
-1.000000000000000E+20
 30
-1.000000000000000E+20
  9
$PLIMMIN
 10
0.0
 20
0.0
  9
$PLIMMAX
 10
12.0
 20
9.0
  9
$UNITMODE
 70
     0
  9
$VISRETAIN
 70
     0
  9
$PLINEGEN
 70
     0
  9
$PSLTSCALE
 70
     1
  9
$TREEDEPTH
 70
  3020
  9
$DWGCODEPAGE
  3
ascii
  0
ENDSEC
  0
SECTION
  2
TABLES
  0
TABLE
  2
VPORT
 70
     1
  0
VPORT
  2
*ACTIVE
 70
     0
 10
0.0
 20
0.0
 11
1.0
 21
1.0
 12
17.67027575029244
 22
-0.1327425762551275
 13
0.0
 23
0.0
 14
1.0
 24
1.0
 15
0.0
 25
0.0
 16
-0.241844762647975
 26
-0.6644630243886748
 36
0.7071067811865475
 17
0.0
 27
0.0
 37
0.0
 40
22.57875362597238
 41
1.661211129296235
 42
50.0
 43
0.0
 44
0.0
 50
0.0
 51
0.0
 71
     0
 72
   100
 73
     1
 74
     0
 75
     0
 76
     0
 77
     0
 78
     0
  0
ENDTAB
  0
TABLE
  2
LTYPE
 70
     2
  0
LTYPE
  2
CONTINUOUS
 70
    64
  3
Solid line
 72
    65
 73
     0
 40
0.0
  0
LTYPE
  2
HIDDEN
 70
    64
  3
_ _ _ _ _ _ _ _ _ _ _ _ _ _ _ _ _ _ _ _ _ _ _
 72
    65
 73
     2
 40
0.375
 49
0.25
 49
-0.125
  0
ENDTAB
  0
TABLE
  2
LAYER
 70
     5
  0
LAYER
  2
0
 70
    64
 62
     7
  6
CONTINUOUS
  0
LAYER
  2
RK-LAVAT
 70
    64
 62
     7
  6
CONTINUOUS
  0
LAYER
  2
CNTRCUTR
 70
    64
 62
     7
  6
CONTINUOUS
  0
LAYER
  2
FK-FOOTP
 70
    64
 62
     7
  6
CONTINUOUS
  0
LAYER
  2
RK-DRAIN
 70
    64
 62
     7
  6
CONTINUOUS
  0
ENDTAB
  0
TABLE
  2
STYLE
 70
     1
  0
STYLE
  2
STANDARD
 70
     0
 40
0.0
 41
1.0
 50
0.0
 71
     0
 42
0.2
  3
txt
  4

  0
ENDTAB
  0
TABLE
  2
VIEW
 70
     0
  0
ENDTAB
  0
TABLE
  2
UCS
 70
     0
  0
ENDTAB
  0
TABLE
  2
APPID
 70
     3
  0
APPID
  2
ACAD
 70
    64
  0
APPID
  2
CDKT-SIZ
 70
    64
  0
APPID
  2
CDKT-STR2
 70
    64
  0
ENDTAB
  0
TABLE
  2
DIMSTYLE
 70
     0
  0
ENDTAB
  0
ENDSEC
  0
SECTION
  2
BLOCKS
  0
BLOCK
  8
0
  2
02211PLN
 70
    64
 10
0.0
 20
0.0
 30
0.0
  3
02211PLN
  0
CIRCLE
  8
FK-FOOTP
 10
10.61863000420748
 20
13.38736538568316
 30
0.0
 40
0.875
  0
ARC
  8
FK-FOOTP
  6
HIDDEN
 10
10.61863000420748
 20
3.949865385683159
 30
0.0
 40
13.1875
 50
58.07993366886397
 51
121.920066331136
  0
ARC
  8
FK-FOOTP
 10
10.61863000420748
 20
3.949865385683159
 30
0.0
 40
12.0625
 50
58.07993366886397
 51
121.920066331136
  0
ARC
  8
FK-FOOTP
  6
HIDDEN
 10
10.61863000420748
 20
13.18041926938923
 30
0.0
 40
13.1875
 50
238.0799336688638
 51
301.920066331136
  0
ARC
  8
FK-FOOTP
 10
10.61863000420748
 20
13.18041926938923
 30
0.0
 40
12.0625
 50
238.0799336688638
 51
301.920066331136
  0
ARC
  8
FK-FOOTP
  6
HIDDEN
 10
7.743630004207488
 20
8.565142327536198
 30
0.0
 40
7.75
 50
121.920066331136
 51
238.0799336688638
  0
ARC
  8
FK-FOOTP
 10
7.743630004207488
 20
8.565142327536198
 30
0.0
 40
6.625
 50
121.920066331136
 51
238.0799336688638
  0
ARC
  8
FK-FOOTP
  6
HIDDEN
 10
13.49363000420749
 20
8.565142327536198
 30
0.0
 40
7.75
 50
301.920066331136
 51
58.079933668864
  0
ARC
  8
FK-FOOTP
 10
13.49363000420749
 20
8.565142327536198
 30
0.0
 40
6.625
 50
301.920066331136
 51
58.079933668864
  0
ENDBLK
  8
0
  0
BLOCK
  8
0
  2
STRAINS
 70
    64
 10
0.0
 20
0.0
 30
0.0
  3
STRAINS
  0
CIRCLE
  8
RK-DRAIN
 10
0.0
 20
0.0
 30
0.06
 40
0.75
  0
CIRCLE
  8
RK-DRAIN
 10
0.0
 20
0.0
 30
0.05
 40
1.25
  0
ENDBLK
  8
0
  0
ENDSEC
  0
SECTION
  2
ENTITIES
  0
POLYLINE
  8
CNTRCUTR
 66
     1
 10
0.0
 20
0.0
 30
5.499995999999998
 70
     1
1001
CDKT-SIZ
1002
{
1010
21.344509
1020
-17.18999999999999
1030
5.499997999999999
1002
}
1001
CDKT-STR2
1070
     1
1010
10.66630713263859
1020
2.668710017255149
1030
5.5
1040
4.712388980384689
  0
VERTEX
  8
CNTRCUTR
 10
10.671526
 20
-16.069981
 30
5.499995999999998
  0
VERTEX
  8
CNTRCUTR
 10
12.41653299999999
 20
-15.92128399999999
 30
5.499995999999998
  0
VERTEX
  8
CNTRCUTR
 10
14.08777899999999
 20
-15.487128
 30
5.499995999999998
  0
VERTEX
  8
CNTRCUTR
 10
15.802253
 20
-14.69542099999999
 30
5.499995999999998
  0
VERTEX
  8
CNTRCUTR
 10
17.07939399999999
 20
-13.834047
 30
5.499995999999998
  0
VERTEX
  8
CNTRCUTR
 10
18.33496599999999
 20
-12.650926
 30
5.499995999999998
  0
VERTEX
  8
CNTRCUTR
 10
19.387185
 20
-11.25395499999999
 30
5.499995999999998
  0
VERTEX
  8
CNTRCUTR
 10
19.806747
 20
-10.40695699999999
 30
5.499995999999998
  0
VERTEX
  8
CNTRCUTR
 10
20.09316399999999
 20
-9.509188999999999
 30
5.499995999999998
  0
VERTEX
  8
CNTRCUTR
 10
20.241526
 20
-8.576046999999999
 30
5.499995999999998
  0
VERTEX
  8
CNTRCUTR
 10
20.12776399999999
 20
-7.797112
 30
5.499995999999998
  0
VERTEX
  8
CNTRCUTR
 10
19.91743999999999
 20
-7.040041
 30
5.499995999999998
  0
VERTEX
  8
CNTRCUTR
 10
19.557674
 20
-6.25
 30
5.499995999999998
  0
VERTEX
  8
CNTRCUTR
 10
18.57336999999999
 20
-4.814586
 30
5.499995999999998
  0
VERTEX
  8
CNTRCUTR
 10
17.00347299999999
 20
-3.504829
 30
5.499995999999998
  0
VERTEX
  8
CNTRCUTR
 10
15.802253
 20
-2.494578999999999
 30
5.499995999999998
  0
VERTEX
  8
CNTRCUTR
 10
13.84644499999999
 20
-1.719549999999998
 30
5.499995999999998
  0
VERTEX
  8
CNTRCUTR
 10
12.011451
 20
-1.207776
 30
5.499995999999998
  0
VERTEX
  8
CNTRCUTR
 10
10.67150999999999
 20
-1.119999999999999
 30
5.499995999999998
  0
VERTEX
  8
CNTRCUTR
 10
9.333053000000006
 20
-1.207776
 30
5.499995999999998
  0
VERTEX
  8
CNTRCUTR
 10
7.195996999999998
 20
-1.749897999999998
 30
5.499995999999998
  0
VERTEX
  8
CNTRCUTR
 10
5.498514999999997
 20
-2.513236
 30
5.499995999999998
  0
VERTEX
  8
CNTRCUTR
 10
4.037942000000001
 20
-3.540699
 30
5.499995999999998
  0
VERTEX
  8
CNTRCUTR
 10
2.769681999999995
 20
-4.814586
 30
5.499995999999998
  0
VERTEX
  8
CNTRCUTR
 10
1.729996999999997
 20
-6.313831999999999
 30
5.499995999999998
  0
VERTEX
  8
CNTRCUTR
 10
1.425612
 20
-7.040041
 30
5.499995999999998
  0
VERTEX
  8
CNTRCUTR
 10
1.215288000000001
 20
-7.797112
 30
5.499995999999998
  0
VERTEX
  8
CNTRCUTR
 10
1.101525999999999
 20
-8.576046999999999
 30
5.499995999999998
  0
VERTEX
  8
CNTRCUTR
 10
1.249887999999998
 20
-9.509188999999999
 30
5.499995999999998
  0
VERTEX
  8
CNTRCUTR
 10
1.578765000000004
 20
-10.460183
 30
5.499995999999998
  0
VERTEX
  8
CNTRCUTR
 10
1.955866999999997
 20
-11.25395499999999
 30
5.499995999999998
  0
VERTEX
  8
CNTRCUTR
 10
3.008084999999994
 20
-12.65092499999999
 30
5.499995999999998
  0
VERTEX
  8
CNTRCUTR
 10
4.263657999999999
 20
-13.83404599999999
 30
5.499995999999998
  0
VERTEX
  8
CNTRCUTR
 10
5.690185999999997
 20
-14.785414
 30
5.499995999999998
  0
VERTEX
  8
CNTRCUTR
 10
7.255271999999997
 20
-15.487128
 30
5.499995999999998
  0
VERTEX
  8
CNTRCUTR
 10
8.926517999999994
 20
-15.92128399999999
 30
5.499995999999998
  0
SEQEND
  8
CNTRCUTR
  0
POLYLINE
  8
RK-LAVAT
 66
     1
 10
0.0
 20
0.0
 30
0.0
 70
    64
 71
     6
 72
     3
  0
VERTEX
  8
RK-LAVAT
 10
2.769681999999995
 20
-4.814586
 30
5.499992999999999
 70
   192
  0
VERTEX
  8
RK-LAVAT
 10
1.729996999999997
 20
-6.313831999999999
 30
5.499992999999999
 70
   192
  0
VERTEX
  8
RK-LAVAT
 10
2.949348
 20
-4.794988
 30
4.902141999999999
 70
   192
  0
VERTEX
  8
RK-LAVAT
 10
1.933303999999999
 20
-6.286281
 30
4.902141999999999
 70
   192
  0
VERTEX
  8
RK-LAVAT
 10
4.037942000000001
 20
-3.540699
 30
5.499992999999999
 70
   192
  0
VERTEX
  8
RK-LAVAT
 10
4.188767999999996
 20
-3.527858999999999
 30
4.902141999999999
 70
   192
  0
VERTEX
  8
RK-LAVAT
 10
5.498514999999997
 20
-2.513236
 30
5.499992999999999
 70
   192
  0
VERTEX
  8
RK-LAVAT
 10
5.616129
 20
-2.505846
 30
4.902141999999999
 70
   192
  0
VERTEX
  8
RK-LAVAT
 10
7.115142999999996
 20
-1.753257999999998
 30
5.499992999999999
 70
   192
  0
VERTEX
  8
RK-LAVAT
 10
7.195996999999998
 20
-1.749897999999998
 30
4.902141999999999
 70
   192
  0
VERTEX
  8
RK-LAVAT
 10
8.851565999999998
 20
-1.281824
 30
5.499992999999999
 70
   192
  0
VERTEX
  8
RK-LAVAT
 10
8.892934999999994
 20
-1.280965999999999
 30
4.902141999999999
 70
   192
  0
VERTEX
  8
RK-LAVAT
 10
10.671526
 20
-1.119998999999999
 30
5.499992999999999
 70
   192
  0
VERTEX
  8
RK-LAVAT
 10
10.67150999999999
 20
-1.119999999999999
 30
4.902141999999999
 70
   192
  0
VERTEX
  8
RK-LAVAT
 10
12.49148599999999
 20
-1.281824999999997
 30
5.499992999999999
 70
   192
  0
VERTEX
  8
RK-LAVAT
 10
12.450086
 20
-1.280967
 30
4.902141999999999
 70
   192
  0
VERTEX
  8
RK-LAVAT
 10
14.22790899999999
 20
-1.753257999999998
 30
5.499992999999999
 70
   192
  0
VERTEX
  8
RK-LAVAT
 10
14.14702499999999
 20
-1.749898999999999
 30
4.902141999999999
 70
   192
  0
VERTEX
  8
RK-LAVAT
 10
15.84453699999999
 20
-2.513237
 30
5.499992999999999
 70
   192
  0
VERTEX
  8
RK-LAVAT
 10
15.726892
 20
-2.505846
 30
4.902141999999999
 70
   192
  0
VERTEX
  8
RK-LAVAT
 10
17.30510999999999
 20
-3.540700000000001
 30
5.499994
 70
   192
  0
VERTEX
  8
RK-LAVAT
 10
17.15425399999999
 20
-3.527858999999999
 30
4.902142999999998
 70
   192
  0
VERTEX
  8
RK-LAVAT
 10
18.57336999999999
 20
-4.814586
 30
5.499994
 70
   192
  0
VERTEX
  8
RK-LAVAT
 10
18.393673
 20
-4.794988
 30
4.902142999999998
 70
   192
  0
VERTEX
  8
RK-LAVAT
 10
19.61305499999999
 20
-6.313831999999999
 30
5.499994
 70
   192
  0
VERTEX
  8
RK-LAVAT
 10
19.40971799999999
 20
-6.286281
 30
4.902142999999998
 70
   192
  0
VERTEX
  8
RK-LAVAT
 10
19.77684899999999
 20
-6.672515999999999
 30
5.499994
 70
   192
  0
VERTEX
  8
RK-LAVAT
 10
19.56978699999999
 20
-6.643062999999999
 30
4.902142999999998
 70
   192
  0
VERTEX
  8
RK-LAVAT
 10
19.91743999999999
 20
-7.040041
 30
5.499994
 70
   192
  0
VERTEX
  8
RK-LAVAT
 10
19.707181
 20
-7.008637999999999
 30
4.902142999999998
 70
   192
  0
VERTEX
  8
RK-LAVAT
 10
20.034515
 20
-7.415281
 30
5.499994999999999
 70
   192
  0
VERTEX
  8
RK-LAVAT
 10
19.82159399999999
 20
-7.381888
 30
4.902143999999999
 70
   192
  0
VERTEX
  8
RK-LAVAT
 10
20.12776399999999
 20
-7.797112
 30
5.499994999999999
 70
   192
  0
VERTEX
  8
RK-LAVAT
 10
19.912723
 20
-7.761692999999999
 30
4.902143999999999
 70
   192
  0
VERTEX
  8
RK-LAVAT
 10
20.19687199999999
 20
-8.184408999999998
 30
5.499994999999999
 70
   192
  0
VERTEX
  8
RK-LAVAT
 10
19.98025799999999
 20
-8.146936
 30
4.902143999999999
 70
   192
  0
VERTEX
  8
RK-LAVAT
 10
20.241526
 20
-8.576046999999999
 30
5.499994999999999
 70
   192
  0
VERTEX
  8
RK-LAVAT
 10
20.02389699999999
 20
-8.536495999999999
 30
4.902143999999999
 70
   192
  0
VERTEX
  8
RK-LAVAT
 10
20.18490899999999
 20
-9.046077999999999
 30
5.499994999999999
 70
   192
  0
VERTEX
  8
RK-LAVAT
 10
19.96856799999999
 20
-9.004033999999998
 30
4.902143999999999
 70
   192
  0
VERTEX
  8
RK-LAVAT
 10
20.09316399999999
 20
-9.509188999999999
 30
5.499994999999999
 70
   192
  0
VERTEX
  8
RK-LAVAT
 10
19.878909
 20
-9.464687999999998
 30
4.902143999999999
 70
   192
  0
VERTEX
  8
RK-LAVAT
 10
19.96690599999999
 20
-9.963457
 30
5.499994999999999
 70
   192
  0
VERTEX
  8
RK-LAVAT
 10
19.755522
 20
-9.916546
 30
4.902143999999999
 70
   192
  0
VERTEX
  8
RK-LAVAT
 10
19.806747
 20
-10.40695699999999
 30
5.499994999999999
 70
   192
  0
VERTEX
  8
RK-LAVAT
 10
19.59900499999999
 20
-10.35769399999999
 30
4.902143999999999
 70
   192
  0
VERTEX
  8
RK-LAVAT
 10
19.61330099999999
 20
-10.837764
 30
5.499994999999999
 70
   192
  0
VERTEX
  8
RK-LAVAT
 10
19.409959
 20
-10.78621599999999
 30
4.902143999999999
 70
   192
  0
VERTEX
  8
RK-LAVAT
 10
19.387185
 20
-11.25395499999999
 30
5.499994999999999
 70
   192
  0
VERTEX
  8
RK-LAVAT
 10
19.188983
 20
-11.20019899999999
 30
4.902143999999999
 70
   192
  0
VERTEX
  8
RK-LAVAT
 10
18.33496599999999
 20
-12.650926
 30
5.499994999999999
 70
   192
  0
VERTEX
  8
RK-LAVAT
 10
18.16069099999999
 20
-12.58975999999999
 30
4.902143999999999
 70
   192
  0
VERTEX
  8
RK-LAVAT
 10
17.07939399999999
 20
-13.834047
 30
5.499994999999999
 70
   192
  0
VERTEX
  8
RK-LAVAT
 10
16.93367
 20
-13.766604
 30
4.902143999999999
 70
   192
  0
VERTEX
  8
RK-LAVAT
 10
15.652865
 20
-14.785415
 30
5.499995999999998
 70
   192
  0
VERTEX
  8
RK-LAVAT
 10
15.539578
 20
-14.712925
 30
4.902143999999999
 70
   192
  0
VERTEX
  8
RK-LAVAT
 10
14.08777899999999
 20
-15.487128
 30
5.499995999999998
 70
   192
  0
VERTEX
  8
RK-LAVAT
 10
14.010081
 20
-15.41091599999999
 30
4.902143999999999
 70
   192
  0
VERTEX
  8
RK-LAVAT
 10
12.41653299999999
 20
-15.92128399999999
 30
5.499995999999998
 70
   192
  0
VERTEX
  8
RK-LAVAT
 10
12.37683799999999
 20
-15.84276999999999
 30
4.902143999999999
 70
   192
  0
VERTEX
  8
RK-LAVAT
 10
10.671526
 20
-16.069981
 30
5.499995999999998
 70
   192
  0
VERTEX
  8
RK-LAVAT
 10
10.67150999999999
 20
-15.990678
 30
4.902143999999999
 70
   192
  0
VERTEX
  8
RK-LAVAT
 10
8.926517999999994
 20
-15.92128399999999
 30
5.499994999999999
 70
   192
  0
VERTEX
  8
RK-LAVAT
 10
8.966181999999996
 20
-15.84276999999999
 30
4.902143999999999
 70
   192
  0
VERTEX
  8
RK-LAVAT
 10
7.255271999999997
 20
-15.487128
 30
5.499994999999999
 70
   192
  0
VERTEX
  8
RK-LAVAT
 10
7.332938999999996
 20
-15.41091599999999
 30
4.902143999999999
 70
   192
  0
VERTEX
  8
RK-LAVAT
 10
5.690185999999997
 20
-14.785414
 30
5.499994999999999
 70
   192
  0
VERTEX
  8
RK-LAVAT
 10
5.803441999999996
 20
-14.712925
 30
4.902143999999999
 70
   192
  0
VERTEX
  8
RK-LAVAT
 10
4.263657999999999
 20
-13.83404599999999
 30
5.499994999999999
 70
   192
  0
VERTEX
  8
RK-LAVAT
 10
4.409351999999998
 20
-13.766603
 30
4.902143999999999
 70
   192
  0
VERTEX
  8
RK-LAVAT
 10
3.008084999999994
 20
-12.65092499999999
 30
5.499994999999999
 70
   192
  0
VERTEX
  8
RK-LAVAT
 10
3.182329999999993
 20
-12.589759
 30
4.902143999999999
 70
   192
  0
VERTEX
  8
RK-LAVAT
 10
1.955866999999997
 20
-11.25395499999999
 30
5.499994
 70
   192
  0
VERTEX
  8
RK-LAVAT
 10
2.154037999999999
 20
-11.20019899999999
 30
4.902142999999998
 70
   192
  0
VERTEX
  8
RK-LAVAT
 10
1.729749999999995
 20
-10.837764
 30
5.499994
 70
   192
  0
VERTEX
  8
RK-LAVAT
 10
1.933062999999997
 20
-10.78621599999999
 30
4.902142999999998
 70
   192
  0
VERTEX
  8
RK-LAVAT
 10
1.536304999999998
 20
-10.40695699999999
 30
5.499994
 70
   192
  0
VERTEX
  8
RK-LAVAT
 10
1.744016999999999
 20
-10.35769399999999
 30
4.902142999999998
 70
   192
  0
VERTEX
  8
RK-LAVAT
 10
1.376145000000001
 20
-9.963457
 30
5.499994
 70
   192
  0
VERTEX
  8
RK-LAVAT
 10
1.587498999999993
 20
-9.916546
 30
4.902142999999998
 70
   192
  0
VERTEX
  8
RK-LAVAT
 10
1.249887999999998
 20
-9.509188999999999
 30
5.499994
 70
   192
  0
VERTEX
  8
RK-LAVAT
 10
1.464111000000002
 20
-9.464687999999998
 30
4.902142999999998
 70
   192
  0
VERTEX
  8
RK-LAVAT
 10
1.158142999999995
 20
-9.046077999999999
 30
5.499994
 70
   192
  0
VERTEX
  8
RK-LAVAT
 10
1.374454
 20
-9.004032999999999
 30
4.902142999999998
 70
   192
  0
VERTEX
  8
RK-LAVAT
 10
1.101525999999999
 20
-8.576046999999999
 30
5.499994
 70
   192
  0
VERTEX
  8
RK-LAVAT
 10
1.319124000000002
 20
-8.536495999999999
 30
4.902142999999998
 70
   192
  0
VERTEX
  8
RK-LAVAT
 10
1.146180000000001
 20
-8.184408999999998
 30
5.499994
 70
   192
  0
VERTEX
  8
RK-LAVAT
 10
1.362761999999996
 20
-8.146936
 30
4.902142999999998
 70
   192
  0
VERTEX
  8
RK-LAVAT
 10
1.215288000000001
 20
-7.797112
 30
5.499994
 70
   192
  0
VERTEX
  8
RK-LAVAT
 10
1.430298999999997
 20
-7.761692999999999
 30
4.902142999999998
 70
   192
  0
VERTEX
  8
RK-LAVAT
 10
1.308535999999996
 20
-7.415281999999999
 30
5.499994
 70
   192
  0
VERTEX
  8
RK-LAVAT
 10
1.521426999999995
 20
-7.381888
 30
4.902142999999998
 70
   192
  0
VERTEX
  8
RK-LAVAT
 10
1.425612
 20
-7.040041
 30
5.499994
 70
   192
  0
VERTEX
  8
RK-LAVAT
 10
1.635840000000001
 20
-7.008637999999999
 30
4.902142999999998
 70
   192
  0
VERTEX
  8
RK-LAVAT
 10
1.566201999999996
 20
-6.672515999999999
 30
5.499992999999999
 70
   192
  0
VERTEX
  8
RK-LAVAT
 10
1.773234000000002
 20
-6.643062999999999
 30
4.902141999999999
 70
   192
  0
VERTEX
  8
RK-LAVAT
 10
3.129045999999995
 20
-4.759838
 30
4.304289999999999
 70
   192
  0
VERTEX
  8
RK-LAVAT
 10
2.136640999999997
 20
-6.236869
 30
4.304289999999999
 70
   192
  0
VERTEX
  8
RK-LAVAT
 10
4.339631999999994
 20
-3.504829
 30
4.304289999999999
 70
   192
  0
VERTEX
  8
RK-LAVAT
 10
5.733784999999997
 20
-2.492590999999999
 30
4.304289999999999
 70
   192
  0
VERTEX
  8
RK-LAVAT
 10
7.276895999999993
 20
-1.743873
 30
4.304289999999999
 70
   192
  0
VERTEX
  8
RK-LAVAT
 10
8.934354999999996
 20
-1.279426
 30
4.304289999999999
 70
   192
  0
VERTEX
  8
RK-LAVAT
 10
10.67155199999999
 20
-1.119998999999999
 30
4.304289999999999
 70
   192
  0
VERTEX
  8
RK-LAVAT
 10
12.40874799999999
 20
-1.279426
 30
4.304289999999999
 70
   192
  0
VERTEX
  8
RK-LAVAT
 10
14.06620799999999
 20
-1.743873999999998
 30
4.304289999999999
 70
   192
  0
VERTEX
  8
RK-LAVAT
 10
15.60931899999999
 20
-2.492590999999999
 30
4.304289999999999
 70
   192
  0
VERTEX
  8
RK-LAVAT
 10
17.00347299999999
 20
-3.504829
 30
4.304290999999999
 70
   192
  0
VERTEX
  8
RK-LAVAT
 10
18.21405699999999
 20
-4.759838999999999
 30
4.304290999999999
 70
   192
  0
VERTEX
  8
RK-LAVAT
 10
19.20646299999999
 20
-6.236869
 30
4.304290999999999
 70
   192
  0
VERTEX
  8
RK-LAVAT
 10
19.362808
 20
-6.590237999999999
 30
4.304290999999999
 70
   192
  0
VERTEX
  8
RK-LAVAT
 10
19.49700599999999
 20
-6.952316999999998
 30
4.304290999999999
 70
   192
  0
VERTEX
  8
RK-LAVAT
 10
19.60875699999999
 20
-7.321996999999999
 30
4.304290999999999
 70
   192
  0
VERTEX
  8
RK-LAVAT
 10
19.69776499999999
 20
-7.698169999999999
 30
4.304292
 70
   192
  0
VERTEX
  8
RK-LAVAT
 10
19.76372999999999
 20
-8.079727999999999
 30
4.304292
 70
   192
  0
VERTEX
  8
RK-LAVAT
 10
19.80635399999999
 20
-8.465561999999998
 30
4.304292
 70
   192
  0
VERTEX
  8
RK-LAVAT
 10
19.75231199999999
 20
-8.928627999999999
 30
4.304292
 70
   192
  0
VERTEX
  8
RK-LAVAT
 10
19.66473899999999
 20
-9.384876999999999
 30
4.304292
 70
   192
  0
VERTEX
  8
RK-LAVAT
 10
19.54422199999999
 20
-9.832412999999998
 30
4.304292
 70
   192
  0
VERTEX
  8
RK-LAVAT
 10
19.391346
 20
-10.26934099999999
 30
4.304292
 70
   192
  0
VERTEX
  8
RK-LAVAT
 10
19.20669799999999
 20
-10.69376499999999
 30
4.304292
 70
   192
  0
VERTEX
  8
RK-LAVAT
 10
18.99086399999999
 20
-11.103788
 30
4.304292
 70
   192
  0
VERTEX
  8
RK-LAVAT
 10
17.98649499999999
 20
-12.48005899999999
 30
4.304292
 70
   192
  0
VERTEX
  8
RK-LAVAT
 10
16.78802099999999
 20
-13.645647
 30
4.304292
 70
   192
  0
VERTEX
  8
RK-LAVAT
 10
15.42636399999999
 20
-14.582918
 30
4.304292999999999
 70
   192
  0
VERTEX
  8
RK-LAVAT
 10
13.93244999999999
 20
-15.27423299999999
 30
4.304292999999999
 70
   192
  0
VERTEX
  8
RK-LAVAT
 10
12.33720399999999
 20
-15.70195599999999
 30
4.304292999999999
 70
   192
  0
VERTEX
  8
RK-LAVAT
 10
10.67155199999999
 20
-15.84844999999999
 30
4.304292
 70
   192
  0
VERTEX
  8
RK-LAVAT
 10
9.005897999999994
 20
-15.70195599999999
 30
4.304292
 70
   192
  0
VERTEX
  8
RK-LAVAT
 10
7.410652999999996
 20
-15.27423299999999
 30
4.304292
 70
   192
  0
VERTEX
  8
RK-LAVAT
 10
5.916739999999997
 20
-14.582918
 30
4.304292
 70
   192
  0
VERTEX
  8
RK-LAVAT
 10
4.555082999999996
 20
-13.645647
 30
4.304292
 70
   192
  0
VERTEX
  8
RK-LAVAT
 10
3.356607999999994
 20
-12.480058
 30
4.304292
 70
   192
  0
VERTEX
  8
RK-LAVAT
 10
2.352239999999994
 20
-11.103788
 30
4.304290999999999
 70
   192
  0
VERTEX
  8
RK-LAVAT
 10
2.136404999999996
 20
-10.69376499999999
 30
4.304290999999999
 70
   192
  0
VERTEX
  8
RK-LAVAT
 10
1.951757
 20
-10.26934099999999
 30
4.304290999999999
 70
   192
  0
VERTEX
  8
RK-LAVAT
 10
1.798881999999998
 20
-9.832412999999998
 30
4.304290999999999
 70
   192
  0
VERTEX
  8
RK-LAVAT
 10
1.678364999999999
 20
-9.384876999999999
 30
4.304290999999999
 70
   192
  0
VERTEX
  8
RK-LAVAT
 10
1.590792
 20
-8.928627999999999
 30
4.304290999999999
 70
   192
  0
VERTEX
  8
RK-LAVAT
 10
1.536749999999997
 20
-8.465561999999998
 30
4.304290999999999
 70
   192
  0
VERTEX
  8
RK-LAVAT
 10
1.579372999999996
 20
-8.079727999999999
 30
4.304290999999999
 70
   192
  0
VERTEX
  8
RK-LAVAT
 10
1.645337999999995
 20
-7.698169999999999
 30
4.304290999999999
 70
   192
  0
VERTEX
  8
RK-LAVAT
 10
1.734346000000002
 20
-7.321996999999999
 30
4.304290999999999
 70
   192
  0
VERTEX
  8
RK-LAVAT
 10
1.846097
 20
-6.952316999999998
 30
4.304290999999999
 70
   192
  0
VERTEX
  8
RK-LAVAT
 10
1.980294999999998
 20
-6.590237999999999
 30
4.304289999999999
 70
   192
  0
VERTEX
  8
RK-LAVAT
 10
3.308692999999998
 20
-4.707948999999999
 30
3.706438999999999
 70
   192
  0
VERTEX
  8
RK-LAVAT
 10
2.339928
 20
-6.163923999999999
 30
3.706438999999999
 70
   192
  0
VERTEX
  8
RK-LAVAT
 10
4.490440999999997
 20
-3.470831
 30
3.706438999999999
 70
   192
  0
VERTEX
  8
RK-LAVAT
 10
5.851382999999998
 20
-2.473023000000001
 30
3.706438999999999
 70
   192
  0
VERTEX
  8
RK-LAVAT
 10
7.357735999999995
 20
-1.734978999999999
 30
3.706438999999999
 70
   192
  0
VERTEX
  8
RK-LAVAT
 10
8.975711999999994
 20
-1.277152999999998
 30
3.706438999999999
 70
   192
  0
VERTEX
  8
RK-LAVAT
 10
10.671526
 20
-1.119998999999999
 30
3.706438999999999
 70
   192
  0
VERTEX
  8
RK-LAVAT
 10
12.36733999999999
 20
-1.277152999999998
 30
3.706438999999999
 70
   192
  0
VERTEX
  8
RK-LAVAT
 10
13.98531699999999
 20
-1.734978999999999
 30
3.706438999999999
 70
   192
  0
VERTEX
  8
RK-LAVAT
 10
15.49166899999999
 20
-2.473023000000001
 30
3.706438999999999
 70
   192
  0
VERTEX
  8
RK-LAVAT
 10
16.85261299999999
 20
-3.470831
 30
3.706439999999999
 70
   192
  0
VERTEX
  8
RK-LAVAT
 10
18.034359
 20
-4.707948999999999
 30
3.706439999999999
 70
   192
  0
VERTEX
  8
RK-LAVAT
 10
19.00312399999999
 20
-6.163923999999999
 30
3.706439999999999
 70
   192
  0
VERTEX
  8
RK-LAVAT
 10
19.155746
 20
-6.512254999999999
 30
3.706439999999999
 70
   192
  0
VERTEX
  8
RK-LAVAT
 10
19.286747
 20
-6.869172
 30
3.706439999999999
 70
   192
  0
VERTEX
  8
RK-LAVAT
 10
19.39583599999999
 20
-7.233582
 30
3.706439999999999
 70
   192
  0
VERTEX
  8
RK-LAVAT
 10
19.482723
 20
-7.604392999999999
 30
3.706439999999999
 70
   192
  0
VERTEX
  8
RK-LAVAT
 10
19.547117
 20
-7.980510999999999
 30
3.706439999999999
 70
   192
  0
VERTEX
  8
RK-LAVAT
 10
19.58872499999999
 20
-8.360844999999999
 30
3.706439999999999
 70
   192
  0
VERTEX
  8
RK-LAVAT
 10
19.53597099999999
 20
-8.817309999999999
 30
3.706439999999999
 70
   192
  0
VERTEX
  8
RK-LAVAT
 10
19.45048399999999
 20
-9.267053999999999
 30
3.706439999999999
 70
   192
  0
VERTEX
  8
RK-LAVAT
 10
19.33283799999999
 20
-9.708210999999998
 30
3.706440999999999
 70
   192
  0
VERTEX
  8
RK-LAVAT
 10
19.18360299999999
 20
-10.13890999999999
 30
3.706440999999999
 70
   192
  0
VERTEX
  8
RK-LAVAT
 10
19.00335399999999
 20
-10.55728299999999
 30
3.706440999999999
 70
   192
  0
VERTEX
  8
RK-LAVAT
 10
18.79266199999999
 20
-10.96146199999999
 30
3.706440999999999
 70
   192
  0
VERTEX
  8
RK-LAVAT
 10
17.81221799999999
 20
-12.318112
 30
3.706440999999999
 70
   192
  0
VERTEX
  8
RK-LAVAT
 10
16.64229299999999
 20
-13.467085
 30
3.706440999999999
 70
   192
  0
VERTEX
  8
RK-LAVAT
 10
15.31307199999999
 20
-14.39099399999999
 30
3.706440999999999
 70
   192
  0
VERTEX
  8
RK-LAVAT
 10
13.85474499999999
 20
-15.07245399999999
 30
3.706440999999999
 70
   192
  0
VERTEX
  8
RK-LAVAT
 10
12.29750099999999
 20
-15.494079
 30
3.706440999999999
 70
   192
  0
VERTEX
  8
RK-LAVAT
 10
10.671526
 20
-15.63848499999999
 30
3.706440999999999
 70
   192
  0
VERTEX
  8
RK-LAVAT
 10
9.045550999999996
 20
-15.494079
 30
3.706440999999999
 70
   192
  0
VERTEX
  8
RK-LAVAT
 10
7.488305999999994
 20
-15.07245399999999
 30
3.706440999999999
 70
   192
  0
VERTEX
  8
RK-LAVAT
 10
6.029979999999994
 20
-14.390993
 30
3.706440999999999
 70
   192
  0
VERTEX
  8
RK-LAVAT
 10
4.700759999999995
 20
-13.467084
 30
3.706439999999999
 70
   192
  0
VERTEX
  8
RK-LAVAT
 10
3.530833999999998
 20
-12.318112
 30
3.706439999999999
 70
   192
  0
VERTEX
  8
RK-LAVAT
 10
2.55039
 20
-10.96146199999999
 30
3.706439999999999
 70
   192
  0
VERTEX
  8
RK-LAVAT
 10
2.339697999999998
 20
-10.55728299999999
 30
3.706439999999999
 70
   192
  0
VERTEX
  8
RK-LAVAT
 10
2.159448999999995
 20
-10.13890999999999
 30
3.706439999999999
 70
   192
  0
VERTEX
  8
RK-LAVAT
 10
2.010215000000002
 20
-9.708210999999998
 30
3.706439999999999
 70
   192
  0
VERTEX
  8
RK-LAVAT
 10
1.892568999999994
 20
-9.267053999999999
 30
3.706439999999999
 70
   192
  0
VERTEX
  8
RK-LAVAT
 10
1.807081999999994
 20
-8.817308999999999
 30
3.706439999999999
 70
   192
  0
VERTEX
  8
RK-LAVAT
 10
1.754326999999996
 20
-8.360844999999999
 30
3.706439999999999
 70
   192
  0
VERTEX
  8
RK-LAVAT
 10
1.795935999999997
 20
-7.980510999999999
 30
3.706439999999999
 70
   192
  0
VERTEX
  8
RK-LAVAT
 10
1.860329
 20
-7.604392999999999
 30
3.706439999999999
 70
   192
  0
VERTEX
  8
RK-LAVAT
 10
1.947215999999997
 20
-7.233582
 30
3.706438999999999
 70
   192
  0
VERTEX
  8
RK-LAVAT
 10
2.056305999999999
 20
-6.869172
 30
3.706438999999999
 70
   192
  0
VERTEX
  8
RK-LAVAT
 10
2.187305999999999
 20
-6.512254999999999
 30
3.706438999999999
 70
   192
  0
VERTEX
  8
RK-LAVAT
 10
3.617896999999999
 20
-4.617924999999999
 30
2.970958999999999
 70
   192
  0
VERTEX
  8
RK-LAVAT
 10
2.689787999999992
 20
-6.037366999999999
 30
2.970958999999999
 70
   192
  0
VERTEX
  8
RK-LAVAT
 10
4.750048999999997
 20
-3.411846999999999
 30
2.970958999999999
 70
   192
  0
VERTEX
  8
RK-LAVAT
 10
6.053875999999995
 20
-2.439075
 30
2.970958999999999
 70
   192
  0
VERTEX
  8
RK-LAVAT
 10
7.497009999999995
 20
-1.719549999999998
 30
2.970958999999999
 70
   192
  0
VERTEX
  8
RK-LAVAT
 10
9.047083
 20
-1.273210999999999
 30
2.970958999999999
 70
   192
  0
VERTEX
  8
RK-LAVAT
 10
10.67172699999999
 20
-1.119999999999999
 30
2.970958999999999
 70
   192
  0
VERTEX
  8
RK-LAVAT
 10
12.29637199999999
 20
-1.273210999999999
 30
2.970958999999999
 70
   192
  0
VERTEX
  8
RK-LAVAT
 10
13.84644499999999
 20
-1.719549999999998
 30
2.970958999999999
 70
   192
  0
VERTEX
  8
RK-LAVAT
 10
15.28957899999999
 20
-2.439075
 30
2.970958999999999
 70
   192
  0
VERTEX
  8
RK-LAVAT
 10
16.593407
 20
-3.411846999999999
 30
2.970958999999999
 70
   192
  0
VERTEX
  8
RK-LAVAT
 10
17.725558
 20
-4.617924999999999
 30
2.970959999999999
 70
   192
  0
VERTEX
  8
RK-LAVAT
 10
18.65366599999999
 20
-6.037366999999999
 30
2.970959999999999
 70
   192
  0
VERTEX
  8
RK-LAVAT
 10
18.79988199999999
 20
-6.376958999999999
 30
2.970959999999999
 70
   192
  0
VERTEX
  8
RK-LAVAT
 10
18.92538599999999
 20
-6.724919999999999
 30
2.970959999999999
 70
   192
  0
VERTEX
  8
RK-LAVAT
 10
19.02989599999999
 20
-7.080187
 30
2.970959999999999
 70
   192
  0
VERTEX
  8
RK-LAVAT
 10
19.113137
 20
-7.441692999999999
 30
2.970959999999999
 70
   192
  0
VERTEX
  8
RK-LAVAT
 10
19.17482899999999
 20
-7.808374
 30
2.970959999999999
 70
   192
  0
VERTEX
  8
RK-LAVAT
 10
19.21468999999999
 20
-8.179165999999998
 30
2.970959999999999
 70
   192
  0
VERTEX
  8
RK-LAVAT
 10
19.16414899999999
 20
-8.624176999999999
 30
2.970959999999999
 70
   192
  0
VERTEX
  8
RK-LAVAT
 10
19.082251
 20
-9.062636999999998
 30
2.970959999999999
 70
   192
  0
VERTEX
  8
RK-LAVAT
 10
18.96954299999999
 20
-9.492723999999999
 30
2.970959999999999
 70
   192
  0
VERTEX
  8
RK-LAVAT
 10
18.82657099999999
 20
-9.912616999999999
 30
2.970960999999999
 70
   192
  0
VERTEX
  8
RK-LAVAT
 10
18.653886
 20
-10.32049299999999
 30
2.970960999999999
 70
   192
  0
VERTEX
  8
RK-LAVAT
 10
18.45203599999999
 20
-10.71452999999999
 30
2.970960999999999
 70
   192
  0
VERTEX
  8
RK-LAVAT
 10
17.51273999999999
 20
-12.037141
 30
2.970960999999999
 70
   192
  0
VERTEX
  8
RK-LAVAT
 10
16.391913
 20
-13.157284
 30
2.970960999999999
 70
   192
  0
VERTEX
  8
RK-LAVAT
 10
15.11847699999999
 20
-14.05801099999999
 30
2.970960999999999
 70
   192
  0
VERTEX
  8
RK-LAVAT
 10
13.72135399999999
 20
-14.72237299999999
 30
2.970960999999999
 70
   192
  0
VERTEX
  8
RK-LAVAT
 10
12.229463
 20
-15.133419
 30
2.970960999999999
 70
   192
  0
VERTEX
  8
RK-LAVAT
 10
10.67172699999999
 20
-15.274201
 30
2.970960999999999
 70
   192
  0
VERTEX
  8
RK-LAVAT
 10
9.113990999999998
 20
-15.133419
 30
2.970960999999999
 70
   192
  0
VERTEX
  8
RK-LAVAT
 10
7.622099999999996
 20
-14.72237299999999
 30
2.970960999999999
 70
   192
  0
VERTEX
  8
RK-LAVAT
 10
6.224976999999995
 20
-14.05801099999999
 30
2.970960999999999
 70
   192
  0
VERTEX
  8
RK-LAVAT
 10
4.951540999999998
 20
-13.157284
 30
2.970959999999999
 70
   192
  0
VERTEX
  8
RK-LAVAT
 10
3.830714999999997
 20
-12.03713999999999
 30
2.970959999999999
 70
   192
  0
VERTEX
  8
RK-LAVAT
 10
2.891418999999999
 20
-10.71452999999999
 30
2.970959999999999
 70
   192
  0
VERTEX
  8
RK-LAVAT
 10
2.689568999999998
 20
-10.32049299999999
 30
2.970959999999999
 70
   192
  0
VERTEX
  8
RK-LAVAT
 10
2.516883999999997
 20
-9.912616999999999
 30
2.970959999999999
 70
   192
  0
VERTEX
  8
RK-LAVAT
 10
2.373913000000001
 20
-9.492723999999999
 30
2.970959999999999
 70
   192
  0
VERTEX
  8
RK-LAVAT
 10
2.261203999999999
 20
-9.062636999999998
 30
2.970959999999999
 70
   192
  0
VERTEX
  8
RK-LAVAT
 10
2.179304999999999
 20
-8.624176999999999
 30
2.970958999999999
 70
   192
  0
VERTEX
  8
RK-LAVAT
 10
2.128763999999996
 20
-8.179165999999998
 30
2.970958999999999
 70
   192
  0
VERTEX
  8
RK-LAVAT
 10
2.168627
 20
-7.808374
 30
2.970958999999999
 70
   192
  0
VERTEX
  8
RK-LAVAT
 10
2.230316999999999
 20
-7.441692999999999
 30
2.970958999999999
 70
   192
  0
VERTEX
  8
RK-LAVAT
 10
2.313558999999997
 20
-7.080187
 30
2.970958999999999
 70
   192
  0
VERTEX
  8
RK-LAVAT
 10
2.41807
 20
-6.724919999999999
 30
2.970958999999999
 70
   192
  0
VERTEX
  8
RK-LAVAT
 10
2.543571999999997
 20
-6.376958999999999
 30
2.970958999999999
 70
   192
  0
VERTEX
  8
RK-LAVAT
 10
4.046980999999995
 20
-4.492808
 30
2.235478999999999
 70
   192
  0
VERTEX
  8
RK-LAVAT
 10
3.175300999999997
 20
-5.861477999999999
 30
2.235478999999999
 70
   192
  0
VERTEX
  8
RK-LAVAT
 10
5.110298999999997
 20
-3.329869999999999
 30
2.235477999999999
 70
   192
  0
VERTEX
  8
RK-LAVAT
 10
6.334853999999999
 20
-2.391892999999999
 30
2.235477999999999
 70
   192
  0
VERTEX
  8
RK-LAVAT
 10
7.690245999999994
 20
-1.698104
 30
2.235477999999999
 70
   192
  0
VERTEX
  8
RK-LAVAT
 10
9.146076
 20
-1.267731000000001
 30
2.235477999999999
 70
   192
  0
VERTEX
  8
RK-LAVAT
 10
10.67194199999999
 20
-1.119999999999999
 30
2.235477999999999
 70
   192
  0
VERTEX
  8
RK-LAVAT
 10
12.19780999999999
 20
-1.267731000000001
 30
2.235477999999999
 70
   192
  0
VERTEX
  8
RK-LAVAT
 10
13.65363999999999
 20
-1.698104999999998
 30
2.235478999999999
 70
   192
  0
VERTEX
  8
RK-LAVAT
 10
15.00903199999999
 20
-2.391894
 30
2.235478999999999
 70
   192
  0
VERTEX
  8
RK-LAVAT
 10
16.23358699999999
 20
-3.329871
 30
2.235478999999999
 70
   192
  0
VERTEX
  8
RK-LAVAT
 10
17.29690499999999
 20
-4.492808
 30
2.235478999999999
 70
   192
  0
VERTEX
  8
RK-LAVAT
 10
18.16858399999999
 20
-5.861477999999999
 30
2.235479999999999
 70
   192
  0
VERTEX
  8
RK-LAVAT
 10
18.30591099999999
 20
-6.188922999999999
 30
2.235479999999999
 70
   192
  0
VERTEX
  8
RK-LAVAT
 10
18.423783
 20
-6.524437999999999
 30
2.235479999999999
 70
   192
  0
VERTEX
  8
RK-LAVAT
 10
18.52193999999999
 20
-6.866996999999999
 30
2.235479999999999
 70
   192
  0
VERTEX
  8
RK-LAVAT
 10
18.60011999999999
 20
-7.215572999999999
 30
2.235479999999999
 70
   192
  0
VERTEX
  8
RK-LAVAT
 10
18.65806
 20
-7.569138999999999
 30
2.235479999999999
 70
   192
  0
VERTEX
  8
RK-LAVAT
 10
18.69549899999999
 20
-7.926667
 30
2.235479999999999
 70
   192
  0
VERTEX
  8
RK-LAVAT
 10
18.64803099999999
 20
-8.35576
 30
2.235479999999999
 70
   192
  0
VERTEX
  8
RK-LAVAT
 10
18.571111
 20
-8.778537
 30
2.235479999999999
 70
   192
  0
VERTEX
  8
RK-LAVAT
 10
18.46525499999999
 20
-9.193241
 30
2.235479999999999
 70
   192
  0
VERTEX
  8
RK-LAVAT
 10
18.33097699999999
 20
-9.598113999999998
 30
2.235479999999999
 70
   192
  0
VERTEX
  8
RK-LAVAT
 10
18.16879099999999
 20
-9.991400999999999
 30
2.235479999999999
 70
   192
  0
VERTEX
  8
RK-LAVAT
 10
17.97921299999999
 20
-10.371344
 30
2.235479999999999
 70
   192
  0
VERTEX
  8
RK-LAVAT
 10
17.09702499999999
 20
-11.646646
 30
2.235479999999999
 70
   192
  0
VERTEX
  8
RK-LAVAT
 10
16.04434499999999
 20
-12.726724
 30
2.235480999999999
 70
   192
  0
VERTEX
  8
RK-LAVAT
 10
14.84833299999999
 20
-13.595233
 30
2.235480999999999
 70
   192
  0
VERTEX
  8
RK-LAVAT
 10
13.53615399999999
 20
-14.235831
 30
2.235480999999999
 70
   192
  0
VERTEX
  8
RK-LAVAT
 10
12.13496899999999
 20
-14.632174
 30
2.235480999999999
 70
   192
  0
VERTEX
  8
RK-LAVAT
 10
10.67194199999999
 20
-14.76792099999999
 30
2.235480999999999
 70
   192
  0
VERTEX
  8
RK-LAVAT
 10
9.208915999999994
 20
-14.632174
 30
2.235480999999999
 70
   192
  0
VERTEX
  8
RK-LAVAT
 10
7.807730999999996
 20
-14.235831
 30
2.235479999999999
 70
   192
  0
VERTEX
  8
RK-LAVAT
 10
6.495551999999996
 20
-13.59523199999999
 30
2.235479999999999
 70
   192
  0
VERTEX
  8
RK-LAVAT
 10
5.299540999999997
 20
-12.72672299999999
 30
2.235479999999999
 70
   192
  0
VERTEX
  8
RK-LAVAT
 10
4.246859999999998
 20
-11.646646
 30
2.235479999999999
 70
   192
  0
VERTEX
  8
RK-LAVAT
 10
3.364671999999998
 20
-10.371344
 30
2.235479999999999
 70
   192
  0
VERTEX
  8
RK-LAVAT
 10
3.175093999999994
 20
-9.991400999999999
 30
2.235478999999999
 70
   192
  0
VERTEX
  8
RK-LAVAT
 10
3.012909
 20
-9.598113999999998
 30
2.235478999999999
 70
   192
  0
VERTEX
  8
RK-LAVAT
 10
2.878629999999994
 20
-9.193241
 30
2.235478999999999
 70
   192
  0
VERTEX
  8
RK-LAVAT
 10
2.772773999999998
 20
-8.778537
 30
2.235478999999999
 70
   192
  0
VERTEX
  8
RK-LAVAT
 10
2.695854999999994
 20
-8.35576
 30
2.235478999999999
 70
   192
  0
VERTEX
  8
RK-LAVAT
 10
2.648386999999999
 20
-7.926667
 30
2.235478999999999
 70
   192
  0
VERTEX
  8
RK-LAVAT
 10
2.685824999999994
 20
-7.569138
 30
2.235478999999999
 70
   192
  0
VERTEX
  8
RK-LAVAT
 10
2.743764999999996
 20
-7.215572999999999
 30
2.235478999999999
 70
   192
  0
VERTEX
  8
RK-LAVAT
 10
2.821944999999999
 20
-6.866996999999999
 30
2.235478999999999
 70
   192
  0
VERTEX
  8
RK-LAVAT
 10
2.920101999999999
 20
-6.524437999999999
 30
2.235478999999999
 70
   192
  0
VERTEX
  8
RK-LAVAT
 10
3.037974999999995
 20
-6.188922999999999
 30
2.235478999999999
 70
   192
  0
VERTEX
  8
RK-LAVAT
 10
4.643356999999994
 20
-4.319501999999999
 30
1.499997999999999
 70
   192
  0
VERTEX
  8
RK-LAVAT
 10
3.850104999999999
 20
-5.617844999999999
 30
1.499997999999999
 70
   192
  0
VERTEX
  8
RK-LAVAT
 10
5.611004999999998
 20
-3.216319999999999
 30
1.499997999999999
 70
   192
  0
VERTEX
  8
RK-LAVAT
 10
6.725383999999998
 20
-2.326539
 30
1.499997999999999
 70
   192
  0
VERTEX
  8
RK-LAVAT
 10
7.958826999999999
 20
-1.668399999999998
 30
1.499997999999999
 70
   192
  0
VERTEX
  8
RK-LAVAT
 10
9.283671999999995
 20
-1.260139999999999
 30
1.499997999999999
 70
   192
  0
VERTEX
  8
RK-LAVAT
 10
10.67225199999999
 20
-1.119999999999999
 30
1.499997999999999
 70
   192
  0
VERTEX
  8
RK-LAVAT
 10
12.06083299999999
 20
-1.260139999999999
 30
1.499997999999999
 70
   192
  0
VERTEX
  8
RK-LAVAT
 10
13.38567799999999
 20
-1.668399999999998
 30
1.499997999999999
 70
   192
  0
VERTEX
  8
RK-LAVAT
 10
14.61912099999999
 20
-2.326540000000001
 30
1.499997999999999
 70
   192
  0
VERTEX
  8
RK-LAVAT
 10
15.7335
 20
-3.216319999999999
 30
1.499998999999999
 70
   192
  0
VERTEX
  8
RK-LAVAT
 10
16.70114799999999
 20
-4.319501999999999
 30
1.499998999999999
 70
   192
  0
VERTEX
  8
RK-LAVAT
 10
17.49439999999999
 20
-5.617844999999999
 30
1.499998999999999
 70
   192
  0
VERTEX
  8
RK-LAVAT
 10
17.61937099999999
 20
-5.928464999999999
 30
1.499998999999999
 70
   192
  0
VERTEX
  8
RK-LAVAT
 10
17.72663699999999
 20
-6.246739999999999
 30
1.499998999999999
 70
   192
  0
VERTEX
  8
RK-LAVAT
 10
17.81596299999999
 20
-6.571697999999999
 30
1.499998999999999
 70
   192
  0
VERTEX
  8
RK-LAVAT
 10
17.88710899999999
 20
-6.902362999999999
 30
1.499998999999999
 70
   192
  0
VERTEX
  8
RK-LAVAT
 10
17.93983599999999
 20
-7.237760999999999
 30
1.499998999999999
 70
   192
  0
VERTEX
  8
RK-LAVAT
 10
17.97390599999999
 20
-7.576917999999999
 30
1.5
 70
   192
  0
VERTEX
  8
RK-LAVAT
 10
17.93070899999999
 20
-7.983962999999999
 30
1.5
 70
   192
  0
VERTEX
  8
RK-LAVAT
 10
17.86070999999999
 20
-8.385016999999999
 30
1.5
 70
   192
  0
VERTEX
  8
RK-LAVAT
 10
17.76437899999999
 20
-8.778410999999998
 30
1.5
 70
   192
  0
VERTEX
  8
RK-LAVAT
 10
17.64218099999999
 20
-9.162480999999999
 30
1.5
 70
   192
  0
VERTEX
  8
RK-LAVAT
 10
17.49458799999999
 20
-9.535558999999999
 30
1.5
 70
   192
  0
VERTEX
  8
RK-LAVAT
 10
17.32206699999999
 20
-9.895979
 30
1.5
 70
   192
  0
VERTEX
  8
RK-LAVAT
 10
16.51925199999999
 20
-11.105753
 30
1.5
 70
   192
  0
VERTEX
  8
RK-LAVAT
 10
15.56128399999999
 20
-12.13033199999999
 30
1.5
 70
   192
  0
VERTEX
  8
RK-LAVAT
 10
14.47288099999999
 20
-12.95421399999999
 30
1.5
 70
   192
  0
VERTEX
  8
RK-LAVAT
 10
13.27876199999999
 20
-13.56189599999999
 30
1.5
 70
   192
  0
VERTEX
  8
RK-LAVAT
 10
12.00364599999999
 20
-13.937875
 30
1.5
 70
   192
  0
VERTEX
  8
RK-LAVAT
 10
10.67225199999999
 20
-14.066646
 30
1.5
 70
   192
  0
VERTEX
  8
RK-LAVAT
 10
9.340857999999997
 20
-13.937875
 30
1.5
 70
   192
  0
VERTEX
  8
RK-LAVAT
 10
8.065742
 20
-13.56189599999999
 30
1.5
 70
   192
  0
VERTEX
  8
RK-LAVAT
 10
6.871622999999999
 20
-12.95421399999999
 30
1.5
 70
   192
  0
VERTEX
  8
RK-LAVAT
 10
5.78322
 20
-12.13033199999999
 30
1.5
 70
   192
  0
VERTEX
  8
RK-LAVAT
 10
4.825251999999998
 20
-11.10575199999999
 30
1.499998999999999
 70
   192
  0
VERTEX
  8
RK-LAVAT
 10
4.022437999999993
 20
-9.895979
 30
1.499998999999999
 70
   192
  0
VERTEX
  8
RK-LAVAT
 10
3.849916999999997
 20
-9.535558999999999
 30
1.499998999999999
 70
   192
  0
VERTEX
  8
RK-LAVAT
 10
3.702322999999999
 20
-9.162480999999999
 30
1.499998999999999
 70
   192
  0
VERTEX
  8
RK-LAVAT
 10
3.580125999999999
 20
-8.778410999999998
 30
1.499998999999999
 70
   192
  0
VERTEX
  8
RK-LAVAT
 10
3.483793999999996
 20
-8.385016999999999
 30
1.499998999999999
 70
   192
  0
VERTEX
  8
RK-LAVAT
 10
3.413795999999997
 20
-7.983962999999999
 30
1.499998999999999
 70
   192
  0
VERTEX
  8
RK-LAVAT
 10
3.370598000000001
 20
-7.576917999999999
 30
1.499998999999999
 70
   192
  0
VERTEX
  8
RK-LAVAT
 10
3.404668
 20
-7.237760999999999
 30
1.499998999999999
 70
   192
  0
VERTEX
  8
RK-LAVAT
 10
3.457395999999995
 20
-6.902362
 30
1.499998999999999
 70
   192
  0
VERTEX
  8
RK-LAVAT
 10
3.528542000000001
 20
-6.571697999999999
 30
1.499998999999999
 70
   192
  0
VERTEX
  8
RK-LAVAT
 10
3.617866999999996
 20
-6.246741
 30
1.499998999999999
 70
   192
  0
VERTEX
  8
RK-LAVAT
 10
3.725133999999997
 20
-5.928464999999999
 30
1.499998999999999
 70
   192
  0
VERTEX
  8
RK-LAVAT
 10
5.165282999999995
 20
-4.226466999999999
 30
1.026537999999999
 70
   192
  0
VERTEX
  8
RK-LAVAT
 10
4.440647999999995
 20
-5.456039999999999
 30
1.026538999999999
 70
   192
  0
VERTEX
  8
RK-LAVAT
 10
6.049227999999999
 20
-3.181718
 30
1.026537999999999
 70
   192
  0
VERTEX
  8
RK-LAVAT
 10
7.067209999999995
 20
-2.339068000000001
 30
1.026537999999999
 70
   192
  0
VERTEX
  8
RK-LAVAT
 10
8.193958999999999
 20
-1.715789
 30
1.026537999999999
 70
   192
  0
VERTEX
  8
RK-LAVAT
 10
9.404202999999995
 20
-1.329153999999999
 30
1.026537999999999
 70
   192
  0
VERTEX
  8
RK-LAVAT
 10
10.67266799999999
 20
-1.196436999999999
 30
1.026537999999999
 70
   192
  0
VERTEX
  8
RK-LAVAT
 10
11.94113399999999
 20
-1.329153999999999
 30
1.026537999999999
 70
   192
  0
VERTEX
  8
RK-LAVAT
 10
13.15137799999999
 20
-1.715789
 30
1.026537999999999
 70
   192
  0
VERTEX
  8
RK-LAVAT
 10
14.27812699999999
 20
-2.339068000000001
 30
1.026538999999999
 70
   192
  0
VERTEX
  8
RK-LAVAT
 10
15.29611
 20
-3.181719000000001
 30
1.026538999999999
 70
   192
  0
VERTEX
  8
RK-LAVAT
 10
16.18005399999999
 20
-4.226466999999999
 30
1.026538999999999
 70
   192
  0
VERTEX
  8
RK-LAVAT
 10
16.90468899999999
 20
-5.456039999999999
 30
1.026538999999999
 70
   192
  0
VERTEX
  8
RK-LAVAT
 10
17.01884899999999
 20
-5.750206
 30
1.026538999999999
 70
   192
  0
VERTEX
  8
RK-LAVAT
 10
17.11683799999999
 20
-6.051622999999999
 30
1.026538999999999
 70
   192
  0
VERTEX
  8
RK-LAVAT
 10
17.19843599999999
 20
-6.359367999999999
 30
1.026538999999999
 70
   192
  0
VERTEX
  8
RK-LAVAT
 10
17.26342799999999
 20
-6.672518
 30
1.026538999999999
 70
   192
  0
VERTEX
  8
RK-LAVAT
 10
17.31159499999999
 20
-6.990150999999999
 30
1.026538999999999
 70
   192
  0
VERTEX
  8
RK-LAVAT
 10
17.34271699999999
 20
-7.311344
 30
1.026538999999999
 70
   192
  0
VERTEX
  8
RK-LAVAT
 10
17.30325699999999
 20
-7.696828
 30
1.026538999999999
 70
   192
  0
VERTEX
  8
RK-LAVAT
 10
17.23931299999999
 20
-8.076639
 30
1.026539999999999
 70
   192
  0
VERTEX
  8
RK-LAVAT
 10
17.15131399999999
 20
-8.449195999999998
 30
1.026539999999999
 70
   192
  0
VERTEX
  8
RK-LAVAT
 10
17.03968699999999
 20
-8.812922
 30
1.026539999999999
 70
   192
  0
VERTEX
  8
RK-LAVAT
 10
16.90486099999999
 20
-9.166238999999999
 30
1.026539999999999
 70
   192
  0
VERTEX
  8
RK-LAVAT
 10
16.74726299999999
 20
-9.507567999999999
 30
1.026539999999999
 70
   192
  0
VERTEX
  8
RK-LAVAT
 10
16.01389299999999
 20
-10.653262
 30
1.026539999999999
 70
   192
  0
VERTEX
  8
RK-LAVAT
 10
15.13879099999999
 20
-11.62357099999999
 30
1.026539999999999
 70
   192
  0
VERTEX
  8
RK-LAVAT
 10
14.14453699999999
 20
-12.40381399999999
 30
1.026539999999999
 70
   192
  0
VERTEX
  8
RK-LAVAT
 10
13.05371099999999
 20
-12.979308
 30
1.026539999999999
 70
   192
  0
VERTEX
  8
RK-LAVAT
 10
11.88889399999999
 20
-13.335371
 30
1.026539999999999
 70
   192
  0
VERTEX
  8
RK-LAVAT
 10
10.67266799999999
 20
-13.457322
 30
1.026539999999999
 70
   192
  0
VERTEX
  8
RK-LAVAT
 10
9.456441999999995
 20
-13.335371
 30
1.026539999999999
 70
   192
  0
VERTEX
  8
RK-LAVAT
 10
8.291625999999993
 20
-12.979308
 30
1.026539999999999
 70
   192
  0
VERTEX
  8
RK-LAVAT
 10
7.200799999999993
 20
-12.403813
 30
1.026539999999999
 70
   192
  0
VERTEX
  8
RK-LAVAT
 10
6.206545999999995
 20
-11.62357099999999
 30
1.026539999999999
 70
   192
  0
VERTEX
  8
RK-LAVAT
 10
5.331443
 20
-10.653261
 30
1.026538999999999
 70
   192
  0
VERTEX
  8
RK-LAVAT
 10
4.598073999999996
 20
-9.507567999999999
 30
1.026538999999999
 70
   192
  0
VERTEX
  8
RK-LAVAT
 10
4.440475999999996
 20
-9.166238999999999
 30
1.026538999999999
 70
   192
  0
VERTEX
  8
RK-LAVAT
 10
4.305649999999999
 20
-8.812922
 30
1.026538999999999
 70
   192
  0
VERTEX
  8
RK-LAVAT
 10
4.194023000000001
 20
-8.449195999999998
 30
1.026538999999999
 70
   192
  0
VERTEX
  8
RK-LAVAT
 10
4.106023999999997
 20
-8.076637999999999
 30
1.026538999999999
 70
   192
  0
VERTEX
  8
RK-LAVAT
 10
4.042079999999998
 20
-7.696828
 30
1.026538999999999
 70
   192
  0
VERTEX
  8
RK-LAVAT
 10
4.00262
 20
-7.311344
 30
1.026538999999999
 70
   192
  0
VERTEX
  8
RK-LAVAT
 10
4.033741999999996
 20
-6.990150999999999
 30
1.026538999999999
 70
   192
  0
VERTEX
  8
RK-LAVAT
 10
4.081908999999996
 20
-6.672518
 30
1.026538999999999
 70
   192
  0
VERTEX
  8
RK-LAVAT
 10
4.146899999999995
 20
-6.359367999999999
 30
1.026538999999999
 70
   192
  0
VERTEX
  8
RK-LAVAT
 10
4.228498999999999
 20
-6.051622999999999
 30
1.026538999999999
 70
   192
  0
VERTEX
  8
RK-LAVAT
 10
4.326487999999997
 20
-5.750206
 30
1.026538999999999
 70
   192
  0
VERTEX
  8
RK-LAVAT
 10
5.891738999999994
 20
-4.216901999999999
 30
0.5530779999999993
 70
   192
  0
VERTEX
  8
RK-LAVAT
 10
5.262583999999996
 20
-5.336819
 30
0.5530789999999995
 70
   192
  0
VERTEX
  8
RK-LAVAT
 10
6.659213999999998
 20
-3.265325999999999
 30
0.5530779999999993
 70
   192
  0
VERTEX
  8
RK-LAVAT
 10
7.543064999999998
 20
-2.497825
 30
0.5530779999999993
 70
   192
  0
VERTEX
  8
RK-LAVAT
 10
8.521350999999995
 20
-1.930129999999998
 30
0.5530779999999993
 70
   192
  0
VERTEX
  8
RK-LAVAT
 10
9.572129999999994
 20
-1.577975999999999
 30
0.5530779999999993
 70
   192
  0
VERTEX
  8
RK-LAVAT
 10
10.67345999999999
 20
-1.457094999999998
 30
0.5530779999999993
 70
   192
  0
VERTEX
  8
RK-LAVAT
 10
11.77479099999999
 20
-1.577975999999999
 30
0.5530779999999993
 70
   192
  0
VERTEX
  8
RK-LAVAT
 10
12.82556999999999
 20
-1.930129999999998
 30
0.5530779999999993
 70
   192
  0
VERTEX
  8
RK-LAVAT
 10
13.80385599999999
 20
-2.497825
 30
0.5530779999999993
 70
   192
  0
VERTEX
  8
RK-LAVAT
 10
14.68770699999999
 20
-3.265325999999999
 30
0.5530789999999995
 70
   192
  0
VERTEX
  8
RK-LAVAT
 10
15.45518199999999
 20
-4.216901999999999
 30
0.5530789999999995
 70
   192
  0
VERTEX
  8
RK-LAVAT
 10
16.08433699999999
 20
-5.336819
 30
0.5530789999999995
 70
   192
  0
VERTEX
  8
RK-LAVAT
 10
16.183456
 20
-5.604751999999999
 30
0.5530789999999995
 70
   192
  0
VERTEX
  8
RK-LAVAT
 10
16.26853299999999
 20
-5.879287999999998
 30
0.5530789999999995
 70
   192
  0
VERTEX
  8
RK-LAVAT
 10
16.33937999999999
 20
-6.159587
 30
0.5530789999999995
 70
   192
  0
VERTEX
  8
RK-LAVAT
 10
16.39580799999999
 20
-6.44481
 30
0.5530789999999995
 70
   192
  0
VERTEX
  8
RK-LAVAT
 10
16.43762799999999
 20
-6.734116
 30
0.5530789999999995
 70
   192
  0
VERTEX
  8
RK-LAVAT
 10
16.46465
 20
-7.026664
 30
0.5530789999999995
 70
   192
  0
VERTEX
  8
RK-LAVAT
 10
16.43038899999999
 20
-7.377770999999999
 30
0.5530789999999995
 70
   192
  0
VERTEX
  8
RK-LAVAT
 10
16.37486999999999
 20
-7.723708999999999
 30
0.5530789999999995
 70
   192
  0
VERTEX
  8
RK-LAVAT
 10
16.29846599999999
 20
-8.063040999999998
 30
0.5530799999999996
 70
   192
  0
VERTEX
  8
RK-LAVAT
 10
16.20154799999999
 20
-8.394328999999999
 30
0.5530799999999996
 70
   192
  0
VERTEX
  8
RK-LAVAT
 10
16.084486
 20
-8.716136999999999
 30
0.5530799999999996
 70
   192
  0
VERTEX
  8
RK-LAVAT
 10
15.94765399999999
 20
-9.027025999999999
 30
0.5530799999999996
 70
   192
  0
VERTEX
  8
RK-LAVAT
 10
15.31091399999999
 20
-10.07054499999999
 30
0.5530799999999996
 70
   192
  0
VERTEX
  8
RK-LAVAT
 10
14.55111699999999
 20
-10.95431999999999
 30
0.5530799999999996
 70
   192
  0
VERTEX
  8
RK-LAVAT
 10
13.68786799999999
 20
-11.66498
 30
0.5530799999999996
 70
   192
  0
VERTEX
  8
RK-LAVAT
 10
12.74077199999999
 20
-12.18914999999999
 30
0.5530799999999996
 70
   192
  0
VERTEX
  8
RK-LAVAT
 10
11.72943399999999
 20
-12.513459
 30
0.5530799999999996
 70
   192
  0
VERTEX
  8
RK-LAVAT
 10
10.67345999999999
 20
-12.624534
 30
0.5530799999999996
 70
   192
  0
VERTEX
  8
RK-LAVAT
 10
9.617485999999999
 20
-12.513459
 30
0.5530799999999996
 70
   192
  0
VERTEX
  8
RK-LAVAT
 10
8.606148999999994
 20
-12.18914999999999
 30
0.5530799999999996
 70
   192
  0
VERTEX
  8
RK-LAVAT
 10
7.659053
 20
-11.66497899999999
 30
0.5530799999999996
 70
   192
  0
VERTEX
  8
RK-LAVAT
 10
6.795802999999999
 20
-10.95431999999999
 30
0.5530799999999996
 70
   192
  0
VERTEX
  8
RK-LAVAT
 10
6.036006
 20
-10.070544
 30
0.5530789999999995
 70
   192
  0
VERTEX
  8
RK-LAVAT
 10
5.399266999999994
 20
-9.027025999999999
 30
0.5530789999999995
 70
   192
  0
VERTEX
  8
RK-LAVAT
 10
5.262434999999996
 20
-8.716136999999999
 30
0.5530789999999995
 70
   192
  0
VERTEX
  8
RK-LAVAT
 10
5.145372999999999
 20
-8.394328999999999
 30
0.5530789999999995
 70
   192
  0
VERTEX
  8
RK-LAVAT
 10
5.048453999999999
 20
-8.063040999999998
 30
0.5530789999999995
 70
   192
  0
VERTEX
  8
RK-LAVAT
 10
4.972051
 20
-7.723708999999999
 30
0.5530789999999995
 70
   192
  0
VERTEX
  8
RK-LAVAT
 10
4.916531999999996
 20
-7.377770999999999
 30
0.5530789999999995
 70
   192
  0
VERTEX
  8
RK-LAVAT
 10
4.882270999999995
 20
-7.026664
 30
0.5530789999999995
 70
   192
  0
VERTEX
  8
RK-LAVAT
 10
4.909292999999998
 20
-6.734116
 30
0.5530789999999995
 70
   192
  0
VERTEX
  8
RK-LAVAT
 10
4.951112999999999
 20
-6.44481
 30
0.5530789999999995
 70
   192
  0
VERTEX
  8
RK-LAVAT
 10
5.007540999999996
 20
-6.159587
 30
0.5530789999999995
 70
   192
  0
VERTEX
  8
RK-LAVAT
 10
5.078387999999996
 20
-5.879287999999998
 30
0.5530789999999995
 70
   192
  0
VERTEX
  8
RK-LAVAT
 10
5.163465999999999
 20
-5.604751999999999
 30
0.5530789999999995
 70
   192
  0
VERTEX
  8
RK-LAVAT
 10
7.422070999999995
 20
-4.355421999999999
 30
0.0796189999999992
 70
   192
  0
VERTEX
  8
RK-LAVAT
 10
6.993153999999996
 20
-5.255615
 30
0.0796189999999992
 70
   192
  0
VERTEX
  8
RK-LAVAT
 10
7.945284
 20
-3.590542000000001
 30
0.0796189999999992
 70
   192
  0
VERTEX
  8
RK-LAVAT
 10
8.547834999999999
 20
-2.973622999999999
 30
0.0796189999999992
 70
   192
  0
VERTEX
  8
RK-LAVAT
 10
9.214765999999997
 20
-2.517307999999999
 30
0.0796189999999992
 70
   192
  0
VERTEX
  8
RK-LAVAT
 10
9.931117999999997
 20
-2.234246
 30
0.079618
 70
   192
  0
VERTEX
  8
RK-LAVAT
 10
10.68193199999999
 20
-2.137080999999998
 30
0.0796189999999992
 70
   192
  0
VERTEX
  8
RK-LAVAT
 10
11.43274699999999
 20
-2.234246
 30
0.0796189999999992
 70
   192
  0
VERTEX
  8
RK-LAVAT
 10
12.14909899999999
 20
-2.517309
 30
0.0796189999999992
 70
   192
  0
VERTEX
  8
RK-LAVAT
 10
12.81602999999999
 20
-2.973622999999999
 30
0.0796189999999992
 70
   192
  0
VERTEX
  8
RK-LAVAT
 10
13.41858099999999
 20
-3.590543
 30
0.0796189999999992
 70
   192
  0
VERTEX
  8
RK-LAVAT
 10
13.94179399999999
 20
-4.355421999999999
 30
0.0796189999999992
 70
   192
  0
VERTEX
  8
RK-LAVAT
 10
14.37071099999999
 20
-5.255615
 30
0.0796189999999992
 70
   192
  0
VERTEX
  8
RK-LAVAT
 10
14.43828299999999
 20
-5.470979999999999
 30
0.0796189999999992
 70
   192
  0
VERTEX
  8
RK-LAVAT
 10
14.49628299999999
 20
-5.691651999999999
 30
0.0796189999999992
 70
   192
  0
VERTEX
  8
RK-LAVAT
 10
14.54458199999999
 20
-5.916957999999999
 30
0.0796189999999992
 70
   192
  0
VERTEX
  8
RK-LAVAT
 10
14.58305099999999
 20
-6.146220999999998
 30
0.0796189999999992
 70
   192
  0
VERTEX
  8
RK-LAVAT
 10
14.611561
 20
-6.378765999999998
 30
0.0796189999999992
 70
   192
  0
VERTEX
  8
RK-LAVAT
 10
14.62998299999999
 20
-6.613916999999998
 30
0.0796189999999992
 70
   192
  0
VERTEX
  8
RK-LAVAT
 10
14.606626
 20
-6.896136999999999
 30
0.0796189999999992
 70
   192
  0
VERTEX
  8
RK-LAVAT
 10
14.56877699999999
 20
-7.174203
 30
0.0796189999999992
 70
   192
  0
VERTEX
  8
RK-LAVAT
 10
14.51668999999999
 20
-7.446958999999999
 30
0.0796189999999992
 70
   192
  0
VERTEX
  8
RK-LAVAT
 10
14.45061699999999
 20
-7.71325
 30
0.0796189999999992
 70
   192
  0
VERTEX
  8
RK-LAVAT
 10
14.370813
 20
-7.971919999999999
 30
0.0796189999999992
 70
   192
  0
VERTEX
  8
RK-LAVAT
 10
14.27753
 20
-8.221812999999999
 30
0.0796189999999992
 70
   192
  0
VERTEX
  8
RK-LAVAT
 10
13.84344199999999
 20
-9.060596999999999
 30
0.0796200000000003
 70
   192
  0
VERTEX
  8
RK-LAVAT
 10
13.32546299999999
 20
-9.770977999999999
 30
0.0796200000000003
 70
   192
  0
VERTEX
  8
RK-LAVAT
 10
12.73695599999999
 20
-10.34220799999999
 30
0.0796200000000003
 70
   192
  0
VERTEX
  8
RK-LAVAT
 10
12.09128899999999
 20
-10.763538
 30
0.0796200000000003
 70
   192
  0
VERTEX
  8
RK-LAVAT
 10
11.40182499999999
 20
-11.02421799999999
 30
0.0796200000000003
 70
   192
  0
VERTEX
  8
RK-LAVAT
 10
10.68193199999999
 20
-11.11350099999999
 30
0.0796200000000003
 70
   192
  0
VERTEX
  8
RK-LAVAT
 10
9.962038999999997
 20
-11.02421799999999
 30
0.0796200000000003
 70
   192
  0
VERTEX
  8
RK-LAVAT
 10
9.272576
 20
-10.763538
 30
0.0796200000000003
 70
   192
  0
VERTEX
  8
RK-LAVAT
 10
8.626908
 20
-10.34220799999999
 30
0.0796200000000003
 70
   192
  0
VERTEX
  8
RK-LAVAT
 10
8.038401999999997
 20
-9.770977999999999
 30
0.0796189999999992
 70
   192
  0
VERTEX
  8
RK-LAVAT
 10
7.520421999999996
 20
-9.060596
 30
0.0796189999999992
 70
   192
  0
VERTEX
  8
RK-LAVAT
 10
7.086334999999998
 20
-8.221812999999999
 30
0.0796189999999992
 70
   192
  0
VERTEX
  8
RK-LAVAT
 10
6.993051999999998
 20
-7.971919999999999
 30
0.0796189999999992
 70
   192
  0
VERTEX
  8
RK-LAVAT
 10
6.913246999999998
 20
-7.71325
 30
0.0796189999999992
 70
   192
  0
VERTEX
  8
RK-LAVAT
 10
6.847175
 20
-7.446958999999999
 30
0.0796189999999992
 70
   192
  0
VERTEX
  8
RK-LAVAT
 10
6.795086999999995
 20
-7.174203
 30
0.0796189999999992
 70
   192
  0
VERTEX
  8
RK-LAVAT
 10
6.757238999999998
 20
-6.896136999999999
 30
0.0796189999999992
 70
   192
  0
VERTEX
  8
RK-LAVAT
 10
6.733881999999994
 20
-6.613916999999998
 30
0.0796189999999992
 70
   192
  0
VERTEX
  8
RK-LAVAT
 10
6.752303999999995
 20
-6.378765999999998
 30
0.0796189999999992
 70
   192
  0
VERTEX
  8
RK-LAVAT
 10
6.780813999999999
 20
-6.146220999999998
 30
0.0796189999999992
 70
   192
  0
VERTEX
  8
RK-LAVAT
 10
6.819282999999998
 20
-5.916957999999999
 30
0.0796189999999992
 70
   192
  0
VERTEX
  8
RK-LAVAT
 10
6.867581000000001
 20
-5.691651999999999
 30
0.0796189999999992
 70
   192
  0
VERTEX
  8
RK-LAVAT
 10
6.925581999999998
 20
-5.470979999999999
 30
0.0796189999999992
 70
   192
  0
VERTEX
  8
RK-LAVAT
 10
7.987370999999996
 20
-4.378997
 30
0.0530790000000003
 70
   192
  0
VERTEX
  8
RK-LAVAT
 10
7.635391999999995
 20
-5.2537
 30
0.0530790000000003
 70
   192
  0
VERTEX
  8
RK-LAVAT
 10
8.416733
 20
-3.635774999999998
 30
0.0530790000000003
 70
   192
  0
VERTEX
  8
RK-LAVAT
 10
8.911200999999998
 20
-3.036324
 30
0.0530790000000003
 70
   192
  0
VERTEX
  8
RK-LAVAT
 10
9.458500999999998
 20
-2.592931
 30
0.0530790000000003
 70
   192
  0
VERTEX
  8
RK-LAVAT
 10
10.046357
 20
-2.317883
 30
0.0530790000000003
 70
   192
  0
VERTEX
  8
RK-LAVAT
 10
10.66249299999999
 20
-2.22347
 30
0.0530790000000003
 70
   192
  0
VERTEX
  8
RK-LAVAT
 10
11.27863
 20
-2.317883999999999
 30
0.0530790000000003
 70
   192
  0
VERTEX
  8
RK-LAVAT
 10
11.86648599999999
 20
-2.592931
 30
0.0530790000000003
 70
   192
  0
VERTEX
  8
RK-LAVAT
 10
12.41378599999999
 20
-3.036324
 30
0.0530790000000003
 70
   192
  0
VERTEX
  8
RK-LAVAT
 10
12.90825399999999
 20
-3.635774999999998
 30
0.0530790000000003
 70
   192
  0
VERTEX
  8
RK-LAVAT
 10
13.33761599999999
 20
-4.378997
 30
0.0530790000000003
 70
   192
  0
VERTEX
  8
RK-LAVAT
 10
13.68959599999999
 20
-5.2537
 30
0.0530799999999996
 70
   192
  0
VERTEX
  8
RK-LAVAT
 10
13.74504699999999
 20
-5.462965999999999
 30
0.0530799999999996
 70
   192
  0
VERTEX
  8
RK-LAVAT
 10
13.79264299999999
 20
-5.677391
 30
0.0530799999999996
 70
   192
  0
VERTEX
  8
RK-LAVAT
 10
13.83227899999999
 20
-5.896316999999999
 30
0.0530799999999996
 70
   192
  0
VERTEX
  8
RK-LAVAT
 10
13.86384699999999
 20
-6.119087999999999
 30
0.0530799999999996
 70
   192
  0
VERTEX
  8
RK-LAVAT
 10
13.88724299999999
 20
-6.345048
 30
0.0530799999999996
 70
   192
  0
VERTEX
  8
RK-LAVAT
 10
13.90235999999999
 20
-6.573541
 30
0.0530799999999996
 70
   192
  0
VERTEX
  8
RK-LAVAT
 10
13.883193
 20
-6.84777
 30
0.0530799999999996
 70
   192
  0
VERTEX
  8
RK-LAVAT
 10
13.852134
 20
-7.117962
 30
0.0530799999999996
 70
   192
  0
VERTEX
  8
RK-LAVAT
 10
13.80938999999999
 20
-7.382994999999999
 30
0.0530799999999996
 70
   192
  0
VERTEX
  8
RK-LAVAT
 10
13.75516799999999
 20
-7.641745
 30
0.0530799999999996
 70
   192
  0
VERTEX
  8
RK-LAVAT
 10
13.68967899999999
 20
-7.893089999999999
 30
0.0530799999999996
 70
   192
  0
VERTEX
  8
RK-LAVAT
 10
13.61312799999999
 20
-8.135908
 30
0.0530799999999996
 70
   192
  0
VERTEX
  8
RK-LAVAT
 10
13.25690599999999
 20
-8.950941
 30
0.0530799999999996
 70
   192
  0
VERTEX
  8
RK-LAVAT
 10
12.831839
 20
-9.641206999999999
 30
0.0530799999999996
 70
   192
  0
VERTEX
  8
RK-LAVAT
 10
12.34889699999999
 20
-10.196262
 30
0.0530799999999996
 70
   192
  0
VERTEX
  8
RK-LAVAT
 10
11.81904599999999
 20
-10.60566099999999
 30
0.0530799999999996
 70
   192
  0
VERTEX
  8
RK-LAVAT
 10
11.25325499999999
 20
-10.85895999999999
 30
0.0530799999999996
 70
   192
  0
VERTEX
  8
RK-LAVAT
 10
10.66249299999999
 20
-10.945715
 30
0.0530799999999996
 70
   192
  0
VERTEX
  8
RK-LAVAT
 10
10.07173099999999
 20
-10.85895999999999
 30
0.0530799999999996
 70
   192
  0
VERTEX
  8
RK-LAVAT
 10
9.505940999999999
 20
-10.60566099999999
 30
0.0530799999999996
 70
   192
  0
VERTEX
  8
RK-LAVAT
 10
8.976089999999999
 20
-10.19626099999999
 30
0.0530799999999996
 70
   192
  0
VERTEX
  8
RK-LAVAT
 10
8.493147
 20
-9.641206
 30
0.0530799999999996
 70
   192
  0
VERTEX
  8
RK-LAVAT
 10
8.068080999999999
 20
-8.950939999999999
 30
0.0530799999999996
 70
   192
  0
VERTEX
  8
RK-LAVAT
 10
7.711858999999996
 20
-8.135908
 30
0.0530799999999996
 70
   192
  0
VERTEX
  8
RK-LAVAT
 10
7.635307999999994
 20
-7.893089999999999
 30
0.0530799999999996
 70
   192
  0
VERTEX
  8
RK-LAVAT
 10
7.569817999999997
 20
-7.641745
 30
0.0530799999999996
 70
   192
  0
VERTEX
  8
RK-LAVAT
 10
7.515596999999999
 20
-7.382994999999999
 30
0.0530799999999996
 70
   192
  0
VERTEX
  8
RK-LAVAT
 10
7.472853
 20
-7.117962
 30
0.0530799999999996
 70
   192
  0
VERTEX
  8
RK-LAVAT
 10
7.441793999999994
 20
-6.847768999999999
 30
0.0530790000000003
 70
   192
  0
VERTEX
  8
RK-LAVAT
 10
7.422626999999998
 20
-6.573541
 30
0.0530790000000003
 70
   192
  0
VERTEX
  8
RK-LAVAT
 10
7.437743999999995
 20
-6.345048
 30
0.0530790000000003
 70
   192
  0
VERTEX
  8
RK-LAVAT
 10
7.46114
 20
-6.119087999999999
 30
0.0530790000000003
 70
   192
  0
VERTEX
  8
RK-LAVAT
 10
7.492708
 20
-5.896316999999999
 30
0.0530790000000003
 70
   192
  0
VERTEX
  8
RK-LAVAT
 10
7.532343999999994
 20
-5.677391
 30
0.0530790000000003
 70
   192
  0
VERTEX
  8
RK-LAVAT
 10
7.57994
 20
-5.462965999999999
 30
0.0530790000000003
 70
   192
  0
VERTEX
  8
RK-LAVAT
 10
8.770235999999997
 20
-4.412765
 30
0.0265399999999998
 70
   192
  0
VERTEX
  8
RK-LAVAT
 10
8.521276999999997
 20
-5.254737
 30
0.0265399999999998
 70
   192
  0
VERTEX
  8
RK-LAVAT
 10
9.073928999999999
 20
-3.697354999999999
 30
0.0265399999999998
 70
   192
  0
VERTEX
  8
RK-LAVAT
 10
9.423672999999993
 20
-3.120335
 30
0.0265399999999998
 70
   192
  0
VERTEX
  8
RK-LAVAT
 10
9.810784999999995
 20
-2.693533999999999
 30
0.0265389999999997
 70
   192
  0
VERTEX
  8
RK-LAVAT
 10
10.22658299999999
 20
-2.428779
 30
0.0265389999999997
 70
   192
  0
VERTEX
  8
RK-LAVAT
 10
10.66238399999999
 20
-2.337898
 30
0.0265389999999997
 70
   192
  0
VERTEX
  8
RK-LAVAT
 10
11.098185
 20
-2.428779
 30
0.0265399999999998
 70
   192
  0
VERTEX
  8
RK-LAVAT
 10
11.51398299999999
 20
-2.693533999999999
 30
0.0265399999999998
 70
   192
  0
VERTEX
  8
RK-LAVAT
 10
11.90109599999999
 20
-3.120335
 30
0.0265399999999998
 70
   192
  0
VERTEX
  8
RK-LAVAT
 10
12.250839
 20
-3.697354999999999
 30
0.0265399999999998
 70
   192
  0
VERTEX
  8
RK-LAVAT
 10
12.55453199999999
 20
-4.412765
 30
0.0265399999999998
 70
   192
  0
VERTEX
  8
RK-LAVAT
 10
12.80349199999999
 20
-5.254737
 30
0.0265399999999998
 70
   192
  0
VERTEX
  8
RK-LAVAT
 10
12.84271299999999
 20
-5.456172999999999
 30
0.0265399999999998
 70
   192
  0
VERTEX
  8
RK-LAVAT
 10
12.87637899999999
 20
-5.662573999999999
 30
0.0265399999999998
 70
   192
  0
VERTEX
  8
RK-LAVAT
 10
12.90441299999999
 20
-5.873307999999999
 30
0.0265399999999998
 70
   192
  0
VERTEX
  8
RK-LAVAT
 10
12.92674199999999
 20
-6.087742999999999
 30
0.0265399999999998
 70
   192
  0
VERTEX
  8
RK-LAVAT
 10
12.94328999999999
 20
-6.305246999999999
 30
0.0265399999999998
 70
   192
  0
VERTEX
  8
RK-LAVAT
 10
12.95398299999999
 20
-6.52519
 30
0.0265399999999998
 70
   192
  0
VERTEX
  8
RK-LAVAT
 10
12.940426
 20
-6.789156999999999
 30
0.0265399999999998
 70
   192
  0
VERTEX
  8
RK-LAVAT
 10
12.91845699999999
 20
-7.049239
 30
0.0265399999999998
 70
   192
  0
VERTEX
  8
RK-LAVAT
 10
12.88822399999999
 20
-7.304354999999999
 30
0.0265399999999998
 70
   192
  0
VERTEX
  8
RK-LAVAT
 10
12.84987199999999
 20
-7.553423
 30
0.0265399999999998
 70
   192
  0
VERTEX
  8
RK-LAVAT
 10
12.80355099999999
 20
-7.795363
 30
0.0265409999999999
 70
   192
  0
VERTEX
  8
RK-LAVAT
 10
12.74940599999999
 20
-8.029093999999998
 30
0.0265409999999999
 70
   192
  0
VERTEX
  8
RK-LAVAT
 10
12.497445
 20
-8.813627999999999
 30
0.0265409999999999
 70
   192
  0
VERTEX
  8
RK-LAVAT
 10
12.19678999999999
 20
-9.478064999999999
 30
0.0265409999999999
 70
   192
  0
VERTEX
  8
RK-LAVAT
 10
11.85519799999999
 20
-10.01235
 30
0.0265409999999999
 70
   192
  0
VERTEX
  8
RK-LAVAT
 10
11.48042799999999
 20
-10.40642999999999
 30
0.0265409999999999
 70
   192
  0
VERTEX
  8
RK-LAVAT
 10
11.08023799999999
 20
-10.65025099999999
 30
0.0265409999999999
 70
   192
  0
VERTEX
  8
RK-LAVAT
 10
10.66238399999999
 20
-10.733759
 30
0.0265409999999999
 70
   192
  0
VERTEX
  8
RK-LAVAT
 10
10.24453099999999
 20
-10.65025099999999
 30
0.0265409999999999
 70
   192
  0
VERTEX
  8
RK-LAVAT
 10
9.844339999999995
 20
-10.40642999999999
 30
0.0265409999999999
 70
   192
  0
VERTEX
  8
RK-LAVAT
 10
9.469569999999997
 20
-10.01235
 30
0.0265409999999999
 70
   192
  0
VERTEX
  8
RK-LAVAT
 10
9.127977999999998
 20
-9.478064999999999
 30
0.0265409999999999
 70
   192
  0
VERTEX
  8
RK-LAVAT
 10
8.827322999999999
 20
-8.813627999999999
 30
0.0265399999999998
 70
   192
  0
VERTEX
  8
RK-LAVAT
 10
8.575362999999995
 20
-8.029093999999998
 30
0.0265399999999998
 70
   192
  0
VERTEX
  8
RK-LAVAT
 10
8.521217999999997
 20
-7.795363
 30
0.0265399999999998
 70
   192
  0
VERTEX
  8
RK-LAVAT
 10
8.474896000000001
 20
-7.553423
 30
0.0265399999999998
 70
   192
  0
VERTEX
  8
RK-LAVAT
 10
8.436544999999995
 20
-7.304354999999999
 30
0.0265399999999998
 70
   192
  0
VERTEX
  8
RK-LAVAT
 10
8.406311999999999
 20
-7.049239
 30
0.0265399999999998
 70
   192
  0
VERTEX
  8
RK-LAVAT
 10
8.384342999999994
 20
-6.789156999999999
 30
0.0265399999999998
 70
   192
  0
VERTEX
  8
RK-LAVAT
 10
8.370785999999995
 20
-6.52519
 30
0.0265399999999998
 70
   192
  0
VERTEX
  8
RK-LAVAT
 10
8.381477999999994
 20
-6.305246999999999
 30
0.0265399999999998
 70
   192
  0
VERTEX
  8
RK-LAVAT
 10
8.398026999999999
 20
-6.087742999999999
 30
0.0265399999999998
 70
   192
  0
VERTEX
  8
RK-LAVAT
 10
8.420355
 20
-5.873307999999999
 30
0.0265399999999998
 70
   192
  0
VERTEX
  8
RK-LAVAT
 10
8.448389999999996
 20
-5.662573999999999
 30
0.0265399999999998
 70
   192
  0
VERTEX
  8
RK-LAVAT
 10
8.482054999999995
 20
-5.456172999999999
 30
0.0265399999999998
 70
   192
  0
VERTEX
  8
RK-LAVAT
 10
10.69826099999999
 20
-4.542653999999998
 30
0.0
 70
   192
  0
VERTEX
  8
RK-LAVAT
 10
10.69826099999999
 20
-5.32286
 30
0.0000009999999993
 70
   192
  0
VERTEX
  8
RK-LAVAT
 10
10.69826099999999
 20
-3.879725999999999
 30
0.0
 70
   192
  0
VERTEX
  8
RK-LAVAT
 10
10.69826099999999
 20
-3.345036
 30
0.0
 70
   192
  0
VERTEX
  8
RK-LAVAT
 10
10.69826099999999
 20
-2.949544000000001
 30
0.0
 70
   192
  0
VERTEX
  8
RK-LAVAT
 10
10.69826099999999
 20
-2.704212
 30
0.0
 70
   192
  0
VERTEX
  8
RK-LAVAT
 10
10.69826099999999
 20
-2.619998
 30
0.0
 70
   192
  0
VERTEX
  8
RK-LAVAT
 10
10.69826099999999
 20
-2.949545
 30
0.0
 70
   192
  0
VERTEX
  8
RK-LAVAT
 10
10.69826099999999
 20
-5.509517999999999
 30
0.0000009999999993
 70
   192
  0
VERTEX
  8
RK-LAVAT
 10
10.69826099999999
 20
-5.700777
 30
0.0000009999999993
 70
   192
  0
VERTEX
  8
RK-LAVAT
 10
10.69826099999999
 20
-5.896051999999999
 30
0.0000009999999993
 70
   192
  0
VERTEX
  8
RK-LAVAT
 10
10.69826099999999
 20
-6.094756
 30
0.0000009999999993
 70
   192
  0
VERTEX
  8
RK-LAVAT
 10
10.69826099999999
 20
-6.296305
 30
0.0000009999999993
 70
   192
  0
VERTEX
  8
RK-LAVAT
 10
10.69826099999999
 20
-6.500113
 30
0.0000009999999993
 70
   192
  0
VERTEX
  8
RK-LAVAT
 10
10.69826099999999
 20
-6.744716
 30
0.0000009999999993
 70
   192
  0
VERTEX
  8
RK-LAVAT
 10
10.69826099999999
 20
-6.985718
 30
0.0000009999999993
 70
   192
  0
VERTEX
  8
RK-LAVAT
 10
10.69826099999999
 20
-7.222118
 30
0.0000009999999993
 70
   192
  0
VERTEX
  8
RK-LAVAT
 10
10.69826099999999
 20
-7.452914999999999
 30
0.0000009999999993
 70
   192
  0
VERTEX
  8
RK-LAVAT
 10
10.69826099999999
 20
-7.677106
 30
0.0000009999999993
 70
   192
  0
VERTEX
  8
RK-LAVAT
 10
10.69826099999999
 20
-7.893691
 30
0.0000009999999993
 70
   192
  0
VERTEX
  8
RK-LAVAT
 10
10.69826099999999
 20
-8.620673
 30
0.0000009999999993
 70
   192
  0
VERTEX
  8
RK-LAVAT
 10
10.69826099999999
 20
-9.236366
 30
0.0000009999999993
 70
   192
  0
VERTEX
  8
RK-LAVAT
 10
10.69826099999999
 20
-9.731456999999998
 30
0.0000009999999993
 70
   192
  0
VERTEX
  8
RK-LAVAT
 10
10.69826099999999
 20
-10.096627
 30
0.0000009999999993
 70
   192
  0
VERTEX
  8
RK-LAVAT
 10
10.69826099999999
 20
-10.322561
 30
0.0000009999999993
 70
   192
  0
VERTEX
  8
RK-LAVAT
 10
10.69826099999999
 20
-10.399943
 30
0.0000009999999993
 70
   192
  0
VERTEX
  8
RK-LAVAT
 10
10.69826099999999
 20
-9.731455999999999
 30
0.0000009999999993
 70
   192
  0
VERTEX
  8
RK-LAVAT
 10
10.69826099999999
 20
-8.620671999999999
 30
0.0000009999999993
 70
   192
  0
VERTEX
  8
RK-LAVAT
 10
10.69826099999999
 20
-5.700777999999999
 30
0.0000009999999993
 70
   192
  0
VERTEX
  8
RK-LAVAT
 10
20.583759
 20
-5.788359999999999
 30
4.999997999999999
 70
   192
  0
VERTEX
  8
RK-LAVAT
 10
20.583759
 20
-5.788359999999999
 30
5.499997999999999
 70
   192
  0
VERTEX
  8
RK-LAVAT
 10
20.800483
 20
-6.263325
 30
5.499997999999999
 70
   192
  0
VERTEX
  8
RK-LAVAT
 10
20.800483
 20
-6.263325
 30
4.999997999999999
 70
   192
  0
VERTEX
  8
RK-LAVAT
 10
21.110786
 20
-7.177443999999999
 30
4.999997999999999
 70
   192
  0
VERTEX
  8
RK-LAVAT
 10
21.110786
 20
-7.177443999999999
 30
5.499997999999999
 70
   192
  0
VERTEX
  8
RK-LAVAT
 10
21.299116
 20
-8.124245
 30
5.499997999999999
 70
   192
  0
VERTEX
  8
RK-LAVAT
 10
21.299116
 20
-8.124245
 30
4.999997999999999
 70
   192
  0
VERTEX
  8
RK-LAVAT
 10
21.344509
 20
-8.576057
 30
5.499997999999999
 70
   192
  0
VERTEX
  8
RK-LAVAT
 10
21.344509
 20
-8.576057
 30
4.999997999999999
 70
   192
  0
VERTEX
  8
RK-LAVAT
 10
21.299116
 20
-9.027867999999999
 30
5.499997999999999
 70
   192
  0
VERTEX
  8
RK-LAVAT
 10
21.299116
 20
-9.027867999999999
 30
4.999997999999999
 70
   192
  0
VERTEX
  8
RK-LAVAT
 10
21.110786
 20
-9.974669
 30
5.499997999999999
 70
   192
  0
VERTEX
  8
RK-LAVAT
 10
21.110786
 20
-9.974669
 30
4.999997999999999
 70
   192
  0
VERTEX
  8
RK-LAVAT
 10
20.800483
 20
-10.88878899999999
 30
4.999997999999999
 70
   192
  0
VERTEX
  8
RK-LAVAT
 10
20.800483
 20
-10.88878899999999
 30
5.499997999999999
 70
   192
  0
VERTEX
  8
RK-LAVAT
 10
20.373521
 20
-11.754585
 30
5.499997999999999
 70
   192
  0
VERTEX
  8
RK-LAVAT
 10
20.373521
 20
-11.754585
 30
4.999997999999999
 70
   192
  0
VERTEX
  8
RK-LAVAT
 10
20.325414
 20
-11.836681
 30
5.499997999999999
 70
   192
  0
VERTEX
  8
RK-LAVAT
 10
20.325414
 20
-11.836681
 30
4.999997999999999
 70
   192
  0
VERTEX
  8
RK-LAVAT
 10
19.700614
 20
-12.737705
 30
5.499997999999999
 70
   192
  0
VERTEX
  8
RK-LAVAT
 10
19.700614
 20
-12.737705
 30
4.999997999999999
 70
   192
  0
VERTEX
  8
RK-LAVAT
 10
18.719127
 20
-13.856875
 30
5.499997999999999
 70
   192
  0
VERTEX
  8
RK-LAVAT
 10
18.719127
 20
-13.856875
 30
4.999997999999999
 70
   192
  0
VERTEX
  8
RK-LAVAT
 10
17.599958
 20
-14.83836099999999
 30
4.999997999999999
 70
   192
  0
VERTEX
  8
RK-LAVAT
 10
17.599958
 20
-14.83836099999999
 30
5.499997999999999
 70
   192
  0
VERTEX
  8
RK-LAVAT
 10
16.362253
 20
-15.665369
 30
5.499997999999999
 70
   192
  0
VERTEX
  8
RK-LAVAT
 10
16.362253
 20
-15.665369
 30
4.999997999999999
 70
   192
  0
VERTEX
  8
RK-LAVAT
 10
15.027191
 20
-16.323749
 30
5.499997999999999
 70
   192
  0
VERTEX
  8
RK-LAVAT
 10
15.027191
 20
-16.323749
 30
4.999997999999999
 70
   192
  0
VERTEX
  8
RK-LAVAT
 10
13.617614
 20
-16.802236
 30
5.499997999999999
 70
   192
  0
VERTEX
  8
RK-LAVAT
 10
13.617614
 20
-16.802236
 30
4.999997999999999
 70
   192
  0
VERTEX
  8
RK-LAVAT
 10
12.15764199999999
 20
-17.092643
 30
4.999997999999999
 70
   192
  0
VERTEX
  8
RK-LAVAT
 10
12.15764199999999
 20
-17.092643
 30
5.499997999999999
 70
   192
  0
VERTEX
  8
RK-LAVAT
 10
10.67225199999999
 20
-17.18999999999999
 30
5.499997999999999
 70
   192
  0
VERTEX
  8
RK-LAVAT
 10
10.67225199999999
 20
-17.18999999999999
 30
4.999997999999999
 70
   192
  0
VERTEX
  8
RK-LAVAT
 10
9.186866000000001
 20
-17.092643
 30
5.499997999999999
 70
   192
  0
VERTEX
  8
RK-LAVAT
 10
9.186866000000001
 20
-17.092643
 30
4.999997999999999
 70
   192
  0
VERTEX
  8
RK-LAVAT
 10
7.726894000000001
 20
-16.802236
 30
5.499997999999999
 70
   192
  0
VERTEX
  8
RK-LAVAT
 10
7.726894000000001
 20
-16.802236
 30
4.999997999999999
 70
   192
  0
VERTEX
  8
RK-LAVAT
 10
6.317317000000002
 20
-16.323749
 30
4.999997999999999
 70
   192
  0
VERTEX
  8
RK-LAVAT
 10
6.317317000000002
 20
-16.323749
 30
5.499997999999999
 70
   192
  0
VERTEX
  8
RK-LAVAT
 10
4.982253999999997
 20
-15.665369
 30
5.499997999999999
 70
   192
  0
VERTEX
  8
RK-LAVAT
 10
4.982253999999997
 20
-15.665369
 30
4.999997999999999
 70
   192
  0
VERTEX
  8
RK-LAVAT
 10
3.744548000000001
 20
-14.83836099999999
 30
5.499997999999999
 70
   192
  0
VERTEX
  8
RK-LAVAT
 10
3.744548000000001
 20
-14.83836099999999
 30
4.999997999999999
 70
   192
  0
VERTEX
  8
RK-LAVAT
 10
2.625377
 20
-13.856875
 30
5.499997999999999
 70
   192
  0
VERTEX
  8
RK-LAVAT
 10
2.625377
 20
-13.856875
 30
4.999997999999999
 70
   192
  0
VERTEX
  8
RK-LAVAT
 10
1.643894000000003
 20
-12.737705
 30
4.999997999999999
 70
   192
  0
VERTEX
  8
RK-LAVAT
 10
1.643894000000003
 20
-12.737705
 30
5.499997999999999
 70
   192
  0
VERTEX
  8
RK-LAVAT
 10
1.019092
 20
-11.836681
 30
5.499997999999999
 70
   192
  0
VERTEX
  8
RK-LAVAT
 10
1.019092
 20
-11.836681
 30
4.999997999999999
 70
   192
  0
VERTEX
  8
RK-LAVAT
 10
0.9709849999999988
 20
-11.754585
 30
5.499997999999999
 70
   192
  0
VERTEX
  8
RK-LAVAT
 10
0.9709849999999988
 20
-11.754585
 30
4.999997999999999
 70
   192
  0
VERTEX
  8
RK-LAVAT
 10
0.5440210000000008
 20
-10.88878899999999
 30
5.499997999999999
 70
   192
  0
VERTEX
  8
RK-LAVAT
 10
0.5440210000000008
 20
-10.88878899999999
 30
4.999997999999999
 70
   192
  0
VERTEX
  8
RK-LAVAT
 10
0.2337180000000032
 20
-9.974669
 30
5.499997999999999
 70
   192
  0
VERTEX
  8
RK-LAVAT
 10
0.2337180000000032
 20
-9.974669
 30
4.999997999999999
 70
   192
  0
VERTEX
  8
RK-LAVAT
 10
0.0453910000000022
 20
-9.027867999999999
 30
4.999997999999999
 70
   192
  0
VERTEX
  8
RK-LAVAT
 10
0.0453910000000022
 20
-9.027867999999999
 30
5.499997999999999
 70
   192
  0
VERTEX
  8
RK-LAVAT
 10
0.0
 20
-8.576057
 30
5.499997999999999
 70
   192
  0
VERTEX
  8
RK-LAVAT
 10
0.0
 20
-8.576057
 30
4.999997999999999
 70
   192
  0
VERTEX
  8
RK-LAVAT
 10
0.0453910000000022
 20
-8.124245
 30
5.499997999999999
 70
   192
  0
VERTEX
  8
RK-LAVAT
 10
0.0453910000000022
 20
-8.124245
 30
4.999997999999999
 70
   192
  0
VERTEX
  8
RK-LAVAT
 10
0.2337180000000032
 20
-7.177443999999999
 30
5.499997999999999
 70
   192
  0
VERTEX
  8
RK-LAVAT
 10
0.2337180000000032
 20
-7.177443999999999
 30
4.999997999999999
 70
   192
  0
VERTEX
  8
RK-LAVAT
 10
0.5440210000000008
 20
-6.263325
 30
5.499997999999999
 70
   192
  0
VERTEX
  8
RK-LAVAT
 10
0.5440210000000008
 20
-6.263325
 30
4.999997999999999
 70
   192
  0
VERTEX
  8
RK-LAVAT
 10
0.7607460000000046
 20
-5.788359999999999
 30
4.999997999999999
 70
   192
  0
VERTEX
  8
RK-LAVAT
 10
0.7607460000000046
 20
-5.788359999999999
 30
5.499997999999999
 70
   192
  0
VERTEX
  8
RK-LAVAT
 10
0.8168830000000042
 20
-5.689999999999999
 30
5.499997999999999
 70
   192
  0
VERTEX
  8
RK-LAVAT
 10
0.8168830000000042
 20
-5.689999999999999
 30
4.999997999999999
 70
   192
  0
VERTEX
  8
RK-LAVAT
 10
1.643894000000003
 20
-4.452295
 30
4.999997999999999
 70
   192
  0
VERTEX
  8
RK-LAVAT
 10
1.643894000000003
 20
-4.452295
 30
5.499997999999999
 70
   192
  0
VERTEX
  8
RK-LAVAT
 10
2.625377
 20
-3.333124999999999
 30
5.499997999999999
 70
   192
  0
VERTEX
  8
RK-LAVAT
 10
2.625377
 20
-3.333124999999999
 30
4.999997999999999
 70
   192
  0
VERTEX
  8
RK-LAVAT
 10
3.744548000000001
 20
-2.351639
 30
5.499997999999999
 70
   192
  0
VERTEX
  8
RK-LAVAT
 10
3.744548000000001
 20
-2.351639
 30
4.999997999999999
 70
   192
  0
VERTEX
  8
RK-LAVAT
 10
4.982253999999997
 20
-1.52463
 30
5.499997999999999
 70
   192
  0
VERTEX
  8
RK-LAVAT
 10
4.982253999999997
 20
-1.52463
 30
4.999997999999999
 70
   192
  0
VERTEX
  8
RK-LAVAT
 10
6.317317000000002
 20
-0.8662510000000001
 30
4.999997999999999
 70
   192
  0
VERTEX
  8
RK-LAVAT
 10
6.317317000000002
 20
-0.8662510000000001
 30
5.499997999999999
 70
   192
  0
VERTEX
  8
RK-LAVAT
 10
7.726894000000001
 20
-0.3877639999999989
 30
5.499997999999999
 70
   192
  0
VERTEX
  8
RK-LAVAT
 10
7.726894000000001
 20
-0.3877639999999989
 30
4.999997999999999
 70
   192
  0
VERTEX
  8
RK-LAVAT
 10
9.186866000000001
 20
-0.0973579999999999
 30
5.499997999999999
 70
   192
  0
VERTEX
  8
RK-LAVAT
 10
9.186866000000001
 20
-0.0973579999999999
 30
4.999997999999999
 70
   192
  0
VERTEX
  8
RK-LAVAT
 10
10.67225199999999
 20
0.0
 30
5.499997999999999
 70
   192
  0
VERTEX
  8
RK-LAVAT
 10
10.67225199999999
 20
0.0
 30
4.999997999999999
 70
   192
  0
VERTEX
  8
RK-LAVAT
 10
12.15764199999999
 20
-0.0973579999999999
 30
4.999997999999999
 70
   192
  0
VERTEX
  8
RK-LAVAT
 10
12.15764199999999
 20
-0.0973579999999999
 30
5.499997999999999
 70
   192
  0
VERTEX
  8
RK-LAVAT
 10
13.617614
 20
-0.3877639999999989
 30
5.499997999999999
 70
   192
  0
VERTEX
  8
RK-LAVAT
 10
13.617614
 20
-0.3877639999999989
 30
4.999997999999999
 70
   192
  0
VERTEX
  8
RK-LAVAT
 10
15.027191
 20
-0.8662510000000001
 30
5.499997999999999
 70
   192
  0
VERTEX
  8
RK-LAVAT
 10
15.027191
 20
-0.8662510000000001
 30
4.999997999999999
 70
   192
  0
VERTEX
  8
RK-LAVAT
 10
16.362253
 20
-1.52463
 30
5.499997999999999
 70
   192
  0
VERTEX
  8
RK-LAVAT
 10
16.362253
 20
-1.52463
 30
4.999997999999999
 70
   192
  0
VERTEX
  8
RK-LAVAT
 10
17.599958
 20
-2.351639
 30
4.999997999999999
 70
   192
  0
VERTEX
  8
RK-LAVAT
 10
17.599958
 20
-2.351639
 30
5.499997999999999
 70
   192
  0
VERTEX
  8
RK-LAVAT
 10
18.719127
 20
-3.333124999999999
 30
5.499997999999999
 70
   192
  0
VERTEX
  8
RK-LAVAT
 10
18.719127
 20
-3.333124999999999
 30
4.999997999999999
 70
   192
  0
VERTEX
  8
RK-LAVAT
 10
19.700614
 20
-4.452295
 30
5.499997999999999
 70
   192
  0
VERTEX
  8
RK-LAVAT
 10
19.700614
 20
-4.452295
 30
4.999997999999999
 70
   192
  0
VERTEX
  8
RK-LAVAT
 10
20.527622
 20
-5.689999999999999
 30
5.499997999999999
 70
   192
  0
VERTEX
  8
RK-LAVAT
 10
20.527622
 20
-5.689999999999999
 30
4.999997999999999
 70
   192
  0
VERTEX
  8
RK-LAVAT
 10
1.975653999999998
 20
-11.253968
 30
5.499997999999999
 70
   192
  0
VERTEX
  8
RK-LAVAT
 10
1.940933000000001
 20
-11.194585
 30
5.499997999999999
 70
   192
  0
VERTEX
  8
RK-LAVAT
 10
2.532446999999997
 20
-12.055892
 30
5.499997999999999
 70
   192
  0
VERTEX
  8
RK-LAVAT
 10
3.417339000000005
 20
-13.064916
 30
5.499997999999999
 70
   192
  0
VERTEX
  8
RK-LAVAT
 10
4.426360999999999
 20
-13.94980499999999
 30
5.499997999999999
 70
   192
  0
VERTEX
  8
RK-LAVAT
 10
5.542251
 20
-14.69542099999999
 30
5.499997999999999
 70
   192
  0
VERTEX
  8
RK-LAVAT
 10
6.745922
 20
-15.28900399999999
 30
5.499997999999999
 70
   192
  0
VERTEX
  8
RK-LAVAT
 10
8.016769000000003
 20
-15.720399
 30
5.499997999999999
 70
   192
  0
VERTEX
  8
RK-LAVAT
 10
9.333053000000006
 20
-15.982224
 30
5.499997999999999
 70
   192
  0
VERTEX
  8
RK-LAVAT
 10
10.67225199999999
 20
-16.07
 30
5.499997999999999
 70
   192
  0
VERTEX
  8
RK-LAVAT
 10
12.011451
 20
-15.982224
 30
5.499997999999999
 70
   192
  0
VERTEX
  8
RK-LAVAT
 10
13.327735
 20
-15.720399
 30
5.499997999999999
 70
   192
  0
VERTEX
  8
RK-LAVAT
 10
14.598585
 20
-15.28900399999999
 30
5.499997999999999
 70
   192
  0
VERTEX
  8
RK-LAVAT
 10
15.802253
 20
-14.69542099999999
 30
5.499997999999999
 70
   192
  0
VERTEX
  8
RK-LAVAT
 10
16.918146
 20
-13.94980499999999
 30
5.499997999999999
 70
   192
  0
VERTEX
  8
RK-LAVAT
 10
1.123184000000001
 20
-8.576057
 30
5.499997999999999
 70
   192
  0
VERTEX
  8
RK-LAVAT
 10
17.927169
 20
-13.064916
 30
5.499997999999999
 70
   192
  0
VERTEX
  8
RK-LAVAT
 10
18.812059
 20
-12.055892
 30
5.499997999999999
 70
   192
  0
VERTEX
  8
RK-LAVAT
 10
19.36885
 20
-11.253968
 30
5.499997999999999
 70
   192
  0
VERTEX
  8
RK-LAVAT
 10
19.403572
 20
-11.194585
 30
5.499997999999999
 70
   192
  0
VERTEX
  8
RK-LAVAT
 10
19.765739
 20
-10.460183
 30
5.499997999999999
 70
   192
  0
VERTEX
  8
RK-LAVAT
 10
20.028949
 20
-9.684791999999999
 30
5.499997999999999
 70
   192
  0
VERTEX
  8
RK-LAVAT
 10
20.188697
 20
-8.881679
 30
5.499997999999999
 70
   192
  0
VERTEX
  8
RK-LAVAT
 10
20.221323
 20
-8.576057
 30
5.499997999999999
 70
   192
  0
VERTEX
  8
RK-LAVAT
 10
20.188697
 20
-8.270433999999999
 30
5.499997999999999
 70
   192
  0
VERTEX
  8
RK-LAVAT
 10
20.028949
 20
-7.467321
 30
5.499997999999999
 70
   192
  0
VERTEX
  8
RK-LAVAT
 10
19.765739
 20
-6.691929999999999
 30
5.499997999999999
 70
   192
  0
VERTEX
  8
RK-LAVAT
 10
19.594226
 20
-6.313838999999999
 30
5.499997999999999
 70
   192
  0
VERTEX
  8
RK-LAVAT
 10
19.557674
 20
-6.25
 30
5.499997999999999
 70
   192
  0
VERTEX
  8
RK-LAVAT
 10
18.812059
 20
-5.134107999999999
 30
5.499997999999999
 70
   192
  0
VERTEX
  8
RK-LAVAT
 10
1.155807000000002
 20
-8.270433999999999
 30
5.499997999999999
 70
   192
  0
VERTEX
  8
RK-LAVAT
 10
17.927169
 20
-4.125084
 30
5.499997999999999
 70
   192
  0
VERTEX
  8
RK-LAVAT
 10
16.918146
 20
-3.240194999999999
 30
5.499997999999999
 70
   192
  0
VERTEX
  8
RK-LAVAT
 10
15.802253
 20
-2.494578999999999
 30
5.499997999999999
 70
   192
  0
VERTEX
  8
RK-LAVAT
 10
14.598585
 20
-1.900996
 30
5.499997999999999
 70
   192
  0
VERTEX
  8
RK-LAVAT
 10
13.327735
 20
-1.469601
 30
5.499997999999999
 70
   192
  0
VERTEX
  8
RK-LAVAT
 10
12.011451
 20
-1.207776
 30
5.499997999999999
 70
   192
  0
VERTEX
  8
RK-LAVAT
 10
10.67225199999999
 20
-1.119999999999999
 30
5.499997999999999
 70
   192
  0
VERTEX
  8
RK-LAVAT
 10
9.333053000000006
 20
-1.207776
 30
5.499997999999999
 70
   192
  0
VERTEX
  8
RK-LAVAT
 10
1.315559000000007
 20
-7.467321
 30
5.499997999999999
 70
   192
  0
VERTEX
  8
RK-LAVAT
 10
1.578765000000004
 20
-6.691929999999999
 30
5.499997999999999
 70
   192
  0
VERTEX
  8
RK-LAVAT
 10
8.016769000000003
 20
-1.469601
 30
5.499997999999999
 70
   192
  0
VERTEX
  8
RK-LAVAT
 10
6.745922
 20
-1.900996
 30
5.499997999999999
 70
   192
  0
VERTEX
  8
RK-LAVAT
 10
5.542251
 20
-2.494578999999999
 30
5.499997999999999
 70
   192
  0
VERTEX
  8
RK-LAVAT
 10
4.426360999999999
 20
-3.240194999999999
 30
5.499997999999999
 70
   192
  0
VERTEX
  8
RK-LAVAT
 10
1.750278000000001
 20
-6.313838999999999
 30
5.499997999999999
 70
   192
  0
VERTEX
  8
RK-LAVAT
 10
1.786830000000001
 20
-6.25
 30
5.499997999999999
 70
   192
  0
VERTEX
  8
RK-LAVAT
 10
3.417339000000005
 20
-4.125084
 30
5.499997999999999
 70
   192
  0
VERTEX
  8
RK-LAVAT
 10
2.532446999999997
 20
-5.134107999999999
 30
5.499997999999999
 70
   192
  0
VERTEX
  8
RK-LAVAT
 10
1.155807000000002
 20
-8.881679
 30
5.499997999999999
 70
   192
  0
VERTEX
  8
RK-LAVAT
 10
1.315559000000007
 20
-9.684791999999999
 30
5.499997999999999
 70
   192
  0
VERTEX
  8
RK-LAVAT
 10
1.578765000000004
 20
-10.460183
 30
5.499997999999999
 70
   192
  0
VERTEX
  8
RK-LAVAT
 10
0.0
 20
0.0
 30
0.0
 70
   128
 71
     1
 72
    -2
 73
     3
  0
VERTEX
  8
RK-LAVAT
 10
0.0
 20
0.0
 30
0.0
 70
   128
 71
     2
 72
     4
 73
    -3
  0
VERTEX
  8
RK-LAVAT
 10
0.0
 20
0.0
 30
0.0
 70
   128
 71
     5
 72
    -1
 73
     6
  0
VERTEX
  8
RK-LAVAT
 10
0.0
 20
0.0
 30
0.0
 70
   128
 71
     1
 72
     3
 73
    -6
  0
VERTEX
  8
RK-LAVAT
 10
0.0
 20
0.0
 30
0.0
 70
   128
 71
     7
 72
    -5
 73
     8
  0
VERTEX
  8
RK-LAVAT
 10
0.0
 20
0.0
 30
0.0
 70
   128
 71
     5
 72
     6
 73
    -8
  0
VERTEX
  8
RK-LAVAT
 10
0.0
 20
0.0
 30
0.0
 70
   128
 71
     9
 72
    -7
 73
    10
  0
VERTEX
  8
RK-LAVAT
 10
0.0
 20
0.0
 30
0.0
 70
   128
 71
     7
 72
     8
 73
   -10
  0
VERTEX
  8
RK-LAVAT
 10
0.0
 20
0.0
 30
0.0
 70
   128
 71
    11
 72
    -9
 73
    12
  0
VERTEX
  8
RK-LAVAT
 10
0.0
 20
0.0
 30
0.0
 70
   128
 71
     9
 72
    10
 73
   -12
  0
VERTEX
  8
RK-LAVAT
 10
0.0
 20
0.0
 30
0.0
 70
   128
 71
    13
 72
   -11
 73
    14
  0
VERTEX
  8
RK-LAVAT
 10
0.0
 20
0.0
 30
0.0
 70
   128
 71
    11
 72
    12
 73
   -14
  0
VERTEX
  8
RK-LAVAT
 10
0.0
 20
0.0
 30
0.0
 70
   128
 71
    15
 72
   -13
 73
    16
  0
VERTEX
  8
RK-LAVAT
 10
0.0
 20
0.0
 30
0.0
 70
   128
 71
    13
 72
    14
 73
   -16
  0
VERTEX
  8
RK-LAVAT
 10
0.0
 20
0.0
 30
0.0
 70
   128
 71
    17
 72
   -15
 73
    18
  0
VERTEX
  8
RK-LAVAT
 10
0.0
 20
0.0
 30
0.0
 70
   128
 71
    15
 72
    16
 73
   -18
  0
VERTEX
  8
RK-LAVAT
 10
0.0
 20
0.0
 30
0.0
 70
   128
 71
    19
 72
   -17
 73
    20
  0
VERTEX
  8
RK-LAVAT
 10
0.0
 20
0.0
 30
0.0
 70
   128
 71
    17
 72
    18
 73
   -20
  0
VERTEX
  8
RK-LAVAT
 10
0.0
 20
0.0
 30
0.0
 70
   128
 71
    21
 72
   -19
 73
    22
  0
VERTEX
  8
RK-LAVAT
 10
0.0
 20
0.0
 30
0.0
 70
   128
 71
    19
 72
    20
 73
   -22
  0
VERTEX
  8
RK-LAVAT
 10
0.0
 20
0.0
 30
0.0
 70
   128
 71
    23
 72
   -21
 73
    24
  0
VERTEX
  8
RK-LAVAT
 10
0.0
 20
0.0
 30
0.0
 70
   128
 71
    21
 72
    22
 73
   -24
  0
VERTEX
  8
RK-LAVAT
 10
0.0
 20
0.0
 30
0.0
 70
   128
 71
    25
 72
   -23
 73
    26
  0
VERTEX
  8
RK-LAVAT
 10
0.0
 20
0.0
 30
0.0
 70
   128
 71
    23
 72
    24
 73
   -26
  0
VERTEX
  8
RK-LAVAT
 10
0.0
 20
0.0
 30
0.0
 70
   128
 71
    27
 72
   -25
 73
    28
  0
VERTEX
  8
RK-LAVAT
 10
0.0
 20
0.0
 30
0.0
 70
   128
 71
    25
 72
    26
 73
   -28
  0
VERTEX
  8
RK-LAVAT
 10
0.0
 20
0.0
 30
0.0
 70
   128
 71
    29
 72
   -27
 73
    30
  0
VERTEX
  8
RK-LAVAT
 10
0.0
 20
0.0
 30
0.0
 70
   128
 71
    27
 72
    28
 73
   -30
  0
VERTEX
  8
RK-LAVAT
 10
0.0
 20
0.0
 30
0.0
 70
   128
 71
    31
 72
   -29
 73
    32
  0
VERTEX
  8
RK-LAVAT
 10
0.0
 20
0.0
 30
0.0
 70
   128
 71
    29
 72
    30
 73
   -32
  0
VERTEX
  8
RK-LAVAT
 10
0.0
 20
0.0
 30
0.0
 70
   128
 71
    33
 72
   -31
 73
    34
  0
VERTEX
  8
RK-LAVAT
 10
0.0
 20
0.0
 30
0.0
 70
   128
 71
    31
 72
    32
 73
   -34
  0
VERTEX
  8
RK-LAVAT
 10
0.0
 20
0.0
 30
0.0
 70
   128
 71
    35
 72
   -33
 73
    36
  0
VERTEX
  8
RK-LAVAT
 10
0.0
 20
0.0
 30
0.0
 70
   128
 71
    33
 72
    34
 73
   -36
  0
VERTEX
  8
RK-LAVAT
 10
0.0
 20
0.0
 30
0.0
 70
   128
 71
    37
 72
   -35
 73
    38
  0
VERTEX
  8
RK-LAVAT
 10
0.0
 20
0.0
 30
0.0
 70
   128
 71
    35
 72
    36
 73
   -38
  0
VERTEX
  8
RK-LAVAT
 10
0.0
 20
0.0
 30
0.0
 70
   128
 71
    39
 72
   -37
 73
    40
  0
VERTEX
  8
RK-LAVAT
 10
0.0
 20
0.0
 30
0.0
 70
   128
 71
    37
 72
    38
 73
   -40
  0
VERTEX
  8
RK-LAVAT
 10
0.0
 20
0.0
 30
0.0
 70
   128
 71
    41
 72
   -39
 73
    42
  0
VERTEX
  8
RK-LAVAT
 10
0.0
 20
0.0
 30
0.0
 70
   128
 71
    39
 72
    40
 73
   -42
  0
VERTEX
  8
RK-LAVAT
 10
0.0
 20
0.0
 30
0.0
 70
   128
 71
    43
 72
   -41
 73
    44
  0
VERTEX
  8
RK-LAVAT
 10
0.0
 20
0.0
 30
0.0
 70
   128
 71
    41
 72
    42
 73
   -44
  0
VERTEX
  8
RK-LAVAT
 10
0.0
 20
0.0
 30
0.0
 70
   128
 71
    45
 72
   -43
 73
    46
  0
VERTEX
  8
RK-LAVAT
 10
0.0
 20
0.0
 30
0.0
 70
   128
 71
    43
 72
    44
 73
   -46
  0
VERTEX
  8
RK-LAVAT
 10
0.0
 20
0.0
 30
0.0
 70
   128
 71
    47
 72
   -45
 73
    48
  0
VERTEX
  8
RK-LAVAT
 10
0.0
 20
0.0
 30
0.0
 70
   128
 71
    45
 72
    46
 73
   -48
  0
VERTEX
  8
RK-LAVAT
 10
0.0
 20
0.0
 30
0.0
 70
   128
 71
    49
 72
   -47
 73
    50
  0
VERTEX
  8
RK-LAVAT
 10
0.0
 20
0.0
 30
0.0
 70
   128
 71
    47
 72
    48
 73
   -50
  0
VERTEX
  8
RK-LAVAT
 10
0.0
 20
0.0
 30
0.0
 70
   128
 71
    51
 72
   -49
 73
    52
  0
VERTEX
  8
RK-LAVAT
 10
0.0
 20
0.0
 30
0.0
 70
   128
 71
    49
 72
    50
 73
   -52
  0
VERTEX
  8
RK-LAVAT
 10
0.0
 20
0.0
 30
0.0
 70
   128
 71
    53
 72
   -51
 73
    54
  0
VERTEX
  8
RK-LAVAT
 10
0.0
 20
0.0
 30
0.0
 70
   128
 71
    51
 72
    52
 73
   -54
  0
VERTEX
  8
RK-LAVAT
 10
0.0
 20
0.0
 30
0.0
 70
   128
 71
    55
 72
   -53
 73
    56
  0
VERTEX
  8
RK-LAVAT
 10
0.0
 20
0.0
 30
0.0
 70
   128
 71
    53
 72
    54
 73
   -56
  0
VERTEX
  8
RK-LAVAT
 10
0.0
 20
0.0
 30
0.0
 70
   128
 71
    57
 72
   -55
 73
    58
  0
VERTEX
  8
RK-LAVAT
 10
0.0
 20
0.0
 30
0.0
 70
   128
 71
    55
 72
    56
 73
   -58
  0
VERTEX
  8
RK-LAVAT
 10
0.0
 20
0.0
 30
0.0
 70
   128
 71
    59
 72
   -57
 73
    60
  0
VERTEX
  8
RK-LAVAT
 10
0.0
 20
0.0
 30
0.0
 70
   128
 71
    57
 72
    58
 73
   -60
  0
VERTEX
  8
RK-LAVAT
 10
0.0
 20
0.0
 30
0.0
 70
   128
 71
    61
 72
   -59
 73
    62
  0
VERTEX
  8
RK-LAVAT
 10
0.0
 20
0.0
 30
0.0
 70
   128
 71
    59
 72
    60
 73
   -62
  0
VERTEX
  8
RK-LAVAT
 10
0.0
 20
0.0
 30
0.0
 70
   128
 71
    63
 72
   -61
 73
    64
  0
VERTEX
  8
RK-LAVAT
 10
0.0
 20
0.0
 30
0.0
 70
   128
 71
    61
 72
    62
 73
   -64
  0
VERTEX
  8
RK-LAVAT
 10
0.0
 20
0.0
 30
0.0
 70
   128
 71
    65
 72
   -63
 73
    66
  0
VERTEX
  8
RK-LAVAT
 10
0.0
 20
0.0
 30
0.0
 70
   128
 71
    63
 72
    64
 73
   -66
  0
VERTEX
  8
RK-LAVAT
 10
0.0
 20
0.0
 30
0.0
 70
   128
 71
    67
 72
   -65
 73
    68
  0
VERTEX
  8
RK-LAVAT
 10
0.0
 20
0.0
 30
0.0
 70
   128
 71
    65
 72
    66
 73
   -68
  0
VERTEX
  8
RK-LAVAT
 10
0.0
 20
0.0
 30
0.0
 70
   128
 71
    69
 72
   -67
 73
    70
  0
VERTEX
  8
RK-LAVAT
 10
0.0
 20
0.0
 30
0.0
 70
   128
 71
    67
 72
    68
 73
   -70
  0
VERTEX
  8
RK-LAVAT
 10
0.0
 20
0.0
 30
0.0
 70
   128
 71
    71
 72
   -69
 73
    72
  0
VERTEX
  8
RK-LAVAT
 10
0.0
 20
0.0
 30
0.0
 70
   128
 71
    69
 72
    70
 73
   -72
  0
VERTEX
  8
RK-LAVAT
 10
0.0
 20
0.0
 30
0.0
 70
   128
 71
    73
 72
   -71
 73
    74
  0
VERTEX
  8
RK-LAVAT
 10
0.0
 20
0.0
 30
0.0
 70
   128
 71
    71
 72
    72
 73
   -74
  0
VERTEX
  8
RK-LAVAT
 10
0.0
 20
0.0
 30
0.0
 70
   128
 71
    75
 72
   -73
 73
    76
  0
VERTEX
  8
RK-LAVAT
 10
0.0
 20
0.0
 30
0.0
 70
   128
 71
    73
 72
    74
 73
   -76
  0
VERTEX
  8
RK-LAVAT
 10
0.0
 20
0.0
 30
0.0
 70
   128
 71
    77
 72
   -75
 73
    78
  0
VERTEX
  8
RK-LAVAT
 10
0.0
 20
0.0
 30
0.0
 70
   128
 71
    75
 72
    76
 73
   -78
  0
VERTEX
  8
RK-LAVAT
 10
0.0
 20
0.0
 30
0.0
 70
   128
 71
    79
 72
   -77
 73
    80
  0
VERTEX
  8
RK-LAVAT
 10
0.0
 20
0.0
 30
0.0
 70
   128
 71
    77
 72
    78
 73
   -80
  0
VERTEX
  8
RK-LAVAT
 10
0.0
 20
0.0
 30
0.0
 70
   128
 71
    81
 72
   -79
 73
    82
  0
VERTEX
  8
RK-LAVAT
 10
0.0
 20
0.0
 30
0.0
 70
   128
 71
    79
 72
    80
 73
   -82
  0
VERTEX
  8
RK-LAVAT
 10
0.0
 20
0.0
 30
0.0
 70
   128
 71
    83
 72
   -81
 73
    84
  0
VERTEX
  8
RK-LAVAT
 10
0.0
 20
0.0
 30
0.0
 70
   128
 71
    81
 72
    82
 73
   -84
  0
VERTEX
  8
RK-LAVAT
 10
0.0
 20
0.0
 30
0.0
 70
   128
 71
    85
 72
   -83
 73
    86
  0
VERTEX
  8
RK-LAVAT
 10
0.0
 20
0.0
 30
0.0
 70
   128
 71
    83
 72
    84
 73
   -86
  0
VERTEX
  8
RK-LAVAT
 10
0.0
 20
0.0
 30
0.0
 70
   128
 71
    87
 72
   -85
 73
    88
  0
VERTEX
  8
RK-LAVAT
 10
0.0
 20
0.0
 30
0.0
 70
   128
 71
    85
 72
    86
 73
   -88
  0
VERTEX
  8
RK-LAVAT
 10
0.0
 20
0.0
 30
0.0
 70
   128
 71
    89
 72
   -87
 73
    90
  0
VERTEX
  8
RK-LAVAT
 10
0.0
 20
0.0
 30
0.0
 70
   128
 71
    87
 72
    88
 73
   -90
  0
VERTEX
  8
RK-LAVAT
 10
0.0
 20
0.0
 30
0.0
 70
   128
 71
    91
 72
   -89
 73
    92
  0
VERTEX
  8
RK-LAVAT
 10
0.0
 20
0.0
 30
0.0
 70
   128
 71
    89
 72
    90
 73
   -92
  0
VERTEX
  8
RK-LAVAT
 10
0.0
 20
0.0
 30
0.0
 70
   128
 71
    93
 72
   -91
 73
    94
  0
VERTEX
  8
RK-LAVAT
 10
0.0
 20
0.0
 30
0.0
 70
   128
 71
    91
 72
    92
 73
   -94
  0
VERTEX
  8
RK-LAVAT
 10
0.0
 20
0.0
 30
0.0
 70
   128
 71
    95
 72
   -93
 73
    96
  0
VERTEX
  8
RK-LAVAT
 10
0.0
 20
0.0
 30
0.0
 70
   128
 71
    93
 72
    94
 73
   -96
  0
VERTEX
  8
RK-LAVAT
 10
0.0
 20
0.0
 30
0.0
 70
   128
 71
     2
 72
   -95
 73
     4
  0
VERTEX
  8
RK-LAVAT
 10
0.0
 20
0.0
 30
0.0
 70
   128
 71
    95
 72
    96
 73
    -4
  0
VERTEX
  8
RK-LAVAT
 10
0.0
 20
0.0
 30
0.0
 70
   128
 71
     3
 72
    -4
 73
    97
  0
VERTEX
  8
RK-LAVAT
 10
0.0
 20
0.0
 30
0.0
 70
   128
 71
     4
 72
    98
 73
   -97
  0
VERTEX
  8
RK-LAVAT
 10
0.0
 20
0.0
 30
0.0
 70
   128
 71
     6
 72
    -3
 73
    99
  0
VERTEX
  8
RK-LAVAT
 10
0.0
 20
0.0
 30
0.0
 70
   128
 71
     3
 72
    97
 73
   -99
  0
VERTEX
  8
RK-LAVAT
 10
0.0
 20
0.0
 30
0.0
 70
   128
 71
     8
 72
    -6
 73
   100
  0
VERTEX
  8
RK-LAVAT
 10
0.0
 20
0.0
 30
0.0
 70
   128
 71
     6
 72
    99
 73
  -100
  0
VERTEX
  8
RK-LAVAT
 10
0.0
 20
0.0
 30
0.0
 70
   128
 71
    10
 72
    -8
 73
   101
  0
VERTEX
  8
RK-LAVAT
 10
0.0
 20
0.0
 30
0.0
 70
   128
 71
     8
 72
   100
 73
  -101
  0
VERTEX
  8
RK-LAVAT
 10
0.0
 20
0.0
 30
0.0
 70
   128
 71
    12
 72
   -10
 73
   102
  0
VERTEX
  8
RK-LAVAT
 10
0.0
 20
0.0
 30
0.0
 70
   128
 71
    10
 72
   101
 73
  -102
  0
VERTEX
  8
RK-LAVAT
 10
0.0
 20
0.0
 30
0.0
 70
   128
 71
    14
 72
   -12
 73
   103
  0
VERTEX
  8
RK-LAVAT
 10
0.0
 20
0.0
 30
0.0
 70
   128
 71
    12
 72
   102
 73
  -103
  0
VERTEX
  8
RK-LAVAT
 10
0.0
 20
0.0
 30
0.0
 70
   128
 71
    16
 72
   -14
 73
   104
  0
VERTEX
  8
RK-LAVAT
 10
0.0
 20
0.0
 30
0.0
 70
   128
 71
    14
 72
   103
 73
  -104
  0
VERTEX
  8
RK-LAVAT
 10
0.0
 20
0.0
 30
0.0
 70
   128
 71
    18
 72
   -16
 73
   105
  0
VERTEX
  8
RK-LAVAT
 10
0.0
 20
0.0
 30
0.0
 70
   128
 71
    16
 72
   104
 73
  -105
  0
VERTEX
  8
RK-LAVAT
 10
0.0
 20
0.0
 30
0.0
 70
   128
 71
    20
 72
   -18
 73
   106
  0
VERTEX
  8
RK-LAVAT
 10
0.0
 20
0.0
 30
0.0
 70
   128
 71
    18
 72
   105
 73
  -106
  0
VERTEX
  8
RK-LAVAT
 10
0.0
 20
0.0
 30
0.0
 70
   128
 71
    22
 72
   -20
 73
   107
  0
VERTEX
  8
RK-LAVAT
 10
0.0
 20
0.0
 30
0.0
 70
   128
 71
    20
 72
   106
 73
  -107
  0
VERTEX
  8
RK-LAVAT
 10
0.0
 20
0.0
 30
0.0
 70
   128
 71
    24
 72
   -22
 73
   108
  0
VERTEX
  8
RK-LAVAT
 10
0.0
 20
0.0
 30
0.0
 70
   128
 71
    22
 72
   107
 73
  -108
  0
VERTEX
  8
RK-LAVAT
 10
0.0
 20
0.0
 30
0.0
 70
   128
 71
    26
 72
   -24
 73
   109
  0
VERTEX
  8
RK-LAVAT
 10
0.0
 20
0.0
 30
0.0
 70
   128
 71
    24
 72
   108
 73
  -109
  0
VERTEX
  8
RK-LAVAT
 10
0.0
 20
0.0
 30
0.0
 70
   128
 71
    28
 72
   -26
 73
   110
  0
VERTEX
  8
RK-LAVAT
 10
0.0
 20
0.0
 30
0.0
 70
   128
 71
    26
 72
   109
 73
  -110
  0
VERTEX
  8
RK-LAVAT
 10
0.0
 20
0.0
 30
0.0
 70
   128
 71
    30
 72
   -28
 73
   111
  0
VERTEX
  8
RK-LAVAT
 10
0.0
 20
0.0
 30
0.0
 70
   128
 71
    28
 72
   110
 73
  -111
  0
VERTEX
  8
RK-LAVAT
 10
0.0
 20
0.0
 30
0.0
 70
   128
 71
    32
 72
   -30
 73
   112
  0
VERTEX
  8
RK-LAVAT
 10
0.0
 20
0.0
 30
0.0
 70
   128
 71
    30
 72
   111
 73
  -112
  0
VERTEX
  8
RK-LAVAT
 10
0.0
 20
0.0
 30
0.0
 70
   128
 71
    34
 72
   -32
 73
   113
  0
VERTEX
  8
RK-LAVAT
 10
0.0
 20
0.0
 30
0.0
 70
   128
 71
    32
 72
   112
 73
  -113
  0
VERTEX
  8
RK-LAVAT
 10
0.0
 20
0.0
 30
0.0
 70
   128
 71
    36
 72
   -34
 73
   114
  0
VERTEX
  8
RK-LAVAT
 10
0.0
 20
0.0
 30
0.0
 70
   128
 71
    34
 72
   113
 73
  -114
  0
VERTEX
  8
RK-LAVAT
 10
0.0
 20
0.0
 30
0.0
 70
   128
 71
    38
 72
   -36
 73
   115
  0
VERTEX
  8
RK-LAVAT
 10
0.0
 20
0.0
 30
0.0
 70
   128
 71
    36
 72
   114
 73
  -115
  0
VERTEX
  8
RK-LAVAT
 10
0.0
 20
0.0
 30
0.0
 70
   128
 71
    40
 72
   -38
 73
   116
  0
VERTEX
  8
RK-LAVAT
 10
0.0
 20
0.0
 30
0.0
 70
   128
 71
    38
 72
   115
 73
  -116
  0
VERTEX
  8
RK-LAVAT
 10
0.0
 20
0.0
 30
0.0
 70
   128
 71
    42
 72
   -40
 73
   117
  0
VERTEX
  8
RK-LAVAT
 10
0.0
 20
0.0
 30
0.0
 70
   128
 71
    40
 72
   116
 73
  -117
  0
VERTEX
  8
RK-LAVAT
 10
0.0
 20
0.0
 30
0.0
 70
   128
 71
    44
 72
   -42
 73
   118
  0
VERTEX
  8
RK-LAVAT
 10
0.0
 20
0.0
 30
0.0
 70
   128
 71
    42
 72
   117
 73
  -118
  0
VERTEX
  8
RK-LAVAT
 10
0.0
 20
0.0
 30
0.0
 70
   128
 71
    46
 72
   -44
 73
   119
  0
VERTEX
  8
RK-LAVAT
 10
0.0
 20
0.0
 30
0.0
 70
   128
 71
    44
 72
   118
 73
  -119
  0
VERTEX
  8
RK-LAVAT
 10
0.0
 20
0.0
 30
0.0
 70
   128
 71
    48
 72
   -46
 73
   120
  0
VERTEX
  8
RK-LAVAT
 10
0.0
 20
0.0
 30
0.0
 70
   128
 71
    46
 72
   119
 73
  -120
  0
VERTEX
  8
RK-LAVAT
 10
0.0
 20
0.0
 30
0.0
 70
   128
 71
    50
 72
   -48
 73
   121
  0
VERTEX
  8
RK-LAVAT
 10
0.0
 20
0.0
 30
0.0
 70
   128
 71
    48
 72
   120
 73
  -121
  0
VERTEX
  8
RK-LAVAT
 10
0.0
 20
0.0
 30
0.0
 70
   128
 71
    52
 72
   -50
 73
   122
  0
VERTEX
  8
RK-LAVAT
 10
0.0
 20
0.0
 30
0.0
 70
   128
 71
    50
 72
   121
 73
  -122
  0
VERTEX
  8
RK-LAVAT
 10
0.0
 20
0.0
 30
0.0
 70
   128
 71
    54
 72
   -52
 73
   123
  0
VERTEX
  8
RK-LAVAT
 10
0.0
 20
0.0
 30
0.0
 70
   128
 71
    52
 72
   122
 73
  -123
  0
VERTEX
  8
RK-LAVAT
 10
0.0
 20
0.0
 30
0.0
 70
   128
 71
    56
 72
   -54
 73
   124
  0
VERTEX
  8
RK-LAVAT
 10
0.0
 20
0.0
 30
0.0
 70
   128
 71
    54
 72
   123
 73
  -124
  0
VERTEX
  8
RK-LAVAT
 10
0.0
 20
0.0
 30
0.0
 70
   128
 71
    58
 72
   -56
 73
   125
  0
VERTEX
  8
RK-LAVAT
 10
0.0
 20
0.0
 30
0.0
 70
   128
 71
    56
 72
   124
 73
  -125
  0
VERTEX
  8
RK-LAVAT
 10
0.0
 20
0.0
 30
0.0
 70
   128
 71
    60
 72
   -58
 73
   126
  0
VERTEX
  8
RK-LAVAT
 10
0.0
 20
0.0
 30
0.0
 70
   128
 71
    58
 72
   125
 73
  -126
  0
VERTEX
  8
RK-LAVAT
 10
0.0
 20
0.0
 30
0.0
 70
   128
 71
    62
 72
   -60
 73
   127
  0
VERTEX
  8
RK-LAVAT
 10
0.0
 20
0.0
 30
0.0
 70
   128
 71
    60
 72
   126
 73
  -127
  0
VERTEX
  8
RK-LAVAT
 10
0.0
 20
0.0
 30
0.0
 70
   128
 71
    64
 72
   -62
 73
   128
  0
VERTEX
  8
RK-LAVAT
 10
0.0
 20
0.0
 30
0.0
 70
   128
 71
    62
 72
   127
 73
  -128
  0
VERTEX
  8
RK-LAVAT
 10
0.0
 20
0.0
 30
0.0
 70
   128
 71
    66
 72
   -64
 73
   129
  0
VERTEX
  8
RK-LAVAT
 10
0.0
 20
0.0
 30
0.0
 70
   128
 71
    64
 72
   128
 73
  -129
  0
VERTEX
  8
RK-LAVAT
 10
0.0
 20
0.0
 30
0.0
 70
   128
 71
    68
 72
   -66
 73
   130
  0
VERTEX
  8
RK-LAVAT
 10
0.0
 20
0.0
 30
0.0
 70
   128
 71
    66
 72
   129
 73
  -130
  0
VERTEX
  8
RK-LAVAT
 10
0.0
 20
0.0
 30
0.0
 70
   128
 71
    70
 72
   -68
 73
   131
  0
VERTEX
  8
RK-LAVAT
 10
0.0
 20
0.0
 30
0.0
 70
   128
 71
    68
 72
   130
 73
  -131
  0
VERTEX
  8
RK-LAVAT
 10
0.0
 20
0.0
 30
0.0
 70
   128
 71
    72
 72
   -70
 73
   132
  0
VERTEX
  8
RK-LAVAT
 10
0.0
 20
0.0
 30
0.0
 70
   128
 71
    70
 72
   131
 73
  -132
  0
VERTEX
  8
RK-LAVAT
 10
0.0
 20
0.0
 30
0.0
 70
   128
 71
    74
 72
   -72
 73
   133
  0
VERTEX
  8
RK-LAVAT
 10
0.0
 20
0.0
 30
0.0
 70
   128
 71
    72
 72
   132
 73
  -133
  0
VERTEX
  8
RK-LAVAT
 10
0.0
 20
0.0
 30
0.0
 70
   128
 71
    76
 72
   -74
 73
   134
  0
VERTEX
  8
RK-LAVAT
 10
0.0
 20
0.0
 30
0.0
 70
   128
 71
    74
 72
   133
 73
  -134
  0
VERTEX
  8
RK-LAVAT
 10
0.0
 20
0.0
 30
0.0
 70
   128
 71
    78
 72
   -76
 73
   135
  0
VERTEX
  8
RK-LAVAT
 10
0.0
 20
0.0
 30
0.0
 70
   128
 71
    76
 72
   134
 73
  -135
  0
VERTEX
  8
RK-LAVAT
 10
0.0
 20
0.0
 30
0.0
 70
   128
 71
    80
 72
   -78
 73
   136
  0
VERTEX
  8
RK-LAVAT
 10
0.0
 20
0.0
 30
0.0
 70
   128
 71
    78
 72
   135
 73
  -136
  0
VERTEX
  8
RK-LAVAT
 10
0.0
 20
0.0
 30
0.0
 70
   128
 71
    82
 72
   -80
 73
   137
  0
VERTEX
  8
RK-LAVAT
 10
0.0
 20
0.0
 30
0.0
 70
   128
 71
    80
 72
   136
 73
  -137
  0
VERTEX
  8
RK-LAVAT
 10
0.0
 20
0.0
 30
0.0
 70
   128
 71
    84
 72
   -82
 73
   138
  0
VERTEX
  8
RK-LAVAT
 10
0.0
 20
0.0
 30
0.0
 70
   128
 71
    82
 72
   137
 73
  -138
  0
VERTEX
  8
RK-LAVAT
 10
0.0
 20
0.0
 30
0.0
 70
   128
 71
    86
 72
   -84
 73
   139
  0
VERTEX
  8
RK-LAVAT
 10
0.0
 20
0.0
 30
0.0
 70
   128
 71
    84
 72
   138
 73
  -139
  0
VERTEX
  8
RK-LAVAT
 10
0.0
 20
0.0
 30
0.0
 70
   128
 71
    88
 72
   -86
 73
   140
  0
VERTEX
  8
RK-LAVAT
 10
0.0
 20
0.0
 30
0.0
 70
   128
 71
    86
 72
   139
 73
  -140
  0
VERTEX
  8
RK-LAVAT
 10
0.0
 20
0.0
 30
0.0
 70
   128
 71
    90
 72
   -88
 73
   141
  0
VERTEX
  8
RK-LAVAT
 10
0.0
 20
0.0
 30
0.0
 70
   128
 71
    88
 72
   140
 73
  -141
  0
VERTEX
  8
RK-LAVAT
 10
0.0
 20
0.0
 30
0.0
 70
   128
 71
    92
 72
   -90
 73
   142
  0
VERTEX
  8
RK-LAVAT
 10
0.0
 20
0.0
 30
0.0
 70
   128
 71
    90
 72
   141
 73
  -142
  0
VERTEX
  8
RK-LAVAT
 10
0.0
 20
0.0
 30
0.0
 70
   128
 71
    94
 72
   -92
 73
   143
  0
VERTEX
  8
RK-LAVAT
 10
0.0
 20
0.0
 30
0.0
 70
   128
 71
    92
 72
   142
 73
  -143
  0
VERTEX
  8
RK-LAVAT
 10
0.0
 20
0.0
 30
0.0
 70
   128
 71
    96
 72
   -94
 73
   144
  0
VERTEX
  8
RK-LAVAT
 10
0.0
 20
0.0
 30
0.0
 70
   128
 71
    94
 72
   143
 73
  -144
  0
VERTEX
  8
RK-LAVAT
 10
0.0
 20
0.0
 30
0.0
 70
   128
 71
     4
 72
   -96
 73
    98
  0
VERTEX
  8
RK-LAVAT
 10
0.0
 20
0.0
 30
0.0
 70
   128
 71
    96
 72
   144
 73
   -98
  0
VERTEX
  8
RK-LAVAT
 10
0.0
 20
0.0
 30
0.0
 70
   128
 71
    97
 72
   -98
 73
   145
  0
VERTEX
  8
RK-LAVAT
 10
0.0
 20
0.0
 30
0.0
 70
   128
 71
    98
 72
   146
 73
  -145
  0
VERTEX
  8
RK-LAVAT
 10
0.0
 20
0.0
 30
0.0
 70
   128
 71
    99
 72
   -97
 73
   147
  0
VERTEX
  8
RK-LAVAT
 10
0.0
 20
0.0
 30
0.0
 70
   128
 71
    97
 72
   145
 73
  -147
  0
VERTEX
  8
RK-LAVAT
 10
0.0
 20
0.0
 30
0.0
 70
   128
 71
   100
 72
   -99
 73
   148
  0
VERTEX
  8
RK-LAVAT
 10
0.0
 20
0.0
 30
0.0
 70
   128
 71
    99
 72
   147
 73
  -148
  0
VERTEX
  8
RK-LAVAT
 10
0.0
 20
0.0
 30
0.0
 70
   128
 71
   101
 72
  -100
 73
   149
  0
VERTEX
  8
RK-LAVAT
 10
0.0
 20
0.0
 30
0.0
 70
   128
 71
   100
 72
   148
 73
  -149
  0
VERTEX
  8
RK-LAVAT
 10
0.0
 20
0.0
 30
0.0
 70
   128
 71
   102
 72
  -101
 73
   150
  0
VERTEX
  8
RK-LAVAT
 10
0.0
 20
0.0
 30
0.0
 70
   128
 71
   101
 72
   149
 73
  -150
  0
VERTEX
  8
RK-LAVAT
 10
0.0
 20
0.0
 30
0.0
 70
   128
 71
   103
 72
  -102
 73
   151
  0
VERTEX
  8
RK-LAVAT
 10
0.0
 20
0.0
 30
0.0
 70
   128
 71
   102
 72
   150
 73
  -151
  0
VERTEX
  8
RK-LAVAT
 10
0.0
 20
0.0
 30
0.0
 70
   128
 71
   104
 72
  -103
 73
   152
  0
VERTEX
  8
RK-LAVAT
 10
0.0
 20
0.0
 30
0.0
 70
   128
 71
   103
 72
   151
 73
  -152
  0
VERTEX
  8
RK-LAVAT
 10
0.0
 20
0.0
 30
0.0
 70
   128
 71
   105
 72
  -104
 73
   153
  0
VERTEX
  8
RK-LAVAT
 10
0.0
 20
0.0
 30
0.0
 70
   128
 71
   104
 72
   152
 73
  -153
  0
VERTEX
  8
RK-LAVAT
 10
0.0
 20
0.0
 30
0.0
 70
   128
 71
   106
 72
  -105
 73
   154
  0
VERTEX
  8
RK-LAVAT
 10
0.0
 20
0.0
 30
0.0
 70
   128
 71
   105
 72
   153
 73
  -154
  0
VERTEX
  8
RK-LAVAT
 10
0.0
 20
0.0
 30
0.0
 70
   128
 71
   107
 72
  -106
 73
   155
  0
VERTEX
  8
RK-LAVAT
 10
0.0
 20
0.0
 30
0.0
 70
   128
 71
   106
 72
   154
 73
  -155
  0
VERTEX
  8
RK-LAVAT
 10
0.0
 20
0.0
 30
0.0
 70
   128
 71
   108
 72
  -107
 73
   156
  0
VERTEX
  8
RK-LAVAT
 10
0.0
 20
0.0
 30
0.0
 70
   128
 71
   107
 72
   155
 73
  -156
  0
VERTEX
  8
RK-LAVAT
 10
0.0
 20
0.0
 30
0.0
 70
   128
 71
   109
 72
  -108
 73
   157
  0
VERTEX
  8
RK-LAVAT
 10
0.0
 20
0.0
 30
0.0
 70
   128
 71
   108
 72
   156
 73
  -157
  0
VERTEX
  8
RK-LAVAT
 10
0.0
 20
0.0
 30
0.0
 70
   128
 71
   110
 72
  -109
 73
   158
  0
VERTEX
  8
RK-LAVAT
 10
0.0
 20
0.0
 30
0.0
 70
   128
 71
   109
 72
   157
 73
  -158
  0
VERTEX
  8
RK-LAVAT
 10
0.0
 20
0.0
 30
0.0
 70
   128
 71
   111
 72
  -110
 73
   159
  0
VERTEX
  8
RK-LAVAT
 10
0.0
 20
0.0
 30
0.0
 70
   128
 71
   110
 72
   158
 73
  -159
  0
VERTEX
  8
RK-LAVAT
 10
0.0
 20
0.0
 30
0.0
 70
   128
 71
   112
 72
  -111
 73
   160
  0
VERTEX
  8
RK-LAVAT
 10
0.0
 20
0.0
 30
0.0
 70
   128
 71
   111
 72
   159
 73
  -160
  0
VERTEX
  8
RK-LAVAT
 10
0.0
 20
0.0
 30
0.0
 70
   128
 71
   113
 72
  -112
 73
   161
  0
VERTEX
  8
RK-LAVAT
 10
0.0
 20
0.0
 30
0.0
 70
   128
 71
   112
 72
   160
 73
  -161
  0
VERTEX
  8
RK-LAVAT
 10
0.0
 20
0.0
 30
0.0
 70
   128
 71
   114
 72
  -113
 73
   162
  0
VERTEX
  8
RK-LAVAT
 10
0.0
 20
0.0
 30
0.0
 70
   128
 71
   113
 72
   161
 73
  -162
  0
VERTEX
  8
RK-LAVAT
 10
0.0
 20
0.0
 30
0.0
 70
   128
 71
   115
 72
  -114
 73
   163
  0
VERTEX
  8
RK-LAVAT
 10
0.0
 20
0.0
 30
0.0
 70
   128
 71
   114
 72
   162
 73
  -163
  0
VERTEX
  8
RK-LAVAT
 10
0.0
 20
0.0
 30
0.0
 70
   128
 71
   116
 72
  -115
 73
   164
  0
VERTEX
  8
RK-LAVAT
 10
0.0
 20
0.0
 30
0.0
 70
   128
 71
   115
 72
   163
 73
  -164
  0
VERTEX
  8
RK-LAVAT
 10
0.0
 20
0.0
 30
0.0
 70
   128
 71
   117
 72
  -116
 73
   165
  0
VERTEX
  8
RK-LAVAT
 10
0.0
 20
0.0
 30
0.0
 70
   128
 71
   116
 72
   164
 73
  -165
  0
VERTEX
  8
RK-LAVAT
 10
0.0
 20
0.0
 30
0.0
 70
   128
 71
   118
 72
  -117
 73
   166
  0
VERTEX
  8
RK-LAVAT
 10
0.0
 20
0.0
 30
0.0
 70
   128
 71
   117
 72
   165
 73
  -166
  0
VERTEX
  8
RK-LAVAT
 10
0.0
 20
0.0
 30
0.0
 70
   128
 71
   119
 72
  -118
 73
   167
  0
VERTEX
  8
RK-LAVAT
 10
0.0
 20
0.0
 30
0.0
 70
   128
 71
   118
 72
   166
 73
  -167
  0
VERTEX
  8
RK-LAVAT
 10
0.0
 20
0.0
 30
0.0
 70
   128
 71
   120
 72
  -119
 73
   168
  0
VERTEX
  8
RK-LAVAT
 10
0.0
 20
0.0
 30
0.0
 70
   128
 71
   119
 72
   167
 73
  -168
  0
VERTEX
  8
RK-LAVAT
 10
0.0
 20
0.0
 30
0.0
 70
   128
 71
   121
 72
  -120
 73
   169
  0
VERTEX
  8
RK-LAVAT
 10
0.0
 20
0.0
 30
0.0
 70
   128
 71
   120
 72
   168
 73
  -169
  0
VERTEX
  8
RK-LAVAT
 10
0.0
 20
0.0
 30
0.0
 70
   128
 71
   122
 72
  -121
 73
   170
  0
VERTEX
  8
RK-LAVAT
 10
0.0
 20
0.0
 30
0.0
 70
   128
 71
   121
 72
   169
 73
  -170
  0
VERTEX
  8
RK-LAVAT
 10
0.0
 20
0.0
 30
0.0
 70
   128
 71
   123
 72
  -122
 73
   171
  0
VERTEX
  8
RK-LAVAT
 10
0.0
 20
0.0
 30
0.0
 70
   128
 71
   122
 72
   170
 73
  -171
  0
VERTEX
  8
RK-LAVAT
 10
0.0
 20
0.0
 30
0.0
 70
   128
 71
   124
 72
  -123
 73
   172
  0
VERTEX
  8
RK-LAVAT
 10
0.0
 20
0.0
 30
0.0
 70
   128
 71
   123
 72
   171
 73
  -172
  0
VERTEX
  8
RK-LAVAT
 10
0.0
 20
0.0
 30
0.0
 70
   128
 71
   125
 72
  -124
 73
   173
  0
VERTEX
  8
RK-LAVAT
 10
0.0
 20
0.0
 30
0.0
 70
   128
 71
   124
 72
   172
 73
  -173
  0
VERTEX
  8
RK-LAVAT
 10
0.0
 20
0.0
 30
0.0
 70
   128
 71
   126
 72
  -125
 73
   174
  0
VERTEX
  8
RK-LAVAT
 10
0.0
 20
0.0
 30
0.0
 70
   128
 71
   125
 72
   173
 73
  -174
  0
VERTEX
  8
RK-LAVAT
 10
0.0
 20
0.0
 30
0.0
 70
   128
 71
   127
 72
  -126
 73
   175
  0
VERTEX
  8
RK-LAVAT
 10
0.0
 20
0.0
 30
0.0
 70
   128
 71
   126
 72
   174
 73
  -175
  0
VERTEX
  8
RK-LAVAT
 10
0.0
 20
0.0
 30
0.0
 70
   128
 71
   128
 72
  -127
 73
   176
  0
VERTEX
  8
RK-LAVAT
 10
0.0
 20
0.0
 30
0.0
 70
   128
 71
   127
 72
   175
 73
  -176
  0
VERTEX
  8
RK-LAVAT
 10
0.0
 20
0.0
 30
0.0
 70
   128
 71
   129
 72
  -128
 73
   177
  0
VERTEX
  8
RK-LAVAT
 10
0.0
 20
0.0
 30
0.0
 70
   128
 71
   128
 72
   176
 73
  -177
  0
VERTEX
  8
RK-LAVAT
 10
0.0
 20
0.0
 30
0.0
 70
   128
 71
   130
 72
  -129
 73
   178
  0
VERTEX
  8
RK-LAVAT
 10
0.0
 20
0.0
 30
0.0
 70
   128
 71
   129
 72
   177
 73
  -178
  0
VERTEX
  8
RK-LAVAT
 10
0.0
 20
0.0
 30
0.0
 70
   128
 71
   131
 72
  -130
 73
   179
  0
VERTEX
  8
RK-LAVAT
 10
0.0
 20
0.0
 30
0.0
 70
   128
 71
   130
 72
   178
 73
  -179
  0
VERTEX
  8
RK-LAVAT
 10
0.0
 20
0.0
 30
0.0
 70
   128
 71
   132
 72
  -131
 73
   180
  0
VERTEX
  8
RK-LAVAT
 10
0.0
 20
0.0
 30
0.0
 70
   128
 71
   131
 72
   179
 73
  -180
  0
VERTEX
  8
RK-LAVAT
 10
0.0
 20
0.0
 30
0.0
 70
   128
 71
   133
 72
  -132
 73
   181
  0
VERTEX
  8
RK-LAVAT
 10
0.0
 20
0.0
 30
0.0
 70
   128
 71
   132
 72
   180
 73
  -181
  0
VERTEX
  8
RK-LAVAT
 10
0.0
 20
0.0
 30
0.0
 70
   128
 71
   134
 72
  -133
 73
   182
  0
VERTEX
  8
RK-LAVAT
 10
0.0
 20
0.0
 30
0.0
 70
   128
 71
   133
 72
   181
 73
  -182
  0
VERTEX
  8
RK-LAVAT
 10
0.0
 20
0.0
 30
0.0
 70
   128
 71
   135
 72
  -134
 73
   183
  0
VERTEX
  8
RK-LAVAT
 10
0.0
 20
0.0
 30
0.0
 70
   128
 71
   134
 72
   182
 73
  -183
  0
VERTEX
  8
RK-LAVAT
 10
0.0
 20
0.0
 30
0.0
 70
   128
 71
   136
 72
  -135
 73
   184
  0
VERTEX
  8
RK-LAVAT
 10
0.0
 20
0.0
 30
0.0
 70
   128
 71
   135
 72
   183
 73
  -184
  0
VERTEX
  8
RK-LAVAT
 10
0.0
 20
0.0
 30
0.0
 70
   128
 71
   137
 72
  -136
 73
   185
  0
VERTEX
  8
RK-LAVAT
 10
0.0
 20
0.0
 30
0.0
 70
   128
 71
   136
 72
   184
 73
  -185
  0
VERTEX
  8
RK-LAVAT
 10
0.0
 20
0.0
 30
0.0
 70
   128
 71
   138
 72
  -137
 73
   186
  0
VERTEX
  8
RK-LAVAT
 10
0.0
 20
0.0
 30
0.0
 70
   128
 71
   137
 72
   185
 73
  -186
  0
VERTEX
  8
RK-LAVAT
 10
0.0
 20
0.0
 30
0.0
 70
   128
 71
   139
 72
  -138
 73
   187
  0
VERTEX
  8
RK-LAVAT
 10
0.0
 20
0.0
 30
0.0
 70
   128
 71
   138
 72
   186
 73
  -187
  0
VERTEX
  8
RK-LAVAT
 10
0.0
 20
0.0
 30
0.0
 70
   128
 71
   140
 72
  -139
 73
   188
  0
VERTEX
  8
RK-LAVAT
 10
0.0
 20
0.0
 30
0.0
 70
   128
 71
   139
 72
   187
 73
  -188
  0
VERTEX
  8
RK-LAVAT
 10
0.0
 20
0.0
 30
0.0
 70
   128
 71
   141
 72
  -140
 73
   189
  0
VERTEX
  8
RK-LAVAT
 10
0.0
 20
0.0
 30
0.0
 70
   128
 71
   140
 72
   188
 73
  -189
  0
VERTEX
  8
RK-LAVAT
 10
0.0
 20
0.0
 30
0.0
 70
   128
 71
   142
 72
  -141
 73
   190
  0
VERTEX
  8
RK-LAVAT
 10
0.0
 20
0.0
 30
0.0
 70
   128
 71
   141
 72
   189
 73
  -190
  0
VERTEX
  8
RK-LAVAT
 10
0.0
 20
0.0
 30
0.0
 70
   128
 71
   143
 72
  -142
 73
   191
  0
VERTEX
  8
RK-LAVAT
 10
0.0
 20
0.0
 30
0.0
 70
   128
 71
   142
 72
   190
 73
  -191
  0
VERTEX
  8
RK-LAVAT
 10
0.0
 20
0.0
 30
0.0
 70
   128
 71
   144
 72
  -143
 73
   192
  0
VERTEX
  8
RK-LAVAT
 10
0.0
 20
0.0
 30
0.0
 70
   128
 71
   143
 72
   191
 73
  -192
  0
VERTEX
  8
RK-LAVAT
 10
0.0
 20
0.0
 30
0.0
 70
   128
 71
    98
 72
  -144
 73
   146
  0
VERTEX
  8
RK-LAVAT
 10
0.0
 20
0.0
 30
0.0
 70
   128
 71
   144
 72
   192
 73
  -146
  0
VERTEX
  8
RK-LAVAT
 10
0.0
 20
0.0
 30
0.0
 70
   128
 71
   145
 72
  -146
 73
   193
  0
VERTEX
  8
RK-LAVAT
 10
0.0
 20
0.0
 30
0.0
 70
   128
 71
   146
 72
   194
 73
  -193
  0
VERTEX
  8
RK-LAVAT
 10
0.0
 20
0.0
 30
0.0
 70
   128
 71
   147
 72
  -145
 73
   195
  0
VERTEX
  8
RK-LAVAT
 10
0.0
 20
0.0
 30
0.0
 70
   128
 71
   145
 72
   193
 73
  -195
  0
VERTEX
  8
RK-LAVAT
 10
0.0
 20
0.0
 30
0.0
 70
   128
 71
   148
 72
  -147
 73
   196
  0
VERTEX
  8
RK-LAVAT
 10
0.0
 20
0.0
 30
0.0
 70
   128
 71
   147
 72
   195
 73
  -196
  0
VERTEX
  8
RK-LAVAT
 10
0.0
 20
0.0
 30
0.0
 70
   128
 71
   149
 72
  -148
 73
   197
  0
VERTEX
  8
RK-LAVAT
 10
0.0
 20
0.0
 30
0.0
 70
   128
 71
   148
 72
   196
 73
  -197
  0
VERTEX
  8
RK-LAVAT
 10
0.0
 20
0.0
 30
0.0
 70
   128
 71
   150
 72
  -149
 73
   198
  0
VERTEX
  8
RK-LAVAT
 10
0.0
 20
0.0
 30
0.0
 70
   128
 71
   149
 72
   197
 73
  -198
  0
VERTEX
  8
RK-LAVAT
 10
0.0
 20
0.0
 30
0.0
 70
   128
 71
   151
 72
  -150
 73
   199
  0
VERTEX
  8
RK-LAVAT
 10
0.0
 20
0.0
 30
0.0
 70
   128
 71
   150
 72
   198
 73
  -199
  0
VERTEX
  8
RK-LAVAT
 10
0.0
 20
0.0
 30
0.0
 70
   128
 71
   152
 72
  -151
 73
   200
  0
VERTEX
  8
RK-LAVAT
 10
0.0
 20
0.0
 30
0.0
 70
   128
 71
   151
 72
   199
 73
  -200
  0
VERTEX
  8
RK-LAVAT
 10
0.0
 20
0.0
 30
0.0
 70
   128
 71
   153
 72
  -152
 73
   201
  0
VERTEX
  8
RK-LAVAT
 10
0.0
 20
0.0
 30
0.0
 70
   128
 71
   152
 72
   200
 73
  -201
  0
VERTEX
  8
RK-LAVAT
 10
0.0
 20
0.0
 30
0.0
 70
   128
 71
   154
 72
  -153
 73
   202
  0
VERTEX
  8
RK-LAVAT
 10
0.0
 20
0.0
 30
0.0
 70
   128
 71
   153
 72
   201
 73
  -202
  0
VERTEX
  8
RK-LAVAT
 10
0.0
 20
0.0
 30
0.0
 70
   128
 71
   155
 72
  -154
 73
   203
  0
VERTEX
  8
RK-LAVAT
 10
0.0
 20
0.0
 30
0.0
 70
   128
 71
   154
 72
   202
 73
  -203
  0
VERTEX
  8
RK-LAVAT
 10
0.0
 20
0.0
 30
0.0
 70
   128
 71
   156
 72
  -155
 73
   204
  0
VERTEX
  8
RK-LAVAT
 10
0.0
 20
0.0
 30
0.0
 70
   128
 71
   155
 72
   203
 73
  -204
  0
VERTEX
  8
RK-LAVAT
 10
0.0
 20
0.0
 30
0.0
 70
   128
 71
   157
 72
  -156
 73
   205
  0
VERTEX
  8
RK-LAVAT
 10
0.0
 20
0.0
 30
0.0
 70
   128
 71
   156
 72
   204
 73
  -205
  0
VERTEX
  8
RK-LAVAT
 10
0.0
 20
0.0
 30
0.0
 70
   128
 71
   158
 72
  -157
 73
   206
  0
VERTEX
  8
RK-LAVAT
 10
0.0
 20
0.0
 30
0.0
 70
   128
 71
   157
 72
   205
 73
  -206
  0
VERTEX
  8
RK-LAVAT
 10
0.0
 20
0.0
 30
0.0
 70
   128
 71
   159
 72
  -158
 73
   207
  0
VERTEX
  8
RK-LAVAT
 10
0.0
 20
0.0
 30
0.0
 70
   128
 71
   158
 72
   206
 73
  -207
  0
VERTEX
  8
RK-LAVAT
 10
0.0
 20
0.0
 30
0.0
 70
   128
 71
   160
 72
  -159
 73
   208
  0
VERTEX
  8
RK-LAVAT
 10
0.0
 20
0.0
 30
0.0
 70
   128
 71
   159
 72
   207
 73
  -208
  0
VERTEX
  8
RK-LAVAT
 10
0.0
 20
0.0
 30
0.0
 70
   128
 71
   161
 72
  -160
 73
   209
  0
VERTEX
  8
RK-LAVAT
 10
0.0
 20
0.0
 30
0.0
 70
   128
 71
   160
 72
   208
 73
  -209
  0
VERTEX
  8
RK-LAVAT
 10
0.0
 20
0.0
 30
0.0
 70
   128
 71
   162
 72
  -161
 73
   210
  0
VERTEX
  8
RK-LAVAT
 10
0.0
 20
0.0
 30
0.0
 70
   128
 71
   161
 72
   209
 73
  -210
  0
VERTEX
  8
RK-LAVAT
 10
0.0
 20
0.0
 30
0.0
 70
   128
 71
   163
 72
  -162
 73
   211
  0
VERTEX
  8
RK-LAVAT
 10
0.0
 20
0.0
 30
0.0
 70
   128
 71
   162
 72
   210
 73
  -211
  0
VERTEX
  8
RK-LAVAT
 10
0.0
 20
0.0
 30
0.0
 70
   128
 71
   164
 72
  -163
 73
   212
  0
VERTEX
  8
RK-LAVAT
 10
0.0
 20
0.0
 30
0.0
 70
   128
 71
   163
 72
   211
 73
  -212
  0
VERTEX
  8
RK-LAVAT
 10
0.0
 20
0.0
 30
0.0
 70
   128
 71
   165
 72
  -164
 73
   213
  0
VERTEX
  8
RK-LAVAT
 10
0.0
 20
0.0
 30
0.0
 70
   128
 71
   164
 72
   212
 73
  -213
  0
VERTEX
  8
RK-LAVAT
 10
0.0
 20
0.0
 30
0.0
 70
   128
 71
   166
 72
  -165
 73
   214
  0
VERTEX
  8
RK-LAVAT
 10
0.0
 20
0.0
 30
0.0
 70
   128
 71
   165
 72
   213
 73
  -214
  0
VERTEX
  8
RK-LAVAT
 10
0.0
 20
0.0
 30
0.0
 70
   128
 71
   167
 72
  -166
 73
   215
  0
VERTEX
  8
RK-LAVAT
 10
0.0
 20
0.0
 30
0.0
 70
   128
 71
   166
 72
   214
 73
  -215
  0
VERTEX
  8
RK-LAVAT
 10
0.0
 20
0.0
 30
0.0
 70
   128
 71
   168
 72
  -167
 73
   216
  0
VERTEX
  8
RK-LAVAT
 10
0.0
 20
0.0
 30
0.0
 70
   128
 71
   167
 72
   215
 73
  -216
  0
VERTEX
  8
RK-LAVAT
 10
0.0
 20
0.0
 30
0.0
 70
   128
 71
   169
 72
  -168
 73
   217
  0
VERTEX
  8
RK-LAVAT
 10
0.0
 20
0.0
 30
0.0
 70
   128
 71
   168
 72
   216
 73
  -217
  0
VERTEX
  8
RK-LAVAT
 10
0.0
 20
0.0
 30
0.0
 70
   128
 71
   170
 72
  -169
 73
   218
  0
VERTEX
  8
RK-LAVAT
 10
0.0
 20
0.0
 30
0.0
 70
   128
 71
   169
 72
   217
 73
  -218
  0
VERTEX
  8
RK-LAVAT
 10
0.0
 20
0.0
 30
0.0
 70
   128
 71
   171
 72
  -170
 73
   219
  0
VERTEX
  8
RK-LAVAT
 10
0.0
 20
0.0
 30
0.0
 70
   128
 71
   170
 72
   218
 73
  -219
  0
VERTEX
  8
RK-LAVAT
 10
0.0
 20
0.0
 30
0.0
 70
   128
 71
   172
 72
  -171
 73
   220
  0
VERTEX
  8
RK-LAVAT
 10
0.0
 20
0.0
 30
0.0
 70
   128
 71
   171
 72
   219
 73
  -220
  0
VERTEX
  8
RK-LAVAT
 10
0.0
 20
0.0
 30
0.0
 70
   128
 71
   173
 72
  -172
 73
   221
  0
VERTEX
  8
RK-LAVAT
 10
0.0
 20
0.0
 30
0.0
 70
   128
 71
   172
 72
   220
 73
  -221
  0
VERTEX
  8
RK-LAVAT
 10
0.0
 20
0.0
 30
0.0
 70
   128
 71
   174
 72
  -173
 73
   222
  0
VERTEX
  8
RK-LAVAT
 10
0.0
 20
0.0
 30
0.0
 70
   128
 71
   173
 72
   221
 73
  -222
  0
VERTEX
  8
RK-LAVAT
 10
0.0
 20
0.0
 30
0.0
 70
   128
 71
   175
 72
  -174
 73
   223
  0
VERTEX
  8
RK-LAVAT
 10
0.0
 20
0.0
 30
0.0
 70
   128
 71
   174
 72
   222
 73
  -223
  0
VERTEX
  8
RK-LAVAT
 10
0.0
 20
0.0
 30
0.0
 70
   128
 71
   176
 72
  -175
 73
   224
  0
VERTEX
  8
RK-LAVAT
 10
0.0
 20
0.0
 30
0.0
 70
   128
 71
   175
 72
   223
 73
  -224
  0
VERTEX
  8
RK-LAVAT
 10
0.0
 20
0.0
 30
0.0
 70
   128
 71
   177
 72
  -176
 73
   225
  0
VERTEX
  8
RK-LAVAT
 10
0.0
 20
0.0
 30
0.0
 70
   128
 71
   176
 72
   224
 73
  -225
  0
VERTEX
  8
RK-LAVAT
 10
0.0
 20
0.0
 30
0.0
 70
   128
 71
   178
 72
  -177
 73
   226
  0
VERTEX
  8
RK-LAVAT
 10
0.0
 20
0.0
 30
0.0
 70
   128
 71
   177
 72
   225
 73
  -226
  0
VERTEX
  8
RK-LAVAT
 10
0.0
 20
0.0
 30
0.0
 70
   128
 71
   179
 72
  -178
 73
   227
  0
VERTEX
  8
RK-LAVAT
 10
0.0
 20
0.0
 30
0.0
 70
   128
 71
   178
 72
   226
 73
  -227
  0
VERTEX
  8
RK-LAVAT
 10
0.0
 20
0.0
 30
0.0
 70
   128
 71
   180
 72
  -179
 73
   228
  0
VERTEX
  8
RK-LAVAT
 10
0.0
 20
0.0
 30
0.0
 70
   128
 71
   179
 72
   227
 73
  -228
  0
VERTEX
  8
RK-LAVAT
 10
0.0
 20
0.0
 30
0.0
 70
   128
 71
   181
 72
  -180
 73
   229
  0
VERTEX
  8
RK-LAVAT
 10
0.0
 20
0.0
 30
0.0
 70
   128
 71
   180
 72
   228
 73
  -229
  0
VERTEX
  8
RK-LAVAT
 10
0.0
 20
0.0
 30
0.0
 70
   128
 71
   182
 72
  -181
 73
   230
  0
VERTEX
  8
RK-LAVAT
 10
0.0
 20
0.0
 30
0.0
 70
   128
 71
   181
 72
   229
 73
  -230
  0
VERTEX
  8
RK-LAVAT
 10
0.0
 20
0.0
 30
0.0
 70
   128
 71
   183
 72
  -182
 73
   231
  0
VERTEX
  8
RK-LAVAT
 10
0.0
 20
0.0
 30
0.0
 70
   128
 71
   182
 72
   230
 73
  -231
  0
VERTEX
  8
RK-LAVAT
 10
0.0
 20
0.0
 30
0.0
 70
   128
 71
   184
 72
  -183
 73
   232
  0
VERTEX
  8
RK-LAVAT
 10
0.0
 20
0.0
 30
0.0
 70
   128
 71
   183
 72
   231
 73
  -232
  0
VERTEX
  8
RK-LAVAT
 10
0.0
 20
0.0
 30
0.0
 70
   128
 71
   185
 72
  -184
 73
   233
  0
VERTEX
  8
RK-LAVAT
 10
0.0
 20
0.0
 30
0.0
 70
   128
 71
   184
 72
   232
 73
  -233
  0
VERTEX
  8
RK-LAVAT
 10
0.0
 20
0.0
 30
0.0
 70
   128
 71
   186
 72
  -185
 73
   234
  0
VERTEX
  8
RK-LAVAT
 10
0.0
 20
0.0
 30
0.0
 70
   128
 71
   185
 72
   233
 73
  -234
  0
VERTEX
  8
RK-LAVAT
 10
0.0
 20
0.0
 30
0.0
 70
   128
 71
   187
 72
  -186
 73
   235
  0
VERTEX
  8
RK-LAVAT
 10
0.0
 20
0.0
 30
0.0
 70
   128
 71
   186
 72
   234
 73
  -235
  0
VERTEX
  8
RK-LAVAT
 10
0.0
 20
0.0
 30
0.0
 70
   128
 71
   188
 72
  -187
 73
   236
  0
VERTEX
  8
RK-LAVAT
 10
0.0
 20
0.0
 30
0.0
 70
   128
 71
   187
 72
   235
 73
  -236
  0
VERTEX
  8
RK-LAVAT
 10
0.0
 20
0.0
 30
0.0
 70
   128
 71
   189
 72
  -188
 73
   237
  0
VERTEX
  8
RK-LAVAT
 10
0.0
 20
0.0
 30
0.0
 70
   128
 71
   188
 72
   236
 73
  -237
  0
VERTEX
  8
RK-LAVAT
 10
0.0
 20
0.0
 30
0.0
 70
   128
 71
   190
 72
  -189
 73
   238
  0
VERTEX
  8
RK-LAVAT
 10
0.0
 20
0.0
 30
0.0
 70
   128
 71
   189
 72
   237
 73
  -238
  0
VERTEX
  8
RK-LAVAT
 10
0.0
 20
0.0
 30
0.0
 70
   128
 71
   191
 72
  -190
 73
   239
  0
VERTEX
  8
RK-LAVAT
 10
0.0
 20
0.0
 30
0.0
 70
   128
 71
   190
 72
   238
 73
  -239
  0
VERTEX
  8
RK-LAVAT
 10
0.0
 20
0.0
 30
0.0
 70
   128
 71
   192
 72
  -191
 73
   240
  0
VERTEX
  8
RK-LAVAT
 10
0.0
 20
0.0
 30
0.0
 70
   128
 71
   191
 72
   239
 73
  -240
  0
VERTEX
  8
RK-LAVAT
 10
0.0
 20
0.0
 30
0.0
 70
   128
 71
   146
 72
  -192
 73
   194
  0
VERTEX
  8
RK-LAVAT
 10
0.0
 20
0.0
 30
0.0
 70
   128
 71
   192
 72
   240
 73
  -194
  0
VERTEX
  8
RK-LAVAT
 10
0.0
 20
0.0
 30
0.0
 70
   128
 71
   193
 72
  -194
 73
   241
  0
VERTEX
  8
RK-LAVAT
 10
0.0
 20
0.0
 30
0.0
 70
   128
 71
   194
 72
   242
 73
  -241
  0
VERTEX
  8
RK-LAVAT
 10
0.0
 20
0.0
 30
0.0
 70
   128
 71
   195
 72
  -193
 73
   243
  0
VERTEX
  8
RK-LAVAT
 10
0.0
 20
0.0
 30
0.0
 70
   128
 71
   193
 72
   241
 73
  -243
  0
VERTEX
  8
RK-LAVAT
 10
0.0
 20
0.0
 30
0.0
 70
   128
 71
   196
 72
  -195
 73
   244
  0
VERTEX
  8
RK-LAVAT
 10
0.0
 20
0.0
 30
0.0
 70
   128
 71
   195
 72
   243
 73
  -244
  0
VERTEX
  8
RK-LAVAT
 10
0.0
 20
0.0
 30
0.0
 70
   128
 71
   197
 72
  -196
 73
   245
  0
VERTEX
  8
RK-LAVAT
 10
0.0
 20
0.0
 30
0.0
 70
   128
 71
   196
 72
   244
 73
  -245
  0
VERTEX
  8
RK-LAVAT
 10
0.0
 20
0.0
 30
0.0
 70
   128
 71
   198
 72
  -197
 73
   246
  0
VERTEX
  8
RK-LAVAT
 10
0.0
 20
0.0
 30
0.0
 70
   128
 71
   197
 72
   245
 73
  -246
  0
VERTEX
  8
RK-LAVAT
 10
0.0
 20
0.0
 30
0.0
 70
   128
 71
   199
 72
  -198
 73
   247
  0
VERTEX
  8
RK-LAVAT
 10
0.0
 20
0.0
 30
0.0
 70
   128
 71
   198
 72
   246
 73
  -247
  0
VERTEX
  8
RK-LAVAT
 10
0.0
 20
0.0
 30
0.0
 70
   128
 71
   200
 72
  -199
 73
   248
  0
VERTEX
  8
RK-LAVAT
 10
0.0
 20
0.0
 30
0.0
 70
   128
 71
   199
 72
   247
 73
  -248
  0
VERTEX
  8
RK-LAVAT
 10
0.0
 20
0.0
 30
0.0
 70
   128
 71
   201
 72
  -200
 73
   249
  0
VERTEX
  8
RK-LAVAT
 10
0.0
 20
0.0
 30
0.0
 70
   128
 71
   200
 72
   248
 73
  -249
  0
VERTEX
  8
RK-LAVAT
 10
0.0
 20
0.0
 30
0.0
 70
   128
 71
   202
 72
  -201
 73
   250
  0
VERTEX
  8
RK-LAVAT
 10
0.0
 20
0.0
 30
0.0
 70
   128
 71
   201
 72
   249
 73
  -250
  0
VERTEX
  8
RK-LAVAT
 10
0.0
 20
0.0
 30
0.0
 70
   128
 71
   203
 72
  -202
 73
   251
  0
VERTEX
  8
RK-LAVAT
 10
0.0
 20
0.0
 30
0.0
 70
   128
 71
   202
 72
   250
 73
  -251
  0
VERTEX
  8
RK-LAVAT
 10
0.0
 20
0.0
 30
0.0
 70
   128
 71
   204
 72
  -203
 73
   252
  0
VERTEX
  8
RK-LAVAT
 10
0.0
 20
0.0
 30
0.0
 70
   128
 71
   203
 72
   251
 73
  -252
  0
VERTEX
  8
RK-LAVAT
 10
0.0
 20
0.0
 30
0.0
 70
   128
 71
   205
 72
  -204
 73
   253
  0
VERTEX
  8
RK-LAVAT
 10
0.0
 20
0.0
 30
0.0
 70
   128
 71
   204
 72
   252
 73
  -253
  0
VERTEX
  8
RK-LAVAT
 10
0.0
 20
0.0
 30
0.0
 70
   128
 71
   206
 72
  -205
 73
   254
  0
VERTEX
  8
RK-LAVAT
 10
0.0
 20
0.0
 30
0.0
 70
   128
 71
   205
 72
   253
 73
  -254
  0
VERTEX
  8
RK-LAVAT
 10
0.0
 20
0.0
 30
0.0
 70
   128
 71
   207
 72
  -206
 73
   255
  0
VERTEX
  8
RK-LAVAT
 10
0.0
 20
0.0
 30
0.0
 70
   128
 71
   206
 72
   254
 73
  -255
  0
VERTEX
  8
RK-LAVAT
 10
0.0
 20
0.0
 30
0.0
 70
   128
 71
   208
 72
  -207
 73
   256
  0
VERTEX
  8
RK-LAVAT
 10
0.0
 20
0.0
 30
0.0
 70
   128
 71
   207
 72
   255
 73
  -256
  0
VERTEX
  8
RK-LAVAT
 10
0.0
 20
0.0
 30
0.0
 70
   128
 71
   209
 72
  -208
 73
   257
  0
VERTEX
  8
RK-LAVAT
 10
0.0
 20
0.0
 30
0.0
 70
   128
 71
   208
 72
   256
 73
  -257
  0
VERTEX
  8
RK-LAVAT
 10
0.0
 20
0.0
 30
0.0
 70
   128
 71
   210
 72
  -209
 73
   258
  0
VERTEX
  8
RK-LAVAT
 10
0.0
 20
0.0
 30
0.0
 70
   128
 71
   209
 72
   257
 73
  -258
  0
VERTEX
  8
RK-LAVAT
 10
0.0
 20
0.0
 30
0.0
 70
   128
 71
   211
 72
  -210
 73
   259
  0
VERTEX
  8
RK-LAVAT
 10
0.0
 20
0.0
 30
0.0
 70
   128
 71
   210
 72
   258
 73
  -259
  0
VERTEX
  8
RK-LAVAT
 10
0.0
 20
0.0
 30
0.0
 70
   128
 71
   212
 72
  -211
 73
   260
  0
VERTEX
  8
RK-LAVAT
 10
0.0
 20
0.0
 30
0.0
 70
   128
 71
   211
 72
   259
 73
  -260
  0
VERTEX
  8
RK-LAVAT
 10
0.0
 20
0.0
 30
0.0
 70
   128
 71
   213
 72
  -212
 73
   261
  0
VERTEX
  8
RK-LAVAT
 10
0.0
 20
0.0
 30
0.0
 70
   128
 71
   212
 72
   260
 73
  -261
  0
VERTEX
  8
RK-LAVAT
 10
0.0
 20
0.0
 30
0.0
 70
   128
 71
   214
 72
  -213
 73
   262
  0
VERTEX
  8
RK-LAVAT
 10
0.0
 20
0.0
 30
0.0
 70
   128
 71
   213
 72
   261
 73
  -262
  0
VERTEX
  8
RK-LAVAT
 10
0.0
 20
0.0
 30
0.0
 70
   128
 71
   215
 72
  -214
 73
   263
  0
VERTEX
  8
RK-LAVAT
 10
0.0
 20
0.0
 30
0.0
 70
   128
 71
   214
 72
   262
 73
  -263
  0
VERTEX
  8
RK-LAVAT
 10
0.0
 20
0.0
 30
0.0
 70
   128
 71
   216
 72
  -215
 73
   264
  0
VERTEX
  8
RK-LAVAT
 10
0.0
 20
0.0
 30
0.0
 70
   128
 71
   215
 72
   263
 73
  -264
  0
VERTEX
  8
RK-LAVAT
 10
0.0
 20
0.0
 30
0.0
 70
   128
 71
   217
 72
  -216
 73
   265
  0
VERTEX
  8
RK-LAVAT
 10
0.0
 20
0.0
 30
0.0
 70
   128
 71
   216
 72
   264
 73
  -265
  0
VERTEX
  8
RK-LAVAT
 10
0.0
 20
0.0
 30
0.0
 70
   128
 71
   218
 72
  -217
 73
   266
  0
VERTEX
  8
RK-LAVAT
 10
0.0
 20
0.0
 30
0.0
 70
   128
 71
   217
 72
   265
 73
  -266
  0
VERTEX
  8
RK-LAVAT
 10
0.0
 20
0.0
 30
0.0
 70
   128
 71
   219
 72
  -218
 73
   267
  0
VERTEX
  8
RK-LAVAT
 10
0.0
 20
0.0
 30
0.0
 70
   128
 71
   218
 72
   266
 73
  -267
  0
VERTEX
  8
RK-LAVAT
 10
0.0
 20
0.0
 30
0.0
 70
   128
 71
   220
 72
  -219
 73
   268
  0
VERTEX
  8
RK-LAVAT
 10
0.0
 20
0.0
 30
0.0
 70
   128
 71
   219
 72
   267
 73
  -268
  0
VERTEX
  8
RK-LAVAT
 10
0.0
 20
0.0
 30
0.0
 70
   128
 71
   221
 72
  -220
 73
   269
  0
VERTEX
  8
RK-LAVAT
 10
0.0
 20
0.0
 30
0.0
 70
   128
 71
   220
 72
   268
 73
  -269
  0
VERTEX
  8
RK-LAVAT
 10
0.0
 20
0.0
 30
0.0
 70
   128
 71
   222
 72
  -221
 73
   270
  0
VERTEX
  8
RK-LAVAT
 10
0.0
 20
0.0
 30
0.0
 70
   128
 71
   221
 72
   269
 73
  -270
  0
VERTEX
  8
RK-LAVAT
 10
0.0
 20
0.0
 30
0.0
 70
   128
 71
   223
 72
  -222
 73
   271
  0
VERTEX
  8
RK-LAVAT
 10
0.0
 20
0.0
 30
0.0
 70
   128
 71
   222
 72
   270
 73
  -271
  0
VERTEX
  8
RK-LAVAT
 10
0.0
 20
0.0
 30
0.0
 70
   128
 71
   224
 72
  -223
 73
   272
  0
VERTEX
  8
RK-LAVAT
 10
0.0
 20
0.0
 30
0.0
 70
   128
 71
   223
 72
   271
 73
  -272
  0
VERTEX
  8
RK-LAVAT
 10
0.0
 20
0.0
 30
0.0
 70
   128
 71
   225
 72
  -224
 73
   273
  0
VERTEX
  8
RK-LAVAT
 10
0.0
 20
0.0
 30
0.0
 70
   128
 71
   224
 72
   272
 73
  -273
  0
VERTEX
  8
RK-LAVAT
 10
0.0
 20
0.0
 30
0.0
 70
   128
 71
   226
 72
  -225
 73
   274
  0
VERTEX
  8
RK-LAVAT
 10
0.0
 20
0.0
 30
0.0
 70
   128
 71
   225
 72
   273
 73
  -274
  0
VERTEX
  8
RK-LAVAT
 10
0.0
 20
0.0
 30
0.0
 70
   128
 71
   227
 72
  -226
 73
   275
  0
VERTEX
  8
RK-LAVAT
 10
0.0
 20
0.0
 30
0.0
 70
   128
 71
   226
 72
   274
 73
  -275
  0
VERTEX
  8
RK-LAVAT
 10
0.0
 20
0.0
 30
0.0
 70
   128
 71
   228
 72
  -227
 73
   276
  0
VERTEX
  8
RK-LAVAT
 10
0.0
 20
0.0
 30
0.0
 70
   128
 71
   227
 72
   275
 73
  -276
  0
VERTEX
  8
RK-LAVAT
 10
0.0
 20
0.0
 30
0.0
 70
   128
 71
   229
 72
  -228
 73
   277
  0
VERTEX
  8
RK-LAVAT
 10
0.0
 20
0.0
 30
0.0
 70
   128
 71
   228
 72
   276
 73
  -277
  0
VERTEX
  8
RK-LAVAT
 10
0.0
 20
0.0
 30
0.0
 70
   128
 71
   230
 72
  -229
 73
   278
  0
VERTEX
  8
RK-LAVAT
 10
0.0
 20
0.0
 30
0.0
 70
   128
 71
   229
 72
   277
 73
  -278
  0
VERTEX
  8
RK-LAVAT
 10
0.0
 20
0.0
 30
0.0
 70
   128
 71
   231
 72
  -230
 73
   279
  0
VERTEX
  8
RK-LAVAT
 10
0.0
 20
0.0
 30
0.0
 70
   128
 71
   230
 72
   278
 73
  -279
  0
VERTEX
  8
RK-LAVAT
 10
0.0
 20
0.0
 30
0.0
 70
   128
 71
   232
 72
  -231
 73
   280
  0
VERTEX
  8
RK-LAVAT
 10
0.0
 20
0.0
 30
0.0
 70
   128
 71
   231
 72
   279
 73
  -280
  0
VERTEX
  8
RK-LAVAT
 10
0.0
 20
0.0
 30
0.0
 70
   128
 71
   233
 72
  -232
 73
   281
  0
VERTEX
  8
RK-LAVAT
 10
0.0
 20
0.0
 30
0.0
 70
   128
 71
   232
 72
   280
 73
  -281
  0
VERTEX
  8
RK-LAVAT
 10
0.0
 20
0.0
 30
0.0
 70
   128
 71
   234
 72
  -233
 73
   282
  0
VERTEX
  8
RK-LAVAT
 10
0.0
 20
0.0
 30
0.0
 70
   128
 71
   233
 72
   281
 73
  -282
  0
VERTEX
  8
RK-LAVAT
 10
0.0
 20
0.0
 30
0.0
 70
   128
 71
   235
 72
  -234
 73
   283
  0
VERTEX
  8
RK-LAVAT
 10
0.0
 20
0.0
 30
0.0
 70
   128
 71
   234
 72
   282
 73
  -283
  0
VERTEX
  8
RK-LAVAT
 10
0.0
 20
0.0
 30
0.0
 70
   128
 71
   236
 72
  -235
 73
   284
  0
VERTEX
  8
RK-LAVAT
 10
0.0
 20
0.0
 30
0.0
 70
   128
 71
   235
 72
   283
 73
  -284
  0
VERTEX
  8
RK-LAVAT
 10
0.0
 20
0.0
 30
0.0
 70
   128
 71
   237
 72
  -236
 73
   285
  0
VERTEX
  8
RK-LAVAT
 10
0.0
 20
0.0
 30
0.0
 70
   128
 71
   236
 72
   284
 73
  -285
  0
VERTEX
  8
RK-LAVAT
 10
0.0
 20
0.0
 30
0.0
 70
   128
 71
   238
 72
  -237
 73
   286
  0
VERTEX
  8
RK-LAVAT
 10
0.0
 20
0.0
 30
0.0
 70
   128
 71
   237
 72
   285
 73
  -286
  0
VERTEX
  8
RK-LAVAT
 10
0.0
 20
0.0
 30
0.0
 70
   128
 71
   239
 72
  -238
 73
   287
  0
VERTEX
  8
RK-LAVAT
 10
0.0
 20
0.0
 30
0.0
 70
   128
 71
   238
 72
   286
 73
  -287
  0
VERTEX
  8
RK-LAVAT
 10
0.0
 20
0.0
 30
0.0
 70
   128
 71
   240
 72
  -239
 73
   288
  0
VERTEX
  8
RK-LAVAT
 10
0.0
 20
0.0
 30
0.0
 70
   128
 71
   239
 72
   287
 73
  -288
  0
VERTEX
  8
RK-LAVAT
 10
0.0
 20
0.0
 30
0.0
 70
   128
 71
   194
 72
  -240
 73
   242
  0
VERTEX
  8
RK-LAVAT
 10
0.0
 20
0.0
 30
0.0
 70
   128
 71
   240
 72
   288
 73
  -242
  0
VERTEX
  8
RK-LAVAT
 10
0.0
 20
0.0
 30
0.0
 70
   128
 71
   241
 72
  -242
 73
   289
  0
VERTEX
  8
RK-LAVAT
 10
0.0
 20
0.0
 30
0.0
 70
   128
 71
   242
 72
   290
 73
  -289
  0
VERTEX
  8
RK-LAVAT
 10
0.0
 20
0.0
 30
0.0
 70
   128
 71
   243
 72
  -241
 73
   291
  0
VERTEX
  8
RK-LAVAT
 10
0.0
 20
0.0
 30
0.0
 70
   128
 71
   241
 72
   289
 73
  -291
  0
VERTEX
  8
RK-LAVAT
 10
0.0
 20
0.0
 30
0.0
 70
   128
 71
   244
 72
  -243
 73
   292
  0
VERTEX
  8
RK-LAVAT
 10
0.0
 20
0.0
 30
0.0
 70
   128
 71
   243
 72
   291
 73
  -292
  0
VERTEX
  8
RK-LAVAT
 10
0.0
 20
0.0
 30
0.0
 70
   128
 71
   245
 72
  -244
 73
   293
  0
VERTEX
  8
RK-LAVAT
 10
0.0
 20
0.0
 30
0.0
 70
   128
 71
   244
 72
   292
 73
  -293
  0
VERTEX
  8
RK-LAVAT
 10
0.0
 20
0.0
 30
0.0
 70
   128
 71
   246
 72
  -245
 73
   294
  0
VERTEX
  8
RK-LAVAT
 10
0.0
 20
0.0
 30
0.0
 70
   128
 71
   245
 72
   293
 73
  -294
  0
VERTEX
  8
RK-LAVAT
 10
0.0
 20
0.0
 30
0.0
 70
   128
 71
   247
 72
  -246
 73
   295
  0
VERTEX
  8
RK-LAVAT
 10
0.0
 20
0.0
 30
0.0
 70
   128
 71
   246
 72
   294
 73
  -295
  0
VERTEX
  8
RK-LAVAT
 10
0.0
 20
0.0
 30
0.0
 70
   128
 71
   248
 72
  -247
 73
   296
  0
VERTEX
  8
RK-LAVAT
 10
0.0
 20
0.0
 30
0.0
 70
   128
 71
   247
 72
   295
 73
  -296
  0
VERTEX
  8
RK-LAVAT
 10
0.0
 20
0.0
 30
0.0
 70
   128
 71
   249
 72
  -248
 73
   297
  0
VERTEX
  8
RK-LAVAT
 10
0.0
 20
0.0
 30
0.0
 70
   128
 71
   248
 72
   296
 73
  -297
  0
VERTEX
  8
RK-LAVAT
 10
0.0
 20
0.0
 30
0.0
 70
   128
 71
   250
 72
  -249
 73
   298
  0
VERTEX
  8
RK-LAVAT
 10
0.0
 20
0.0
 30
0.0
 70
   128
 71
   249
 72
   297
 73
  -298
  0
VERTEX
  8
RK-LAVAT
 10
0.0
 20
0.0
 30
0.0
 70
   128
 71
   251
 72
  -250
 73
   299
  0
VERTEX
  8
RK-LAVAT
 10
0.0
 20
0.0
 30
0.0
 70
   128
 71
   250
 72
   298
 73
  -299
  0
VERTEX
  8
RK-LAVAT
 10
0.0
 20
0.0
 30
0.0
 70
   128
 71
   252
 72
  -251
 73
   300
  0
VERTEX
  8
RK-LAVAT
 10
0.0
 20
0.0
 30
0.0
 70
   128
 71
   251
 72
   299
 73
  -300
  0
VERTEX
  8
RK-LAVAT
 10
0.0
 20
0.0
 30
0.0
 70
   128
 71
   253
 72
  -252
 73
   301
  0
VERTEX
  8
RK-LAVAT
 10
0.0
 20
0.0
 30
0.0
 70
   128
 71
   252
 72
   300
 73
  -301
  0
VERTEX
  8
RK-LAVAT
 10
0.0
 20
0.0
 30
0.0
 70
   128
 71
   254
 72
  -253
 73
   302
  0
VERTEX
  8
RK-LAVAT
 10
0.0
 20
0.0
 30
0.0
 70
   128
 71
   253
 72
   301
 73
  -302
  0
VERTEX
  8
RK-LAVAT
 10
0.0
 20
0.0
 30
0.0
 70
   128
 71
   255
 72
  -254
 73
   303
  0
VERTEX
  8
RK-LAVAT
 10
0.0
 20
0.0
 30
0.0
 70
   128
 71
   254
 72
   302
 73
  -303
  0
VERTEX
  8
RK-LAVAT
 10
0.0
 20
0.0
 30
0.0
 70
   128
 71
   256
 72
  -255
 73
   304
  0
VERTEX
  8
RK-LAVAT
 10
0.0
 20
0.0
 30
0.0
 70
   128
 71
   255
 72
   303
 73
  -304
  0
VERTEX
  8
RK-LAVAT
 10
0.0
 20
0.0
 30
0.0
 70
   128
 71
   257
 72
  -256
 73
   305
  0
VERTEX
  8
RK-LAVAT
 10
0.0
 20
0.0
 30
0.0
 70
   128
 71
   256
 72
   304
 73
  -305
  0
VERTEX
  8
RK-LAVAT
 10
0.0
 20
0.0
 30
0.0
 70
   128
 71
   258
 72
  -257
 73
   306
  0
VERTEX
  8
RK-LAVAT
 10
0.0
 20
0.0
 30
0.0
 70
   128
 71
   257
 72
   305
 73
  -306
  0
VERTEX
  8
RK-LAVAT
 10
0.0
 20
0.0
 30
0.0
 70
   128
 71
   259
 72
  -258
 73
   307
  0
VERTEX
  8
RK-LAVAT
 10
0.0
 20
0.0
 30
0.0
 70
   128
 71
   258
 72
   306
 73
  -307
  0
VERTEX
  8
RK-LAVAT
 10
0.0
 20
0.0
 30
0.0
 70
   128
 71
   260
 72
  -259
 73
   308
  0
VERTEX
  8
RK-LAVAT
 10
0.0
 20
0.0
 30
0.0
 70
   128
 71
   259
 72
   307
 73
  -308
  0
VERTEX
  8
RK-LAVAT
 10
0.0
 20
0.0
 30
0.0
 70
   128
 71
   261
 72
  -260
 73
   309
  0
VERTEX
  8
RK-LAVAT
 10
0.0
 20
0.0
 30
0.0
 70
   128
 71
   260
 72
   308
 73
  -309
  0
VERTEX
  8
RK-LAVAT
 10
0.0
 20
0.0
 30
0.0
 70
   128
 71
   262
 72
  -261
 73
   310
  0
VERTEX
  8
RK-LAVAT
 10
0.0
 20
0.0
 30
0.0
 70
   128
 71
   261
 72
   309
 73
  -310
  0
VERTEX
  8
RK-LAVAT
 10
0.0
 20
0.0
 30
0.0
 70
   128
 71
   263
 72
  -262
 73
   311
  0
VERTEX
  8
RK-LAVAT
 10
0.0
 20
0.0
 30
0.0
 70
   128
 71
   262
 72
   310
 73
  -311
  0
VERTEX
  8
RK-LAVAT
 10
0.0
 20
0.0
 30
0.0
 70
   128
 71
   264
 72
  -263
 73
   312
  0
VERTEX
  8
RK-LAVAT
 10
0.0
 20
0.0
 30
0.0
 70
   128
 71
   263
 72
   311
 73
  -312
  0
VERTEX
  8
RK-LAVAT
 10
0.0
 20
0.0
 30
0.0
 70
   128
 71
   265
 72
  -264
 73
   313
  0
VERTEX
  8
RK-LAVAT
 10
0.0
 20
0.0
 30
0.0
 70
   128
 71
   264
 72
   312
 73
  -313
  0
VERTEX
  8
RK-LAVAT
 10
0.0
 20
0.0
 30
0.0
 70
   128
 71
   266
 72
  -265
 73
   314
  0
VERTEX
  8
RK-LAVAT
 10
0.0
 20
0.0
 30
0.0
 70
   128
 71
   265
 72
   313
 73
  -314
  0
VERTEX
  8
RK-LAVAT
 10
0.0
 20
0.0
 30
0.0
 70
   128
 71
   267
 72
  -266
 73
   315
  0
VERTEX
  8
RK-LAVAT
 10
0.0
 20
0.0
 30
0.0
 70
   128
 71
   266
 72
   314
 73
  -315
  0
VERTEX
  8
RK-LAVAT
 10
0.0
 20
0.0
 30
0.0
 70
   128
 71
   268
 72
  -267
 73
   316
  0
VERTEX
  8
RK-LAVAT
 10
0.0
 20
0.0
 30
0.0
 70
   128
 71
   267
 72
   315
 73
  -316
  0
VERTEX
  8
RK-LAVAT
 10
0.0
 20
0.0
 30
0.0
 70
   128
 71
   269
 72
  -268
 73
   317
  0
VERTEX
  8
RK-LAVAT
 10
0.0
 20
0.0
 30
0.0
 70
   128
 71
   268
 72
   316
 73
  -317
  0
VERTEX
  8
RK-LAVAT
 10
0.0
 20
0.0
 30
0.0
 70
   128
 71
   270
 72
  -269
 73
   318
  0
VERTEX
  8
RK-LAVAT
 10
0.0
 20
0.0
 30
0.0
 70
   128
 71
   269
 72
   317
 73
  -318
  0
VERTEX
  8
RK-LAVAT
 10
0.0
 20
0.0
 30
0.0
 70
   128
 71
   271
 72
  -270
 73
   319
  0
VERTEX
  8
RK-LAVAT
 10
0.0
 20
0.0
 30
0.0
 70
   128
 71
   270
 72
   318
 73
  -319
  0
VERTEX
  8
RK-LAVAT
 10
0.0
 20
0.0
 30
0.0
 70
   128
 71
   272
 72
  -271
 73
   320
  0
VERTEX
  8
RK-LAVAT
 10
0.0
 20
0.0
 30
0.0
 70
   128
 71
   271
 72
   319
 73
  -320
  0
VERTEX
  8
RK-LAVAT
 10
0.0
 20
0.0
 30
0.0
 70
   128
 71
   273
 72
  -272
 73
   321
  0
VERTEX
  8
RK-LAVAT
 10
0.0
 20
0.0
 30
0.0
 70
   128
 71
   272
 72
   320
 73
  -321
  0
VERTEX
  8
RK-LAVAT
 10
0.0
 20
0.0
 30
0.0
 70
   128
 71
   274
 72
  -273
 73
   322
  0
VERTEX
  8
RK-LAVAT
 10
0.0
 20
0.0
 30
0.0
 70
   128
 71
   273
 72
   321
 73
  -322
  0
VERTEX
  8
RK-LAVAT
 10
0.0
 20
0.0
 30
0.0
 70
   128
 71
   275
 72
  -274
 73
   323
  0
VERTEX
  8
RK-LAVAT
 10
0.0
 20
0.0
 30
0.0
 70
   128
 71
   274
 72
   322
 73
  -323
  0
VERTEX
  8
RK-LAVAT
 10
0.0
 20
0.0
 30
0.0
 70
   128
 71
   276
 72
  -275
 73
   324
  0
VERTEX
  8
RK-LAVAT
 10
0.0
 20
0.0
 30
0.0
 70
   128
 71
   275
 72
   323
 73
  -324
  0
VERTEX
  8
RK-LAVAT
 10
0.0
 20
0.0
 30
0.0
 70
   128
 71
   277
 72
  -276
 73
   325
  0
VERTEX
  8
RK-LAVAT
 10
0.0
 20
0.0
 30
0.0
 70
   128
 71
   276
 72
   324
 73
  -325
  0
VERTEX
  8
RK-LAVAT
 10
0.0
 20
0.0
 30
0.0
 70
   128
 71
   278
 72
  -277
 73
   326
  0
VERTEX
  8
RK-LAVAT
 10
0.0
 20
0.0
 30
0.0
 70
   128
 71
   277
 72
   325
 73
  -326
  0
VERTEX
  8
RK-LAVAT
 10
0.0
 20
0.0
 30
0.0
 70
   128
 71
   279
 72
  -278
 73
   327
  0
VERTEX
  8
RK-LAVAT
 10
0.0
 20
0.0
 30
0.0
 70
   128
 71
   278
 72
   326
 73
  -327
  0
VERTEX
  8
RK-LAVAT
 10
0.0
 20
0.0
 30
0.0
 70
   128
 71
   280
 72
  -279
 73
   328
  0
VERTEX
  8
RK-LAVAT
 10
0.0
 20
0.0
 30
0.0
 70
   128
 71
   279
 72
   327
 73
  -328
  0
VERTEX
  8
RK-LAVAT
 10
0.0
 20
0.0
 30
0.0
 70
   128
 71
   281
 72
  -280
 73
   329
  0
VERTEX
  8
RK-LAVAT
 10
0.0
 20
0.0
 30
0.0
 70
   128
 71
   280
 72
   328
 73
  -329
  0
VERTEX
  8
RK-LAVAT
 10
0.0
 20
0.0
 30
0.0
 70
   128
 71
   282
 72
  -281
 73
   330
  0
VERTEX
  8
RK-LAVAT
 10
0.0
 20
0.0
 30
0.0
 70
   128
 71
   281
 72
   329
 73
  -330
  0
VERTEX
  8
RK-LAVAT
 10
0.0
 20
0.0
 30
0.0
 70
   128
 71
   283
 72
  -282
 73
   331
  0
VERTEX
  8
RK-LAVAT
 10
0.0
 20
0.0
 30
0.0
 70
   128
 71
   282
 72
   330
 73
  -331
  0
VERTEX
  8
RK-LAVAT
 10
0.0
 20
0.0
 30
0.0
 70
   128
 71
   284
 72
  -283
 73
   332
  0
VERTEX
  8
RK-LAVAT
 10
0.0
 20
0.0
 30
0.0
 70
   128
 71
   283
 72
   331
 73
  -332
  0
VERTEX
  8
RK-LAVAT
 10
0.0
 20
0.0
 30
0.0
 70
   128
 71
   285
 72
  -284
 73
   333
  0
VERTEX
  8
RK-LAVAT
 10
0.0
 20
0.0
 30
0.0
 70
   128
 71
   284
 72
   332
 73
  -333
  0
VERTEX
  8
RK-LAVAT
 10
0.0
 20
0.0
 30
0.0
 70
   128
 71
   286
 72
  -285
 73
   334
  0
VERTEX
  8
RK-LAVAT
 10
0.0
 20
0.0
 30
0.0
 70
   128
 71
   285
 72
   333
 73
  -334
  0
VERTEX
  8
RK-LAVAT
 10
0.0
 20
0.0
 30
0.0
 70
   128
 71
   287
 72
  -286
 73
   335
  0
VERTEX
  8
RK-LAVAT
 10
0.0
 20
0.0
 30
0.0
 70
   128
 71
   286
 72
   334
 73
  -335
  0
VERTEX
  8
RK-LAVAT
 10
0.0
 20
0.0
 30
0.0
 70
   128
 71
   288
 72
  -287
 73
   336
  0
VERTEX
  8
RK-LAVAT
 10
0.0
 20
0.0
 30
0.0
 70
   128
 71
   287
 72
   335
 73
  -336
  0
VERTEX
  8
RK-LAVAT
 10
0.0
 20
0.0
 30
0.0
 70
   128
 71
   242
 72
  -288
 73
   290
  0
VERTEX
  8
RK-LAVAT
 10
0.0
 20
0.0
 30
0.0
 70
   128
 71
   288
 72
   336
 73
  -290
  0
VERTEX
  8
RK-LAVAT
 10
0.0
 20
0.0
 30
0.0
 70
   128
 71
   289
 72
  -290
 73
   337
  0
VERTEX
  8
RK-LAVAT
 10
0.0
 20
0.0
 30
0.0
 70
   128
 71
   290
 72
   338
 73
  -337
  0
VERTEX
  8
RK-LAVAT
 10
0.0
 20
0.0
 30
0.0
 70
   128
 71
   291
 72
  -289
 73
   339
  0
VERTEX
  8
RK-LAVAT
 10
0.0
 20
0.0
 30
0.0
 70
   128
 71
   289
 72
   337
 73
  -339
  0
VERTEX
  8
RK-LAVAT
 10
0.0
 20
0.0
 30
0.0
 70
   128
 71
   292
 72
  -291
 73
   340
  0
VERTEX
  8
RK-LAVAT
 10
0.0
 20
0.0
 30
0.0
 70
   128
 71
   291
 72
   339
 73
  -340
  0
VERTEX
  8
RK-LAVAT
 10
0.0
 20
0.0
 30
0.0
 70
   128
 71
   293
 72
  -292
 73
   341
  0
VERTEX
  8
RK-LAVAT
 10
0.0
 20
0.0
 30
0.0
 70
   128
 71
   292
 72
   340
 73
  -341
  0
VERTEX
  8
RK-LAVAT
 10
0.0
 20
0.0
 30
0.0
 70
   128
 71
   294
 72
  -293
 73
   342
  0
VERTEX
  8
RK-LAVAT
 10
0.0
 20
0.0
 30
0.0
 70
   128
 71
   293
 72
   341
 73
  -342
  0
VERTEX
  8
RK-LAVAT
 10
0.0
 20
0.0
 30
0.0
 70
   128
 71
   295
 72
  -294
 73
   343
  0
VERTEX
  8
RK-LAVAT
 10
0.0
 20
0.0
 30
0.0
 70
   128
 71
   294
 72
   342
 73
  -343
  0
VERTEX
  8
RK-LAVAT
 10
0.0
 20
0.0
 30
0.0
 70
   128
 71
   296
 72
  -295
 73
   344
  0
VERTEX
  8
RK-LAVAT
 10
0.0
 20
0.0
 30
0.0
 70
   128
 71
   295
 72
   343
 73
  -344
  0
VERTEX
  8
RK-LAVAT
 10
0.0
 20
0.0
 30
0.0
 70
   128
 71
   297
 72
  -296
 73
   345
  0
VERTEX
  8
RK-LAVAT
 10
0.0
 20
0.0
 30
0.0
 70
   128
 71
   296
 72
   344
 73
  -345
  0
VERTEX
  8
RK-LAVAT
 10
0.0
 20
0.0
 30
0.0
 70
   128
 71
   298
 72
  -297
 73
   346
  0
VERTEX
  8
RK-LAVAT
 10
0.0
 20
0.0
 30
0.0
 70
   128
 71
   297
 72
   345
 73
  -346
  0
VERTEX
  8
RK-LAVAT
 10
0.0
 20
0.0
 30
0.0
 70
   128
 71
   299
 72
  -298
 73
   347
  0
VERTEX
  8
RK-LAVAT
 10
0.0
 20
0.0
 30
0.0
 70
   128
 71
   298
 72
   346
 73
  -347
  0
VERTEX
  8
RK-LAVAT
 10
0.0
 20
0.0
 30
0.0
 70
   128
 71
   300
 72
  -299
 73
   348
  0
VERTEX
  8
RK-LAVAT
 10
0.0
 20
0.0
 30
0.0
 70
   128
 71
   299
 72
   347
 73
  -348
  0
VERTEX
  8
RK-LAVAT
 10
0.0
 20
0.0
 30
0.0
 70
   128
 71
   301
 72
  -300
 73
   349
  0
VERTEX
  8
RK-LAVAT
 10
0.0
 20
0.0
 30
0.0
 70
   128
 71
   300
 72
   348
 73
  -349
  0
VERTEX
  8
RK-LAVAT
 10
0.0
 20
0.0
 30
0.0
 70
   128
 71
   302
 72
  -301
 73
   350
  0
VERTEX
  8
RK-LAVAT
 10
0.0
 20
0.0
 30
0.0
 70
   128
 71
   301
 72
   349
 73
  -350
  0
VERTEX
  8
RK-LAVAT
 10
0.0
 20
0.0
 30
0.0
 70
   128
 71
   303
 72
  -302
 73
   351
  0
VERTEX
  8
RK-LAVAT
 10
0.0
 20
0.0
 30
0.0
 70
   128
 71
   302
 72
   350
 73
  -351
  0
VERTEX
  8
RK-LAVAT
 10
0.0
 20
0.0
 30
0.0
 70
   128
 71
   304
 72
  -303
 73
   352
  0
VERTEX
  8
RK-LAVAT
 10
0.0
 20
0.0
 30
0.0
 70
   128
 71
   303
 72
   351
 73
  -352
  0
VERTEX
  8
RK-LAVAT
 10
0.0
 20
0.0
 30
0.0
 70
   128
 71
   305
 72
  -304
 73
   353
  0
VERTEX
  8
RK-LAVAT
 10
0.0
 20
0.0
 30
0.0
 70
   128
 71
   304
 72
   352
 73
  -353
  0
VERTEX
  8
RK-LAVAT
 10
0.0
 20
0.0
 30
0.0
 70
   128
 71
   306
 72
  -305
 73
   354
  0
VERTEX
  8
RK-LAVAT
 10
0.0
 20
0.0
 30
0.0
 70
   128
 71
   305
 72
   353
 73
  -354
  0
VERTEX
  8
RK-LAVAT
 10
0.0
 20
0.0
 30
0.0
 70
   128
 71
   307
 72
  -306
 73
   355
  0
VERTEX
  8
RK-LAVAT
 10
0.0
 20
0.0
 30
0.0
 70
   128
 71
   306
 72
   354
 73
  -355
  0
VERTEX
  8
RK-LAVAT
 10
0.0
 20
0.0
 30
0.0
 70
   128
 71
   308
 72
  -307
 73
   356
  0
VERTEX
  8
RK-LAVAT
 10
0.0
 20
0.0
 30
0.0
 70
   128
 71
   307
 72
   355
 73
  -356
  0
VERTEX
  8
RK-LAVAT
 10
0.0
 20
0.0
 30
0.0
 70
   128
 71
   309
 72
  -308
 73
   357
  0
VERTEX
  8
RK-LAVAT
 10
0.0
 20
0.0
 30
0.0
 70
   128
 71
   308
 72
   356
 73
  -357
  0
VERTEX
  8
RK-LAVAT
 10
0.0
 20
0.0
 30
0.0
 70
   128
 71
   310
 72
  -309
 73
   358
  0
VERTEX
  8
RK-LAVAT
 10
0.0
 20
0.0
 30
0.0
 70
   128
 71
   309
 72
   357
 73
  -358
  0
VERTEX
  8
RK-LAVAT
 10
0.0
 20
0.0
 30
0.0
 70
   128
 71
   311
 72
  -310
 73
   359
  0
VERTEX
  8
RK-LAVAT
 10
0.0
 20
0.0
 30
0.0
 70
   128
 71
   310
 72
   358
 73
  -359
  0
VERTEX
  8
RK-LAVAT
 10
0.0
 20
0.0
 30
0.0
 70
   128
 71
   312
 72
  -311
 73
   360
  0
VERTEX
  8
RK-LAVAT
 10
0.0
 20
0.0
 30
0.0
 70
   128
 71
   311
 72
   359
 73
  -360
  0
VERTEX
  8
RK-LAVAT
 10
0.0
 20
0.0
 30
0.0
 70
   128
 71
   313
 72
  -312
 73
   361
  0
VERTEX
  8
RK-LAVAT
 10
0.0
 20
0.0
 30
0.0
 70
   128
 71
   312
 72
   360
 73
  -361
  0
VERTEX
  8
RK-LAVAT
 10
0.0
 20
0.0
 30
0.0
 70
   128
 71
   314
 72
  -313
 73
   362
  0
VERTEX
  8
RK-LAVAT
 10
0.0
 20
0.0
 30
0.0
 70
   128
 71
   313
 72
   361
 73
  -362
  0
VERTEX
  8
RK-LAVAT
 10
0.0
 20
0.0
 30
0.0
 70
   128
 71
   315
 72
  -314
 73
   363
  0
VERTEX
  8
RK-LAVAT
 10
0.0
 20
0.0
 30
0.0
 70
   128
 71
   314
 72
   362
 73
  -363
  0
VERTEX
  8
RK-LAVAT
 10
0.0
 20
0.0
 30
0.0
 70
   128
 71
   316
 72
  -315
 73
   364
  0
VERTEX
  8
RK-LAVAT
 10
0.0
 20
0.0
 30
0.0
 70
   128
 71
   315
 72
   363
 73
  -364
  0
VERTEX
  8
RK-LAVAT
 10
0.0
 20
0.0
 30
0.0
 70
   128
 71
   317
 72
  -316
 73
   365
  0
VERTEX
  8
RK-LAVAT
 10
0.0
 20
0.0
 30
0.0
 70
   128
 71
   316
 72
   364
 73
  -365
  0
VERTEX
  8
RK-LAVAT
 10
0.0
 20
0.0
 30
0.0
 70
   128
 71
   318
 72
  -317
 73
   366
  0
VERTEX
  8
RK-LAVAT
 10
0.0
 20
0.0
 30
0.0
 70
   128
 71
   317
 72
   365
 73
  -366
  0
VERTEX
  8
RK-LAVAT
 10
0.0
 20
0.0
 30
0.0
 70
   128
 71
   319
 72
  -318
 73
   367
  0
VERTEX
  8
RK-LAVAT
 10
0.0
 20
0.0
 30
0.0
 70
   128
 71
   318
 72
   366
 73
  -367
  0
VERTEX
  8
RK-LAVAT
 10
0.0
 20
0.0
 30
0.0
 70
   128
 71
   320
 72
  -319
 73
   368
  0
VERTEX
  8
RK-LAVAT
 10
0.0
 20
0.0
 30
0.0
 70
   128
 71
   319
 72
   367
 73
  -368
  0
VERTEX
  8
RK-LAVAT
 10
0.0
 20
0.0
 30
0.0
 70
   128
 71
   321
 72
  -320
 73
   369
  0
VERTEX
  8
RK-LAVAT
 10
0.0
 20
0.0
 30
0.0
 70
   128
 71
   320
 72
   368
 73
  -369
  0
VERTEX
  8
RK-LAVAT
 10
0.0
 20
0.0
 30
0.0
 70
   128
 71
   322
 72
  -321
 73
   370
  0
VERTEX
  8
RK-LAVAT
 10
0.0
 20
0.0
 30
0.0
 70
   128
 71
   321
 72
   369
 73
  -370
  0
VERTEX
  8
RK-LAVAT
 10
0.0
 20
0.0
 30
0.0
 70
   128
 71
   323
 72
  -322
 73
   371
  0
VERTEX
  8
RK-LAVAT
 10
0.0
 20
0.0
 30
0.0
 70
   128
 71
   322
 72
   370
 73
  -371
  0
VERTEX
  8
RK-LAVAT
 10
0.0
 20
0.0
 30
0.0
 70
   128
 71
   324
 72
  -323
 73
   372
  0
VERTEX
  8
RK-LAVAT
 10
0.0
 20
0.0
 30
0.0
 70
   128
 71
   323
 72
   371
 73
  -372
  0
VERTEX
  8
RK-LAVAT
 10
0.0
 20
0.0
 30
0.0
 70
   128
 71
   325
 72
  -324
 73
   373
  0
VERTEX
  8
RK-LAVAT
 10
0.0
 20
0.0
 30
0.0
 70
   128
 71
   324
 72
   372
 73
  -373
  0
VERTEX
  8
RK-LAVAT
 10
0.0
 20
0.0
 30
0.0
 70
   128
 71
   326
 72
  -325
 73
   374
  0
VERTEX
  8
RK-LAVAT
 10
0.0
 20
0.0
 30
0.0
 70
   128
 71
   325
 72
   373
 73
  -374
  0
VERTEX
  8
RK-LAVAT
 10
0.0
 20
0.0
 30
0.0
 70
   128
 71
   327
 72
  -326
 73
   375
  0
VERTEX
  8
RK-LAVAT
 10
0.0
 20
0.0
 30
0.0
 70
   128
 71
   326
 72
   374
 73
  -375
  0
VERTEX
  8
RK-LAVAT
 10
0.0
 20
0.0
 30
0.0
 70
   128
 71
   328
 72
  -327
 73
   376
  0
VERTEX
  8
RK-LAVAT
 10
0.0
 20
0.0
 30
0.0
 70
   128
 71
   327
 72
   375
 73
  -376
  0
VERTEX
  8
RK-LAVAT
 10
0.0
 20
0.0
 30
0.0
 70
   128
 71
   329
 72
  -328
 73
   377
  0
VERTEX
  8
RK-LAVAT
 10
0.0
 20
0.0
 30
0.0
 70
   128
 71
   328
 72
   376
 73
  -377
  0
VERTEX
  8
RK-LAVAT
 10
0.0
 20
0.0
 30
0.0
 70
   128
 71
   330
 72
  -329
 73
   378
  0
VERTEX
  8
RK-LAVAT
 10
0.0
 20
0.0
 30
0.0
 70
   128
 71
   329
 72
   377
 73
  -378
  0
VERTEX
  8
RK-LAVAT
 10
0.0
 20
0.0
 30
0.0
 70
   128
 71
   331
 72
  -330
 73
   379
  0
VERTEX
  8
RK-LAVAT
 10
0.0
 20
0.0
 30
0.0
 70
   128
 71
   330
 72
   378
 73
  -379
  0
VERTEX
  8
RK-LAVAT
 10
0.0
 20
0.0
 30
0.0
 70
   128
 71
   332
 72
  -331
 73
   380
  0
VERTEX
  8
RK-LAVAT
 10
0.0
 20
0.0
 30
0.0
 70
   128
 71
   331
 72
   379
 73
  -380
  0
VERTEX
  8
RK-LAVAT
 10
0.0
 20
0.0
 30
0.0
 70
   128
 71
   333
 72
  -332
 73
   381
  0
VERTEX
  8
RK-LAVAT
 10
0.0
 20
0.0
 30
0.0
 70
   128
 71
   332
 72
   380
 73
  -381
  0
VERTEX
  8
RK-LAVAT
 10
0.0
 20
0.0
 30
0.0
 70
   128
 71
   334
 72
  -333
 73
   382
  0
VERTEX
  8
RK-LAVAT
 10
0.0
 20
0.0
 30
0.0
 70
   128
 71
   333
 72
   381
 73
  -382
  0
VERTEX
  8
RK-LAVAT
 10
0.0
 20
0.0
 30
0.0
 70
   128
 71
   335
 72
  -334
 73
   383
  0
VERTEX
  8
RK-LAVAT
 10
0.0
 20
0.0
 30
0.0
 70
   128
 71
   334
 72
   382
 73
  -383
  0
VERTEX
  8
RK-LAVAT
 10
0.0
 20
0.0
 30
0.0
 70
   128
 71
   336
 72
  -335
 73
   384
  0
VERTEX
  8
RK-LAVAT
 10
0.0
 20
0.0
 30
0.0
 70
   128
 71
   335
 72
   383
 73
  -384
  0
VERTEX
  8
RK-LAVAT
 10
0.0
 20
0.0
 30
0.0
 70
   128
 71
   290
 72
  -336
 73
   338
  0
VERTEX
  8
RK-LAVAT
 10
0.0
 20
0.0
 30
0.0
 70
   128
 71
   336
 72
   384
 73
  -338
  0
VERTEX
  8
RK-LAVAT
 10
0.0
 20
0.0
 30
0.0
 70
   128
 71
   337
 72
  -338
 73
   385
  0
VERTEX
  8
RK-LAVAT
 10
0.0
 20
0.0
 30
0.0
 70
   128
 71
   338
 72
   386
 73
  -385
  0
VERTEX
  8
RK-LAVAT
 10
0.0
 20
0.0
 30
0.0
 70
   128
 71
   339
 72
  -337
 73
   387
  0
VERTEX
  8
RK-LAVAT
 10
0.0
 20
0.0
 30
0.0
 70
   128
 71
   337
 72
   385
 73
  -387
  0
VERTEX
  8
RK-LAVAT
 10
0.0
 20
0.0
 30
0.0
 70
   128
 71
   340
 72
  -339
 73
   388
  0
VERTEX
  8
RK-LAVAT
 10
0.0
 20
0.0
 30
0.0
 70
   128
 71
   339
 72
   387
 73
  -388
  0
VERTEX
  8
RK-LAVAT
 10
0.0
 20
0.0
 30
0.0
 70
   128
 71
   341
 72
  -340
 73
   389
  0
VERTEX
  8
RK-LAVAT
 10
0.0
 20
0.0
 30
0.0
 70
   128
 71
   340
 72
   388
 73
  -389
  0
VERTEX
  8
RK-LAVAT
 10
0.0
 20
0.0
 30
0.0
 70
   128
 71
   342
 72
  -341
 73
   390
  0
VERTEX
  8
RK-LAVAT
 10
0.0
 20
0.0
 30
0.0
 70
   128
 71
   341
 72
   389
 73
  -390
  0
VERTEX
  8
RK-LAVAT
 10
0.0
 20
0.0
 30
0.0
 70
   128
 71
   343
 72
  -342
 73
   391
  0
VERTEX
  8
RK-LAVAT
 10
0.0
 20
0.0
 30
0.0
 70
   128
 71
   342
 72
   390
 73
  -391
  0
VERTEX
  8
RK-LAVAT
 10
0.0
 20
0.0
 30
0.0
 70
   128
 71
   344
 72
  -343
 73
   392
  0
VERTEX
  8
RK-LAVAT
 10
0.0
 20
0.0
 30
0.0
 70
   128
 71
   343
 72
   391
 73
  -392
  0
VERTEX
  8
RK-LAVAT
 10
0.0
 20
0.0
 30
0.0
 70
   128
 71
   345
 72
  -344
 73
   393
  0
VERTEX
  8
RK-LAVAT
 10
0.0
 20
0.0
 30
0.0
 70
   128
 71
   344
 72
   392
 73
  -393
  0
VERTEX
  8
RK-LAVAT
 10
0.0
 20
0.0
 30
0.0
 70
   128
 71
   346
 72
  -345
 73
   394
  0
VERTEX
  8
RK-LAVAT
 10
0.0
 20
0.0
 30
0.0
 70
   128
 71
   345
 72
   393
 73
  -394
  0
VERTEX
  8
RK-LAVAT
 10
0.0
 20
0.0
 30
0.0
 70
   128
 71
   347
 72
  -346
 73
   395
  0
VERTEX
  8
RK-LAVAT
 10
0.0
 20
0.0
 30
0.0
 70
   128
 71
   346
 72
   394
 73
  -395
  0
VERTEX
  8
RK-LAVAT
 10
0.0
 20
0.0
 30
0.0
 70
   128
 71
   348
 72
  -347
 73
   396
  0
VERTEX
  8
RK-LAVAT
 10
0.0
 20
0.0
 30
0.0
 70
   128
 71
   347
 72
   395
 73
  -396
  0
VERTEX
  8
RK-LAVAT
 10
0.0
 20
0.0
 30
0.0
 70
   128
 71
   349
 72
  -348
 73
   397
  0
VERTEX
  8
RK-LAVAT
 10
0.0
 20
0.0
 30
0.0
 70
   128
 71
   348
 72
   396
 73
  -397
  0
VERTEX
  8
RK-LAVAT
 10
0.0
 20
0.0
 30
0.0
 70
   128
 71
   350
 72
  -349
 73
   398
  0
VERTEX
  8
RK-LAVAT
 10
0.0
 20
0.0
 30
0.0
 70
   128
 71
   349
 72
   397
 73
  -398
  0
VERTEX
  8
RK-LAVAT
 10
0.0
 20
0.0
 30
0.0
 70
   128
 71
   351
 72
  -350
 73
   399
  0
VERTEX
  8
RK-LAVAT
 10
0.0
 20
0.0
 30
0.0
 70
   128
 71
   350
 72
   398
 73
  -399
  0
VERTEX
  8
RK-LAVAT
 10
0.0
 20
0.0
 30
0.0
 70
   128
 71
   352
 72
  -351
 73
   400
  0
VERTEX
  8
RK-LAVAT
 10
0.0
 20
0.0
 30
0.0
 70
   128
 71
   351
 72
   399
 73
  -400
  0
VERTEX
  8
RK-LAVAT
 10
0.0
 20
0.0
 30
0.0
 70
   128
 71
   353
 72
  -352
 73
   401
  0
VERTEX
  8
RK-LAVAT
 10
0.0
 20
0.0
 30
0.0
 70
   128
 71
   352
 72
   400
 73
  -401
  0
VERTEX
  8
RK-LAVAT
 10
0.0
 20
0.0
 30
0.0
 70
   128
 71
   354
 72
  -353
 73
   402
  0
VERTEX
  8
RK-LAVAT
 10
0.0
 20
0.0
 30
0.0
 70
   128
 71
   353
 72
   401
 73
  -402
  0
VERTEX
  8
RK-LAVAT
 10
0.0
 20
0.0
 30
0.0
 70
   128
 71
   355
 72
  -354
 73
   403
  0
VERTEX
  8
RK-LAVAT
 10
0.0
 20
0.0
 30
0.0
 70
   128
 71
   354
 72
   402
 73
  -403
  0
VERTEX
  8
RK-LAVAT
 10
0.0
 20
0.0
 30
0.0
 70
   128
 71
   356
 72
  -355
 73
   404
  0
VERTEX
  8
RK-LAVAT
 10
0.0
 20
0.0
 30
0.0
 70
   128
 71
   355
 72
   403
 73
  -404
  0
VERTEX
  8
RK-LAVAT
 10
0.0
 20
0.0
 30
0.0
 70
   128
 71
   357
 72
  -356
 73
   405
  0
VERTEX
  8
RK-LAVAT
 10
0.0
 20
0.0
 30
0.0
 70
   128
 71
   356
 72
   404
 73
  -405
  0
VERTEX
  8
RK-LAVAT
 10
0.0
 20
0.0
 30
0.0
 70
   128
 71
   358
 72
  -357
 73
   406
  0
VERTEX
  8
RK-LAVAT
 10
0.0
 20
0.0
 30
0.0
 70
   128
 71
   357
 72
   405
 73
  -406
  0
VERTEX
  8
RK-LAVAT
 10
0.0
 20
0.0
 30
0.0
 70
   128
 71
   359
 72
  -358
 73
   407
  0
VERTEX
  8
RK-LAVAT
 10
0.0
 20
0.0
 30
0.0
 70
   128
 71
   358
 72
   406
 73
  -407
  0
VERTEX
  8
RK-LAVAT
 10
0.0
 20
0.0
 30
0.0
 70
   128
 71
   360
 72
  -359
 73
   408
  0
VERTEX
  8
RK-LAVAT
 10
0.0
 20
0.0
 30
0.0
 70
   128
 71
   359
 72
   407
 73
  -408
  0
VERTEX
  8
RK-LAVAT
 10
0.0
 20
0.0
 30
0.0
 70
   128
 71
   361
 72
  -360
 73
   409
  0
VERTEX
  8
RK-LAVAT
 10
0.0
 20
0.0
 30
0.0
 70
   128
 71
   360
 72
   408
 73
  -409
  0
VERTEX
  8
RK-LAVAT
 10
0.0
 20
0.0
 30
0.0
 70
   128
 71
   362
 72
  -361
 73
   410
  0
VERTEX
  8
RK-LAVAT
 10
0.0
 20
0.0
 30
0.0
 70
   128
 71
   361
 72
   409
 73
  -410
  0
VERTEX
  8
RK-LAVAT
 10
0.0
 20
0.0
 30
0.0
 70
   128
 71
   363
 72
  -362
 73
   411
  0
VERTEX
  8
RK-LAVAT
 10
0.0
 20
0.0
 30
0.0
 70
   128
 71
   362
 72
   410
 73
  -411
  0
VERTEX
  8
RK-LAVAT
 10
0.0
 20
0.0
 30
0.0
 70
   128
 71
   364
 72
  -363
 73
   412
  0
VERTEX
  8
RK-LAVAT
 10
0.0
 20
0.0
 30
0.0
 70
   128
 71
   363
 72
   411
 73
  -412
  0
VERTEX
  8
RK-LAVAT
 10
0.0
 20
0.0
 30
0.0
 70
   128
 71
   365
 72
  -364
 73
   413
  0
VERTEX
  8
RK-LAVAT
 10
0.0
 20
0.0
 30
0.0
 70
   128
 71
   364
 72
   412
 73
  -413
  0
VERTEX
  8
RK-LAVAT
 10
0.0
 20
0.0
 30
0.0
 70
   128
 71
   366
 72
  -365
 73
   414
  0
VERTEX
  8
RK-LAVAT
 10
0.0
 20
0.0
 30
0.0
 70
   128
 71
   365
 72
   413
 73
  -414
  0
VERTEX
  8
RK-LAVAT
 10
0.0
 20
0.0
 30
0.0
 70
   128
 71
   367
 72
  -366
 73
   415
  0
VERTEX
  8
RK-LAVAT
 10
0.0
 20
0.0
 30
0.0
 70
   128
 71
   366
 72
   414
 73
  -415
  0
VERTEX
  8
RK-LAVAT
 10
0.0
 20
0.0
 30
0.0
 70
   128
 71
   368
 72
  -367
 73
   416
  0
VERTEX
  8
RK-LAVAT
 10
0.0
 20
0.0
 30
0.0
 70
   128
 71
   367
 72
   415
 73
  -416
  0
VERTEX
  8
RK-LAVAT
 10
0.0
 20
0.0
 30
0.0
 70
   128
 71
   369
 72
  -368
 73
   417
  0
VERTEX
  8
RK-LAVAT
 10
0.0
 20
0.0
 30
0.0
 70
   128
 71
   368
 72
   416
 73
  -417
  0
VERTEX
  8
RK-LAVAT
 10
0.0
 20
0.0
 30
0.0
 70
   128
 71
   370
 72
  -369
 73
   418
  0
VERTEX
  8
RK-LAVAT
 10
0.0
 20
0.0
 30
0.0
 70
   128
 71
   369
 72
   417
 73
  -418
  0
VERTEX
  8
RK-LAVAT
 10
0.0
 20
0.0
 30
0.0
 70
   128
 71
   371
 72
  -370
 73
   419
  0
VERTEX
  8
RK-LAVAT
 10
0.0
 20
0.0
 30
0.0
 70
   128
 71
   370
 72
   418
 73
  -419
  0
VERTEX
  8
RK-LAVAT
 10
0.0
 20
0.0
 30
0.0
 70
   128
 71
   372
 72
  -371
 73
   420
  0
VERTEX
  8
RK-LAVAT
 10
0.0
 20
0.0
 30
0.0
 70
   128
 71
   371
 72
   419
 73
  -420
  0
VERTEX
  8
RK-LAVAT
 10
0.0
 20
0.0
 30
0.0
 70
   128
 71
   373
 72
  -372
 73
   421
  0
VERTEX
  8
RK-LAVAT
 10
0.0
 20
0.0
 30
0.0
 70
   128
 71
   372
 72
   420
 73
  -421
  0
VERTEX
  8
RK-LAVAT
 10
0.0
 20
0.0
 30
0.0
 70
   128
 71
   374
 72
  -373
 73
   422
  0
VERTEX
  8
RK-LAVAT
 10
0.0
 20
0.0
 30
0.0
 70
   128
 71
   373
 72
   421
 73
  -422
  0
VERTEX
  8
RK-LAVAT
 10
0.0
 20
0.0
 30
0.0
 70
   128
 71
   375
 72
  -374
 73
   423
  0
VERTEX
  8
RK-LAVAT
 10
0.0
 20
0.0
 30
0.0
 70
   128
 71
   374
 72
   422
 73
  -423
  0
VERTEX
  8
RK-LAVAT
 10
0.0
 20
0.0
 30
0.0
 70
   128
 71
   376
 72
  -375
 73
   424
  0
VERTEX
  8
RK-LAVAT
 10
0.0
 20
0.0
 30
0.0
 70
   128
 71
   375
 72
   423
 73
  -424
  0
VERTEX
  8
RK-LAVAT
 10
0.0
 20
0.0
 30
0.0
 70
   128
 71
   377
 72
  -376
 73
   425
  0
VERTEX
  8
RK-LAVAT
 10
0.0
 20
0.0
 30
0.0
 70
   128
 71
   376
 72
   424
 73
  -425
  0
VERTEX
  8
RK-LAVAT
 10
0.0
 20
0.0
 30
0.0
 70
   128
 71
   378
 72
  -377
 73
   426
  0
VERTEX
  8
RK-LAVAT
 10
0.0
 20
0.0
 30
0.0
 70
   128
 71
   377
 72
   425
 73
  -426
  0
VERTEX
  8
RK-LAVAT
 10
0.0
 20
0.0
 30
0.0
 70
   128
 71
   379
 72
  -378
 73
   427
  0
VERTEX
  8
RK-LAVAT
 10
0.0
 20
0.0
 30
0.0
 70
   128
 71
   378
 72
   426
 73
  -427
  0
VERTEX
  8
RK-LAVAT
 10
0.0
 20
0.0
 30
0.0
 70
   128
 71
   380
 72
  -379
 73
   428
  0
VERTEX
  8
RK-LAVAT
 10
0.0
 20
0.0
 30
0.0
 70
   128
 71
   379
 72
   427
 73
  -428
  0
VERTEX
  8
RK-LAVAT
 10
0.0
 20
0.0
 30
0.0
 70
   128
 71
   381
 72
  -380
 73
   429
  0
VERTEX
  8
RK-LAVAT
 10
0.0
 20
0.0
 30
0.0
 70
   128
 71
   380
 72
   428
 73
  -429
  0
VERTEX
  8
RK-LAVAT
 10
0.0
 20
0.0
 30
0.0
 70
   128
 71
   382
 72
  -381
 73
   430
  0
VERTEX
  8
RK-LAVAT
 10
0.0
 20
0.0
 30
0.0
 70
   128
 71
   381
 72
   429
 73
  -430
  0
VERTEX
  8
RK-LAVAT
 10
0.0
 20
0.0
 30
0.0
 70
   128
 71
   383
 72
  -382
 73
   431
  0
VERTEX
  8
RK-LAVAT
 10
0.0
 20
0.0
 30
0.0
 70
   128
 71
   382
 72
   430
 73
  -431
  0
VERTEX
  8
RK-LAVAT
 10
0.0
 20
0.0
 30
0.0
 70
   128
 71
   384
 72
  -383
 73
   432
  0
VERTEX
  8
RK-LAVAT
 10
0.0
 20
0.0
 30
0.0
 70
   128
 71
   383
 72
   431
 73
  -432
  0
VERTEX
  8
RK-LAVAT
 10
0.0
 20
0.0
 30
0.0
 70
   128
 71
   338
 72
  -384
 73
   386
  0
VERTEX
  8
RK-LAVAT
 10
0.0
 20
0.0
 30
0.0
 70
   128
 71
   384
 72
   432
 73
  -386
  0
VERTEX
  8
RK-LAVAT
 10
0.0
 20
0.0
 30
0.0
 70
   128
 71
   385
 72
  -386
 73
   433
  0
VERTEX
  8
RK-LAVAT
 10
0.0
 20
0.0
 30
0.0
 70
   128
 71
   386
 72
   434
 73
  -433
  0
VERTEX
  8
RK-LAVAT
 10
0.0
 20
0.0
 30
0.0
 70
   128
 71
   387
 72
  -385
 73
   435
  0
VERTEX
  8
RK-LAVAT
 10
0.0
 20
0.0
 30
0.0
 70
   128
 71
   385
 72
   433
 73
  -435
  0
VERTEX
  8
RK-LAVAT
 10
0.0
 20
0.0
 30
0.0
 70
   128
 71
   388
 72
  -387
 73
   436
  0
VERTEX
  8
RK-LAVAT
 10
0.0
 20
0.0
 30
0.0
 70
   128
 71
   387
 72
   435
 73
  -436
  0
VERTEX
  8
RK-LAVAT
 10
0.0
 20
0.0
 30
0.0
 70
   128
 71
   389
 72
  -388
 73
   437
  0
VERTEX
  8
RK-LAVAT
 10
0.0
 20
0.0
 30
0.0
 70
   128
 71
   388
 72
   436
 73
  -437
  0
VERTEX
  8
RK-LAVAT
 10
0.0
 20
0.0
 30
0.0
 70
   128
 71
   390
 72
  -389
 73
   438
  0
VERTEX
  8
RK-LAVAT
 10
0.0
 20
0.0
 30
0.0
 70
   128
 71
   389
 72
   437
 73
  -438
  0
VERTEX
  8
RK-LAVAT
 10
0.0
 20
0.0
 30
0.0
 70
   128
 71
   391
 72
  -390
 73
   439
  0
VERTEX
  8
RK-LAVAT
 10
0.0
 20
0.0
 30
0.0
 70
   128
 71
   390
 72
   438
 73
  -439
  0
VERTEX
  8
RK-LAVAT
 10
0.0
 20
0.0
 30
0.0
 70
   128
 71
   392
 72
  -391
 73
   440
  0
VERTEX
  8
RK-LAVAT
 10
0.0
 20
0.0
 30
0.0
 70
   128
 71
   391
 72
   439
 73
  -440
  0
VERTEX
  8
RK-LAVAT
 10
0.0
 20
0.0
 30
0.0
 70
   128
 71
   393
 72
  -392
 73
   441
  0
VERTEX
  8
RK-LAVAT
 10
0.0
 20
0.0
 30
0.0
 70
   128
 71
   392
 72
   440
 73
  -441
  0
VERTEX
  8
RK-LAVAT
 10
0.0
 20
0.0
 30
0.0
 70
   128
 71
   394
 72
  -393
 73
   442
  0
VERTEX
  8
RK-LAVAT
 10
0.0
 20
0.0
 30
0.0
 70
   128
 71
   393
 72
   441
 73
  -442
  0
VERTEX
  8
RK-LAVAT
 10
0.0
 20
0.0
 30
0.0
 70
   128
 71
   395
 72
  -394
 73
   443
  0
VERTEX
  8
RK-LAVAT
 10
0.0
 20
0.0
 30
0.0
 70
   128
 71
   394
 72
   442
 73
  -443
  0
VERTEX
  8
RK-LAVAT
 10
0.0
 20
0.0
 30
0.0
 70
   128
 71
   396
 72
  -395
 73
   444
  0
VERTEX
  8
RK-LAVAT
 10
0.0
 20
0.0
 30
0.0
 70
   128
 71
   395
 72
   443
 73
  -444
  0
VERTEX
  8
RK-LAVAT
 10
0.0
 20
0.0
 30
0.0
 70
   128
 71
   397
 72
  -396
 73
   445
  0
VERTEX
  8
RK-LAVAT
 10
0.0
 20
0.0
 30
0.0
 70
   128
 71
   396
 72
   444
 73
  -445
  0
VERTEX
  8
RK-LAVAT
 10
0.0
 20
0.0
 30
0.0
 70
   128
 71
   398
 72
  -397
 73
   446
  0
VERTEX
  8
RK-LAVAT
 10
0.0
 20
0.0
 30
0.0
 70
   128
 71
   397
 72
   445
 73
  -446
  0
VERTEX
  8
RK-LAVAT
 10
0.0
 20
0.0
 30
0.0
 70
   128
 71
   399
 72
  -398
 73
   447
  0
VERTEX
  8
RK-LAVAT
 10
0.0
 20
0.0
 30
0.0
 70
   128
 71
   398
 72
   446
 73
  -447
  0
VERTEX
  8
RK-LAVAT
 10
0.0
 20
0.0
 30
0.0
 70
   128
 71
   400
 72
  -399
 73
   448
  0
VERTEX
  8
RK-LAVAT
 10
0.0
 20
0.0
 30
0.0
 70
   128
 71
   399
 72
   447
 73
  -448
  0
VERTEX
  8
RK-LAVAT
 10
0.0
 20
0.0
 30
0.0
 70
   128
 71
   401
 72
  -400
 73
   449
  0
VERTEX
  8
RK-LAVAT
 10
0.0
 20
0.0
 30
0.0
 70
   128
 71
   400
 72
   448
 73
  -449
  0
VERTEX
  8
RK-LAVAT
 10
0.0
 20
0.0
 30
0.0
 70
   128
 71
   402
 72
  -401
 73
   450
  0
VERTEX
  8
RK-LAVAT
 10
0.0
 20
0.0
 30
0.0
 70
   128
 71
   401
 72
   449
 73
  -450
  0
VERTEX
  8
RK-LAVAT
 10
0.0
 20
0.0
 30
0.0
 70
   128
 71
   403
 72
  -402
 73
   451
  0
VERTEX
  8
RK-LAVAT
 10
0.0
 20
0.0
 30
0.0
 70
   128
 71
   402
 72
   450
 73
  -451
  0
VERTEX
  8
RK-LAVAT
 10
0.0
 20
0.0
 30
0.0
 70
   128
 71
   404
 72
  -403
 73
   452
  0
VERTEX
  8
RK-LAVAT
 10
0.0
 20
0.0
 30
0.0
 70
   128
 71
   403
 72
   451
 73
  -452
  0
VERTEX
  8
RK-LAVAT
 10
0.0
 20
0.0
 30
0.0
 70
   128
 71
   405
 72
  -404
 73
   453
  0
VERTEX
  8
RK-LAVAT
 10
0.0
 20
0.0
 30
0.0
 70
   128
 71
   404
 72
   452
 73
  -453
  0
VERTEX
  8
RK-LAVAT
 10
0.0
 20
0.0
 30
0.0
 70
   128
 71
   406
 72
  -405
 73
   454
  0
VERTEX
  8
RK-LAVAT
 10
0.0
 20
0.0
 30
0.0
 70
   128
 71
   405
 72
   453
 73
  -454
  0
VERTEX
  8
RK-LAVAT
 10
0.0
 20
0.0
 30
0.0
 70
   128
 71
   407
 72
  -406
 73
   455
  0
VERTEX
  8
RK-LAVAT
 10
0.0
 20
0.0
 30
0.0
 70
   128
 71
   406
 72
   454
 73
  -455
  0
VERTEX
  8
RK-LAVAT
 10
0.0
 20
0.0
 30
0.0
 70
   128
 71
   408
 72
  -407
 73
   456
  0
VERTEX
  8
RK-LAVAT
 10
0.0
 20
0.0
 30
0.0
 70
   128
 71
   407
 72
   455
 73
  -456
  0
VERTEX
  8
RK-LAVAT
 10
0.0
 20
0.0
 30
0.0
 70
   128
 71
   409
 72
  -408
 73
   457
  0
VERTEX
  8
RK-LAVAT
 10
0.0
 20
0.0
 30
0.0
 70
   128
 71
   408
 72
   456
 73
  -457
  0
VERTEX
  8
RK-LAVAT
 10
0.0
 20
0.0
 30
0.0
 70
   128
 71
   410
 72
  -409
 73
   458
  0
VERTEX
  8
RK-LAVAT
 10
0.0
 20
0.0
 30
0.0
 70
   128
 71
   409
 72
   457
 73
  -458
  0
VERTEX
  8
RK-LAVAT
 10
0.0
 20
0.0
 30
0.0
 70
   128
 71
   411
 72
  -410
 73
   459
  0
VERTEX
  8
RK-LAVAT
 10
0.0
 20
0.0
 30
0.0
 70
   128
 71
   410
 72
   458
 73
  -459
  0
VERTEX
  8
RK-LAVAT
 10
0.0
 20
0.0
 30
0.0
 70
   128
 71
   412
 72
  -411
 73
   460
  0
VERTEX
  8
RK-LAVAT
 10
0.0
 20
0.0
 30
0.0
 70
   128
 71
   411
 72
   459
 73
  -460
  0
VERTEX
  8
RK-LAVAT
 10
0.0
 20
0.0
 30
0.0
 70
   128
 71
   413
 72
  -412
 73
   461
  0
VERTEX
  8
RK-LAVAT
 10
0.0
 20
0.0
 30
0.0
 70
   128
 71
   412
 72
   460
 73
  -461
  0
VERTEX
  8
RK-LAVAT
 10
0.0
 20
0.0
 30
0.0
 70
   128
 71
   414
 72
  -413
 73
   462
  0
VERTEX
  8
RK-LAVAT
 10
0.0
 20
0.0
 30
0.0
 70
   128
 71
   413
 72
   461
 73
  -462
  0
VERTEX
  8
RK-LAVAT
 10
0.0
 20
0.0
 30
0.0
 70
   128
 71
   415
 72
  -414
 73
   463
  0
VERTEX
  8
RK-LAVAT
 10
0.0
 20
0.0
 30
0.0
 70
   128
 71
   414
 72
   462
 73
  -463
  0
VERTEX
  8
RK-LAVAT
 10
0.0
 20
0.0
 30
0.0
 70
   128
 71
   416
 72
  -415
 73
   464
  0
VERTEX
  8
RK-LAVAT
 10
0.0
 20
0.0
 30
0.0
 70
   128
 71
   415
 72
   463
 73
  -464
  0
VERTEX
  8
RK-LAVAT
 10
0.0
 20
0.0
 30
0.0
 70
   128
 71
   417
 72
  -416
 73
   465
  0
VERTEX
  8
RK-LAVAT
 10
0.0
 20
0.0
 30
0.0
 70
   128
 71
   416
 72
   464
 73
  -465
  0
VERTEX
  8
RK-LAVAT
 10
0.0
 20
0.0
 30
0.0
 70
   128
 71
   418
 72
  -417
 73
   466
  0
VERTEX
  8
RK-LAVAT
 10
0.0
 20
0.0
 30
0.0
 70
   128
 71
   417
 72
   465
 73
  -466
  0
VERTEX
  8
RK-LAVAT
 10
0.0
 20
0.0
 30
0.0
 70
   128
 71
   419
 72
  -418
 73
   467
  0
VERTEX
  8
RK-LAVAT
 10
0.0
 20
0.0
 30
0.0
 70
   128
 71
   418
 72
   466
 73
  -467
  0
VERTEX
  8
RK-LAVAT
 10
0.0
 20
0.0
 30
0.0
 70
   128
 71
   420
 72
  -419
 73
   468
  0
VERTEX
  8
RK-LAVAT
 10
0.0
 20
0.0
 30
0.0
 70
   128
 71
   419
 72
   467
 73
  -468
  0
VERTEX
  8
RK-LAVAT
 10
0.0
 20
0.0
 30
0.0
 70
   128
 71
   421
 72
  -420
 73
   469
  0
VERTEX
  8
RK-LAVAT
 10
0.0
 20
0.0
 30
0.0
 70
   128
 71
   420
 72
   468
 73
  -469
  0
VERTEX
  8
RK-LAVAT
 10
0.0
 20
0.0
 30
0.0
 70
   128
 71
   422
 72
  -421
 73
   470
  0
VERTEX
  8
RK-LAVAT
 10
0.0
 20
0.0
 30
0.0
 70
   128
 71
   421
 72
   469
 73
  -470
  0
VERTEX
  8
RK-LAVAT
 10
0.0
 20
0.0
 30
0.0
 70
   128
 71
   423
 72
  -422
 73
   471
  0
VERTEX
  8
RK-LAVAT
 10
0.0
 20
0.0
 30
0.0
 70
   128
 71
   422
 72
   470
 73
  -471
  0
VERTEX
  8
RK-LAVAT
 10
0.0
 20
0.0
 30
0.0
 70
   128
 71
   424
 72
  -423
 73
   472
  0
VERTEX
  8
RK-LAVAT
 10
0.0
 20
0.0
 30
0.0
 70
   128
 71
   423
 72
   471
 73
  -472
  0
VERTEX
  8
RK-LAVAT
 10
0.0
 20
0.0
 30
0.0
 70
   128
 71
   425
 72
  -424
 73
   473
  0
VERTEX
  8
RK-LAVAT
 10
0.0
 20
0.0
 30
0.0
 70
   128
 71
   424
 72
   472
 73
  -473
  0
VERTEX
  8
RK-LAVAT
 10
0.0
 20
0.0
 30
0.0
 70
   128
 71
   426
 72
  -425
 73
   474
  0
VERTEX
  8
RK-LAVAT
 10
0.0
 20
0.0
 30
0.0
 70
   128
 71
   425
 72
   473
 73
  -474
  0
VERTEX
  8
RK-LAVAT
 10
0.0
 20
0.0
 30
0.0
 70
   128
 71
   427
 72
  -426
 73
   475
  0
VERTEX
  8
RK-LAVAT
 10
0.0
 20
0.0
 30
0.0
 70
   128
 71
   426
 72
   474
 73
  -475
  0
VERTEX
  8
RK-LAVAT
 10
0.0
 20
0.0
 30
0.0
 70
   128
 71
   428
 72
  -427
 73
   476
  0
VERTEX
  8
RK-LAVAT
 10
0.0
 20
0.0
 30
0.0
 70
   128
 71
   427
 72
   475
 73
  -476
  0
VERTEX
  8
RK-LAVAT
 10
0.0
 20
0.0
 30
0.0
 70
   128
 71
   429
 72
  -428
 73
   477
  0
VERTEX
  8
RK-LAVAT
 10
0.0
 20
0.0
 30
0.0
 70
   128
 71
   428
 72
   476
 73
  -477
  0
VERTEX
  8
RK-LAVAT
 10
0.0
 20
0.0
 30
0.0
 70
   128
 71
   430
 72
  -429
 73
   478
  0
VERTEX
  8
RK-LAVAT
 10
0.0
 20
0.0
 30
0.0
 70
   128
 71
   429
 72
   477
 73
  -478
  0
VERTEX
  8
RK-LAVAT
 10
0.0
 20
0.0
 30
0.0
 70
   128
 71
   431
 72
  -430
 73
   479
  0
VERTEX
  8
RK-LAVAT
 10
0.0
 20
0.0
 30
0.0
 70
   128
 71
   430
 72
   478
 73
  -479
  0
VERTEX
  8
RK-LAVAT
 10
0.0
 20
0.0
 30
0.0
 70
   128
 71
   432
 72
  -431
 73
   480
  0
VERTEX
  8
RK-LAVAT
 10
0.0
 20
0.0
 30
0.0
 70
   128
 71
   431
 72
   479
 73
  -480
  0
VERTEX
  8
RK-LAVAT
 10
0.0
 20
0.0
 30
0.0
 70
   128
 71
   386
 72
  -432
 73
   434
  0
VERTEX
  8
RK-LAVAT
 10
0.0
 20
0.0
 30
0.0
 70
   128
 71
   432
 72
   480
 73
  -434
  0
VERTEX
  8
RK-LAVAT
 10
0.0
 20
0.0
 30
0.0
 70
   128
 71
   433
 72
  -434
 73
   481
  0
VERTEX
  8
RK-LAVAT
 10
0.0
 20
0.0
 30
0.0
 70
   128
 71
   434
 72
   482
 73
  -481
  0
VERTEX
  8
RK-LAVAT
 10
0.0
 20
0.0
 30
0.0
 70
   128
 71
   435
 72
  -433
 73
   483
  0
VERTEX
  8
RK-LAVAT
 10
0.0
 20
0.0
 30
0.0
 70
   128
 71
   433
 72
   481
 73
  -483
  0
VERTEX
  8
RK-LAVAT
 10
0.0
 20
0.0
 30
0.0
 70
   128
 71
   436
 72
  -435
 73
   484
  0
VERTEX
  8
RK-LAVAT
 10
0.0
 20
0.0
 30
0.0
 70
   128
 71
   435
 72
   483
 73
  -484
  0
VERTEX
  8
RK-LAVAT
 10
0.0
 20
0.0
 30
0.0
 70
   128
 71
   437
 72
  -436
 73
   485
  0
VERTEX
  8
RK-LAVAT
 10
0.0
 20
0.0
 30
0.0
 70
   128
 71
   436
 72
   484
 73
  -485
  0
VERTEX
  8
RK-LAVAT
 10
0.0
 20
0.0
 30
0.0
 70
   128
 71
   438
 72
  -437
 73
   486
  0
VERTEX
  8
RK-LAVAT
 10
0.0
 20
0.0
 30
0.0
 70
   128
 71
   437
 72
   485
 73
  -486
  0
VERTEX
  8
RK-LAVAT
 10
0.0
 20
0.0
 30
0.0
 70
   128
 71
   439
 72
  -438
 73
   487
  0
VERTEX
  8
RK-LAVAT
 10
0.0
 20
0.0
 30
0.0
 70
   128
 71
   438
 72
   486
 73
  -487
  0
VERTEX
  8
RK-LAVAT
 10
0.0
 20
0.0
 30
0.0
 70
   128
 71
   440
 72
  -439
 73
   488
  0
VERTEX
  8
RK-LAVAT
 10
0.0
 20
0.0
 30
0.0
 70
   128
 71
   439
 72
   487
 73
  -488
  0
VERTEX
  8
RK-LAVAT
 10
0.0
 20
0.0
 30
0.0
 70
   128
 71
   441
 72
  -440
 73
   489
  0
VERTEX
  8
RK-LAVAT
 10
0.0
 20
0.0
 30
0.0
 70
   128
 71
   440
 72
   488
 73
  -489
  0
VERTEX
  8
RK-LAVAT
 10
0.0
 20
0.0
 30
0.0
 70
   128
 71
   442
 72
  -441
 73
   490
  0
VERTEX
  8
RK-LAVAT
 10
0.0
 20
0.0
 30
0.0
 70
   128
 71
   441
 72
   489
 73
  -490
  0
VERTEX
  8
RK-LAVAT
 10
0.0
 20
0.0
 30
0.0
 70
   128
 71
   443
 72
  -442
 73
   491
  0
VERTEX
  8
RK-LAVAT
 10
0.0
 20
0.0
 30
0.0
 70
   128
 71
   442
 72
   490
 73
  -491
  0
VERTEX
  8
RK-LAVAT
 10
0.0
 20
0.0
 30
0.0
 70
   128
 71
   444
 72
  -443
 73
   492
  0
VERTEX
  8
RK-LAVAT
 10
0.0
 20
0.0
 30
0.0
 70
   128
 71
   443
 72
   491
 73
  -492
  0
VERTEX
  8
RK-LAVAT
 10
0.0
 20
0.0
 30
0.0
 70
   128
 71
   445
 72
  -444
 73
   493
  0
VERTEX
  8
RK-LAVAT
 10
0.0
 20
0.0
 30
0.0
 70
   128
 71
   444
 72
   492
 73
  -493
  0
VERTEX
  8
RK-LAVAT
 10
0.0
 20
0.0
 30
0.0
 70
   128
 71
   446
 72
  -445
 73
   494
  0
VERTEX
  8
RK-LAVAT
 10
0.0
 20
0.0
 30
0.0
 70
   128
 71
   445
 72
   493
 73
  -494
  0
VERTEX
  8
RK-LAVAT
 10
0.0
 20
0.0
 30
0.0
 70
   128
 71
   447
 72
  -446
 73
   495
  0
VERTEX
  8
RK-LAVAT
 10
0.0
 20
0.0
 30
0.0
 70
   128
 71
   446
 72
   494
 73
  -495
  0
VERTEX
  8
RK-LAVAT
 10
0.0
 20
0.0
 30
0.0
 70
   128
 71
   448
 72
  -447
 73
   496
  0
VERTEX
  8
RK-LAVAT
 10
0.0
 20
0.0
 30
0.0
 70
   128
 71
   447
 72
   495
 73
  -496
  0
VERTEX
  8
RK-LAVAT
 10
0.0
 20
0.0
 30
0.0
 70
   128
 71
   449
 72
  -448
 73
   497
  0
VERTEX
  8
RK-LAVAT
 10
0.0
 20
0.0
 30
0.0
 70
   128
 71
   448
 72
   496
 73
  -497
  0
VERTEX
  8
RK-LAVAT
 10
0.0
 20
0.0
 30
0.0
 70
   128
 71
   450
 72
  -449
 73
   498
  0
VERTEX
  8
RK-LAVAT
 10
0.0
 20
0.0
 30
0.0
 70
   128
 71
   449
 72
   497
 73
  -498
  0
VERTEX
  8
RK-LAVAT
 10
0.0
 20
0.0
 30
0.0
 70
   128
 71
   451
 72
  -450
 73
   499
  0
VERTEX
  8
RK-LAVAT
 10
0.0
 20
0.0
 30
0.0
 70
   128
 71
   450
 72
   498
 73
  -499
  0
VERTEX
  8
RK-LAVAT
 10
0.0
 20
0.0
 30
0.0
 70
   128
 71
   452
 72
  -451
 73
   500
  0
VERTEX
  8
RK-LAVAT
 10
0.0
 20
0.0
 30
0.0
 70
   128
 71
   451
 72
   499
 73
  -500
  0
VERTEX
  8
RK-LAVAT
 10
0.0
 20
0.0
 30
0.0
 70
   128
 71
   453
 72
  -452
 73
   501
  0
VERTEX
  8
RK-LAVAT
 10
0.0
 20
0.0
 30
0.0
 70
   128
 71
   452
 72
   500
 73
  -501
  0
VERTEX
  8
RK-LAVAT
 10
0.0
 20
0.0
 30
0.0
 70
   128
 71
   454
 72
  -453
 73
   502
  0
VERTEX
  8
RK-LAVAT
 10
0.0
 20
0.0
 30
0.0
 70
   128
 71
   453
 72
   501
 73
  -502
  0
VERTEX
  8
RK-LAVAT
 10
0.0
 20
0.0
 30
0.0
 70
   128
 71
   455
 72
  -454
 73
   503
  0
VERTEX
  8
RK-LAVAT
 10
0.0
 20
0.0
 30
0.0
 70
   128
 71
   454
 72
   502
 73
  -503
  0
VERTEX
  8
RK-LAVAT
 10
0.0
 20
0.0
 30
0.0
 70
   128
 71
   456
 72
  -455
 73
   504
  0
VERTEX
  8
RK-LAVAT
 10
0.0
 20
0.0
 30
0.0
 70
   128
 71
   455
 72
   503
 73
  -504
  0
VERTEX
  8
RK-LAVAT
 10
0.0
 20
0.0
 30
0.0
 70
   128
 71
   457
 72
  -456
 73
   505
  0
VERTEX
  8
RK-LAVAT
 10
0.0
 20
0.0
 30
0.0
 70
   128
 71
   456
 72
   504
 73
  -505
  0
VERTEX
  8
RK-LAVAT
 10
0.0
 20
0.0
 30
0.0
 70
   128
 71
   458
 72
  -457
 73
   506
  0
VERTEX
  8
RK-LAVAT
 10
0.0
 20
0.0
 30
0.0
 70
   128
 71
   457
 72
   505
 73
  -506
  0
VERTEX
  8
RK-LAVAT
 10
0.0
 20
0.0
 30
0.0
 70
   128
 71
   459
 72
  -458
 73
   507
  0
VERTEX
  8
RK-LAVAT
 10
0.0
 20
0.0
 30
0.0
 70
   128
 71
   458
 72
   506
 73
  -507
  0
VERTEX
  8
RK-LAVAT
 10
0.0
 20
0.0
 30
0.0
 70
   128
 71
   460
 72
  -459
 73
   508
  0
VERTEX
  8
RK-LAVAT
 10
0.0
 20
0.0
 30
0.0
 70
   128
 71
   459
 72
   507
 73
  -508
  0
VERTEX
  8
RK-LAVAT
 10
0.0
 20
0.0
 30
0.0
 70
   128
 71
   461
 72
  -460
 73
   509
  0
VERTEX
  8
RK-LAVAT
 10
0.0
 20
0.0
 30
0.0
 70
   128
 71
   460
 72
   508
 73
  -509
  0
VERTEX
  8
RK-LAVAT
 10
0.0
 20
0.0
 30
0.0
 70
   128
 71
   462
 72
  -461
 73
   510
  0
VERTEX
  8
RK-LAVAT
 10
0.0
 20
0.0
 30
0.0
 70
   128
 71
   461
 72
   509
 73
  -510
  0
VERTEX
  8
RK-LAVAT
 10
0.0
 20
0.0
 30
0.0
 70
   128
 71
   463
 72
  -462
 73
   511
  0
VERTEX
  8
RK-LAVAT
 10
0.0
 20
0.0
 30
0.0
 70
   128
 71
   462
 72
   510
 73
  -511
  0
VERTEX
  8
RK-LAVAT
 10
0.0
 20
0.0
 30
0.0
 70
   128
 71
   464
 72
  -463
 73
   512
  0
VERTEX
  8
RK-LAVAT
 10
0.0
 20
0.0
 30
0.0
 70
   128
 71
   463
 72
   511
 73
  -512
  0
VERTEX
  8
RK-LAVAT
 10
0.0
 20
0.0
 30
0.0
 70
   128
 71
   465
 72
  -464
 73
   513
  0
VERTEX
  8
RK-LAVAT
 10
0.0
 20
0.0
 30
0.0
 70
   128
 71
   464
 72
   512
 73
  -513
  0
VERTEX
  8
RK-LAVAT
 10
0.0
 20
0.0
 30
0.0
 70
   128
 71
   466
 72
  -465
 73
   514
  0
VERTEX
  8
RK-LAVAT
 10
0.0
 20
0.0
 30
0.0
 70
   128
 71
   465
 72
   513
 73
  -514
  0
VERTEX
  8
RK-LAVAT
 10
0.0
 20
0.0
 30
0.0
 70
   128
 71
   467
 72
  -466
 73
   515
  0
VERTEX
  8
RK-LAVAT
 10
0.0
 20
0.0
 30
0.0
 70
   128
 71
   466
 72
   514
 73
  -515
  0
VERTEX
  8
RK-LAVAT
 10
0.0
 20
0.0
 30
0.0
 70
   128
 71
   468
 72
  -467
 73
   516
  0
VERTEX
  8
RK-LAVAT
 10
0.0
 20
0.0
 30
0.0
 70
   128
 71
   467
 72
   515
 73
  -516
  0
VERTEX
  8
RK-LAVAT
 10
0.0
 20
0.0
 30
0.0
 70
   128
 71
   469
 72
  -468
 73
   517
  0
VERTEX
  8
RK-LAVAT
 10
0.0
 20
0.0
 30
0.0
 70
   128
 71
   468
 72
   516
 73
  -517
  0
VERTEX
  8
RK-LAVAT
 10
0.0
 20
0.0
 30
0.0
 70
   128
 71
   470
 72
  -469
 73
   518
  0
VERTEX
  8
RK-LAVAT
 10
0.0
 20
0.0
 30
0.0
 70
   128
 71
   469
 72
   517
 73
  -518
  0
VERTEX
  8
RK-LAVAT
 10
0.0
 20
0.0
 30
0.0
 70
   128
 71
   471
 72
  -470
 73
   519
  0
VERTEX
  8
RK-LAVAT
 10
0.0
 20
0.0
 30
0.0
 70
   128
 71
   470
 72
   518
 73
  -519
  0
VERTEX
  8
RK-LAVAT
 10
0.0
 20
0.0
 30
0.0
 70
   128
 71
   472
 72
  -471
 73
   520
  0
VERTEX
  8
RK-LAVAT
 10
0.0
 20
0.0
 30
0.0
 70
   128
 71
   471
 72
   519
 73
  -520
  0
VERTEX
  8
RK-LAVAT
 10
0.0
 20
0.0
 30
0.0
 70
   128
 71
   473
 72
  -472
 73
   521
  0
VERTEX
  8
RK-LAVAT
 10
0.0
 20
0.0
 30
0.0
 70
   128
 71
   472
 72
   520
 73
  -521
  0
VERTEX
  8
RK-LAVAT
 10
0.0
 20
0.0
 30
0.0
 70
   128
 71
   474
 72
  -473
 73
   522
  0
VERTEX
  8
RK-LAVAT
 10
0.0
 20
0.0
 30
0.0
 70
   128
 71
   473
 72
   521
 73
  -522
  0
VERTEX
  8
RK-LAVAT
 10
0.0
 20
0.0
 30
0.0
 70
   128
 71
   475
 72
  -474
 73
   523
  0
VERTEX
  8
RK-LAVAT
 10
0.0
 20
0.0
 30
0.0
 70
   128
 71
   474
 72
   522
 73
  -523
  0
VERTEX
  8
RK-LAVAT
 10
0.0
 20
0.0
 30
0.0
 70
   128
 71
   476
 72
  -475
 73
   524
  0
VERTEX
  8
RK-LAVAT
 10
0.0
 20
0.0
 30
0.0
 70
   128
 71
   475
 72
   523
 73
  -524
  0
VERTEX
  8
RK-LAVAT
 10
0.0
 20
0.0
 30
0.0
 70
   128
 71
   477
 72
  -476
 73
   525
  0
VERTEX
  8
RK-LAVAT
 10
0.0
 20
0.0
 30
0.0
 70
   128
 71
   476
 72
   524
 73
  -525
  0
VERTEX
  8
RK-LAVAT
 10
0.0
 20
0.0
 30
0.0
 70
   128
 71
   478
 72
  -477
 73
   526
  0
VERTEX
  8
RK-LAVAT
 10
0.0
 20
0.0
 30
0.0
 70
   128
 71
   477
 72
   525
 73
  -526
  0
VERTEX
  8
RK-LAVAT
 10
0.0
 20
0.0
 30
0.0
 70
   128
 71
   479
 72
  -478
 73
   527
  0
VERTEX
  8
RK-LAVAT
 10
0.0
 20
0.0
 30
0.0
 70
   128
 71
   478
 72
   526
 73
  -527
  0
VERTEX
  8
RK-LAVAT
 10
0.0
 20
0.0
 30
0.0
 70
   128
 71
   480
 72
  -479
 73
   528
  0
VERTEX
  8
RK-LAVAT
 10
0.0
 20
0.0
 30
0.0
 70
   128
 71
   479
 72
   527
 73
  -528
  0
VERTEX
  8
RK-LAVAT
 10
0.0
 20
0.0
 30
0.0
 70
   128
 71
   434
 72
  -480
 73
   482
  0
VERTEX
  8
RK-LAVAT
 10
0.0
 20
0.0
 30
0.0
 70
   128
 71
   480
 72
   528
 73
  -482
  0
VERTEX
  8
RK-LAVAT
 10
0.0
 20
0.0
 30
0.0
 70
   128
 71
   481
 72
  -482
 73
   529
  0
VERTEX
  8
RK-LAVAT
 10
0.0
 20
0.0
 30
0.0
 70
   128
 71
   482
 72
   530
 73
  -529
  0
VERTEX
  8
RK-LAVAT
 10
0.0
 20
0.0
 30
0.0
 70
   128
 71
   483
 72
  -481
 73
   531
  0
VERTEX
  8
RK-LAVAT
 10
0.0
 20
0.0
 30
0.0
 70
   128
 71
   481
 72
   529
 73
  -531
  0
VERTEX
  8
RK-LAVAT
 10
0.0
 20
0.0
 30
0.0
 70
   128
 71
   484
 72
  -483
 73
   532
  0
VERTEX
  8
RK-LAVAT
 10
0.0
 20
0.0
 30
0.0
 70
   128
 71
   483
 72
   531
 73
  -532
  0
VERTEX
  8
RK-LAVAT
 10
0.0
 20
0.0
 30
0.0
 70
   128
 71
   485
 72
  -484
 73
   533
  0
VERTEX
  8
RK-LAVAT
 10
0.0
 20
0.0
 30
0.0
 70
   128
 71
   484
 72
   532
 73
  -533
  0
VERTEX
  8
RK-LAVAT
 10
0.0
 20
0.0
 30
0.0
 70
   128
 71
   486
 72
  -485
 73
   534
  0
VERTEX
  8
RK-LAVAT
 10
0.0
 20
0.0
 30
0.0
 70
   128
 71
   485
 72
   533
 73
  -534
  0
VERTEX
  8
RK-LAVAT
 10
0.0
 20
0.0
 30
0.0
 70
   128
 71
   487
 72
  -486
 73
   535
  0
VERTEX
  8
RK-LAVAT
 10
0.0
 20
0.0
 30
0.0
 70
   128
 71
   486
 72
   534
 73
  -535
  0
VERTEX
  8
RK-LAVAT
 10
0.0
 20
0.0
 30
0.0
 70
   128
 71
   488
 72
  -487
 73
   536
  0
VERTEX
  8
RK-LAVAT
 10
0.0
 20
0.0
 30
0.0
 70
   128
 71
   487
 72
   535
 73
  -536
  0
VERTEX
  8
RK-LAVAT
 10
0.0
 20
0.0
 30
0.0
 70
   128
 71
   489
 72
  -488
 73
   537
  0
VERTEX
  8
RK-LAVAT
 10
0.0
 20
0.0
 30
0.0
 70
   128
 71
   488
 72
   536
 73
  -537
  0
VERTEX
  8
RK-LAVAT
 10
0.0
 20
0.0
 30
0.0
 70
   128
 71
   490
 72
  -489
 73
   538
  0
VERTEX
  8
RK-LAVAT
 10
0.0
 20
0.0
 30
0.0
 70
   128
 71
   489
 72
   537
 73
  -538
  0
VERTEX
  8
RK-LAVAT
 10
0.0
 20
0.0
 30
0.0
 70
   128
 71
   491
 72
  -490
 73
   539
  0
VERTEX
  8
RK-LAVAT
 10
0.0
 20
0.0
 30
0.0
 70
   128
 71
   490
 72
   538
 73
  -539
  0
VERTEX
  8
RK-LAVAT
 10
0.0
 20
0.0
 30
0.0
 70
   128
 71
   492
 72
  -491
 73
   540
  0
VERTEX
  8
RK-LAVAT
 10
0.0
 20
0.0
 30
0.0
 70
   128
 71
   491
 72
   539
 73
  -540
  0
VERTEX
  8
RK-LAVAT
 10
0.0
 20
0.0
 30
0.0
 70
   128
 71
   493
 72
  -492
 73
   541
  0
VERTEX
  8
RK-LAVAT
 10
0.0
 20
0.0
 30
0.0
 70
   128
 71
   492
 72
   540
 73
  -541
  0
VERTEX
  8
RK-LAVAT
 10
0.0
 20
0.0
 30
0.0
 70
   128
 71
   494
 72
  -493
 73
   542
  0
VERTEX
  8
RK-LAVAT
 10
0.0
 20
0.0
 30
0.0
 70
   128
 71
   493
 72
   541
 73
  -542
  0
VERTEX
  8
RK-LAVAT
 10
0.0
 20
0.0
 30
0.0
 70
   128
 71
   495
 72
  -494
 73
   543
  0
VERTEX
  8
RK-LAVAT
 10
0.0
 20
0.0
 30
0.0
 70
   128
 71
   494
 72
   542
 73
  -543
  0
VERTEX
  8
RK-LAVAT
 10
0.0
 20
0.0
 30
0.0
 70
   128
 71
   496
 72
  -495
 73
   544
  0
VERTEX
  8
RK-LAVAT
 10
0.0
 20
0.0
 30
0.0
 70
   128
 71
   495
 72
   543
 73
  -544
  0
VERTEX
  8
RK-LAVAT
 10
0.0
 20
0.0
 30
0.0
 70
   128
 71
   497
 72
  -496
 73
   545
  0
VERTEX
  8
RK-LAVAT
 10
0.0
 20
0.0
 30
0.0
 70
   128
 71
   496
 72
   544
 73
  -545
  0
VERTEX
  8
RK-LAVAT
 10
0.0
 20
0.0
 30
0.0
 70
   128
 71
   498
 72
  -497
 73
   546
  0
VERTEX
  8
RK-LAVAT
 10
0.0
 20
0.0
 30
0.0
 70
   128
 71
   497
 72
   545
 73
  -546
  0
VERTEX
  8
RK-LAVAT
 10
0.0
 20
0.0
 30
0.0
 70
   128
 71
   499
 72
  -498
 73
   547
  0
VERTEX
  8
RK-LAVAT
 10
0.0
 20
0.0
 30
0.0
 70
   128
 71
   498
 72
   546
 73
  -547
  0
VERTEX
  8
RK-LAVAT
 10
0.0
 20
0.0
 30
0.0
 70
   128
 71
   500
 72
  -499
 73
   548
  0
VERTEX
  8
RK-LAVAT
 10
0.0
 20
0.0
 30
0.0
 70
   128
 71
   499
 72
   547
 73
  -548
  0
VERTEX
  8
RK-LAVAT
 10
0.0
 20
0.0
 30
0.0
 70
   128
 71
   501
 72
  -500
 73
   549
  0
VERTEX
  8
RK-LAVAT
 10
0.0
 20
0.0
 30
0.0
 70
   128
 71
   500
 72
   548
 73
  -549
  0
VERTEX
  8
RK-LAVAT
 10
0.0
 20
0.0
 30
0.0
 70
   128
 71
   502
 72
  -501
 73
   550
  0
VERTEX
  8
RK-LAVAT
 10
0.0
 20
0.0
 30
0.0
 70
   128
 71
   501
 72
   549
 73
  -550
  0
VERTEX
  8
RK-LAVAT
 10
0.0
 20
0.0
 30
0.0
 70
   128
 71
   503
 72
  -502
 73
   551
  0
VERTEX
  8
RK-LAVAT
 10
0.0
 20
0.0
 30
0.0
 70
   128
 71
   502
 72
   550
 73
  -551
  0
VERTEX
  8
RK-LAVAT
 10
0.0
 20
0.0
 30
0.0
 70
   128
 71
   504
 72
  -503
 73
   552
  0
VERTEX
  8
RK-LAVAT
 10
0.0
 20
0.0
 30
0.0
 70
   128
 71
   503
 72
   551
 73
  -552
  0
VERTEX
  8
RK-LAVAT
 10
0.0
 20
0.0
 30
0.0
 70
   128
 71
   505
 72
  -504
 73
   553
  0
VERTEX
  8
RK-LAVAT
 10
0.0
 20
0.0
 30
0.0
 70
   128
 71
   504
 72
   552
 73
  -553
  0
VERTEX
  8
RK-LAVAT
 10
0.0
 20
0.0
 30
0.0
 70
   128
 71
   506
 72
  -505
 73
   554
  0
VERTEX
  8
RK-LAVAT
 10
0.0
 20
0.0
 30
0.0
 70
   128
 71
   505
 72
   553
 73
  -554
  0
VERTEX
  8
RK-LAVAT
 10
0.0
 20
0.0
 30
0.0
 70
   128
 71
   507
 72
  -506
 73
   555
  0
VERTEX
  8
RK-LAVAT
 10
0.0
 20
0.0
 30
0.0
 70
   128
 71
   506
 72
   554
 73
  -555
  0
VERTEX
  8
RK-LAVAT
 10
0.0
 20
0.0
 30
0.0
 70
   128
 71
   508
 72
  -507
 73
   556
  0
VERTEX
  8
RK-LAVAT
 10
0.0
 20
0.0
 30
0.0
 70
   128
 71
   507
 72
   555
 73
  -556
  0
VERTEX
  8
RK-LAVAT
 10
0.0
 20
0.0
 30
0.0
 70
   128
 71
   509
 72
  -508
 73
   557
  0
VERTEX
  8
RK-LAVAT
 10
0.0
 20
0.0
 30
0.0
 70
   128
 71
   508
 72
   556
 73
  -557
  0
VERTEX
  8
RK-LAVAT
 10
0.0
 20
0.0
 30
0.0
 70
   128
 71
   510
 72
  -509
 73
   558
  0
VERTEX
  8
RK-LAVAT
 10
0.0
 20
0.0
 30
0.0
 70
   128
 71
   509
 72
   557
 73
  -558
  0
VERTEX
  8
RK-LAVAT
 10
0.0
 20
0.0
 30
0.0
 70
   128
 71
   511
 72
  -510
 73
   559
  0
VERTEX
  8
RK-LAVAT
 10
0.0
 20
0.0
 30
0.0
 70
   128
 71
   510
 72
   558
 73
  -559
  0
VERTEX
  8
RK-LAVAT
 10
0.0
 20
0.0
 30
0.0
 70
   128
 71
   512
 72
  -511
 73
   560
  0
VERTEX
  8
RK-LAVAT
 10
0.0
 20
0.0
 30
0.0
 70
   128
 71
   511
 72
   559
 73
  -560
  0
VERTEX
  8
RK-LAVAT
 10
0.0
 20
0.0
 30
0.0
 70
   128
 71
   513
 72
  -512
 73
   561
  0
VERTEX
  8
RK-LAVAT
 10
0.0
 20
0.0
 30
0.0
 70
   128
 71
   512
 72
   560
 73
  -561
  0
VERTEX
  8
RK-LAVAT
 10
0.0
 20
0.0
 30
0.0
 70
   128
 71
   514
 72
  -513
 73
   562
  0
VERTEX
  8
RK-LAVAT
 10
0.0
 20
0.0
 30
0.0
 70
   128
 71
   513
 72
   561
 73
  -562
  0
VERTEX
  8
RK-LAVAT
 10
0.0
 20
0.0
 30
0.0
 70
   128
 71
   515
 72
  -514
 73
   563
  0
VERTEX
  8
RK-LAVAT
 10
0.0
 20
0.0
 30
0.0
 70
   128
 71
   514
 72
   562
 73
  -563
  0
VERTEX
  8
RK-LAVAT
 10
0.0
 20
0.0
 30
0.0
 70
   128
 71
   516
 72
  -515
 73
   564
  0
VERTEX
  8
RK-LAVAT
 10
0.0
 20
0.0
 30
0.0
 70
   128
 71
   515
 72
   563
 73
  -564
  0
VERTEX
  8
RK-LAVAT
 10
0.0
 20
0.0
 30
0.0
 70
   128
 71
   517
 72
  -516
 73
   565
  0
VERTEX
  8
RK-LAVAT
 10
0.0
 20
0.0
 30
0.0
 70
   128
 71
   516
 72
   564
 73
  -565
  0
VERTEX
  8
RK-LAVAT
 10
0.0
 20
0.0
 30
0.0
 70
   128
 71
   518
 72
  -517
 73
   566
  0
VERTEX
  8
RK-LAVAT
 10
0.0
 20
0.0
 30
0.0
 70
   128
 71
   517
 72
   565
 73
  -566
  0
VERTEX
  8
RK-LAVAT
 10
0.0
 20
0.0
 30
0.0
 70
   128
 71
   519
 72
  -518
 73
   567
  0
VERTEX
  8
RK-LAVAT
 10
0.0
 20
0.0
 30
0.0
 70
   128
 71
   518
 72
   566
 73
  -567
  0
VERTEX
  8
RK-LAVAT
 10
0.0
 20
0.0
 30
0.0
 70
   128
 71
   520
 72
  -519
 73
   568
  0
VERTEX
  8
RK-LAVAT
 10
0.0
 20
0.0
 30
0.0
 70
   128
 71
   519
 72
   567
 73
  -568
  0
VERTEX
  8
RK-LAVAT
 10
0.0
 20
0.0
 30
0.0
 70
   128
 71
   521
 72
  -520
 73
   569
  0
VERTEX
  8
RK-LAVAT
 10
0.0
 20
0.0
 30
0.0
 70
   128
 71
   520
 72
   568
 73
  -569
  0
VERTEX
  8
RK-LAVAT
 10
0.0
 20
0.0
 30
0.0
 70
   128
 71
   522
 72
  -521
 73
   570
  0
VERTEX
  8
RK-LAVAT
 10
0.0
 20
0.0
 30
0.0
 70
   128
 71
   521
 72
   569
 73
  -570
  0
VERTEX
  8
RK-LAVAT
 10
0.0
 20
0.0
 30
0.0
 70
   128
 71
   523
 72
  -522
 73
   571
  0
VERTEX
  8
RK-LAVAT
 10
0.0
 20
0.0
 30
0.0
 70
   128
 71
   522
 72
   570
 73
  -571
  0
VERTEX
  8
RK-LAVAT
 10
0.0
 20
0.0
 30
0.0
 70
   128
 71
   524
 72
  -523
 73
   572
  0
VERTEX
  8
RK-LAVAT
 10
0.0
 20
0.0
 30
0.0
 70
   128
 71
   523
 72
   571
 73
  -572
  0
VERTEX
  8
RK-LAVAT
 10
0.0
 20
0.0
 30
0.0
 70
   128
 71
   525
 72
  -524
 73
   573
  0
VERTEX
  8
RK-LAVAT
 10
0.0
 20
0.0
 30
0.0
 70
   128
 71
   524
 72
   572
 73
  -573
  0
VERTEX
  8
RK-LAVAT
 10
0.0
 20
0.0
 30
0.0
 70
   128
 71
   526
 72
  -525
 73
   574
  0
VERTEX
  8
RK-LAVAT
 10
0.0
 20
0.0
 30
0.0
 70
   128
 71
   525
 72
   573
 73
  -574
  0
VERTEX
  8
RK-LAVAT
 10
0.0
 20
0.0
 30
0.0
 70
   128
 71
   527
 72
  -526
 73
   575
  0
VERTEX
  8
RK-LAVAT
 10
0.0
 20
0.0
 30
0.0
 70
   128
 71
   526
 72
   574
 73
  -575
  0
VERTEX
  8
RK-LAVAT
 10
0.0
 20
0.0
 30
0.0
 70
   128
 71
   528
 72
  -527
 73
   576
  0
VERTEX
  8
RK-LAVAT
 10
0.0
 20
0.0
 30
0.0
 70
   128
 71
   527
 72
   575
 73
  -576
  0
VERTEX
  8
RK-LAVAT
 10
0.0
 20
0.0
 30
0.0
 70
   128
 71
   482
 72
  -528
 73
   530
  0
VERTEX
  8
RK-LAVAT
 10
0.0
 20
0.0
 30
0.0
 70
   128
 71
   528
 72
   576
 73
  -530
  0
VERTEX
  8
RK-LAVAT
 10
0.0
 20
0.0
 30
0.0
 70
   128
 71
   529
 72
  -530
 73
   577
  0
VERTEX
  8
RK-LAVAT
 10
0.0
 20
0.0
 30
0.0
 70
   128
 71
   530
 72
   578
 73
  -577
  0
VERTEX
  8
RK-LAVAT
 10
0.0
 20
0.0
 30
0.0
 70
   128
 71
   531
 72
  -529
 73
   579
  0
VERTEX
  8
RK-LAVAT
 10
0.0
 20
0.0
 30
0.0
 70
   128
 71
   529
 72
   577
 73
  -579
  0
VERTEX
  8
RK-LAVAT
 10
0.0
 20
0.0
 30
0.0
 70
   128
 71
   532
 72
  -531
 73
   580
  0
VERTEX
  8
RK-LAVAT
 10
0.0
 20
0.0
 30
0.0
 70
   128
 71
   531
 72
   579
 73
  -580
  0
VERTEX
  8
RK-LAVAT
 10
0.0
 20
0.0
 30
0.0
 70
   128
 71
   533
 72
  -532
 73
   581
  0
VERTEX
  8
RK-LAVAT
 10
0.0
 20
0.0
 30
0.0
 70
   128
 71
   532
 72
   580
 73
  -581
  0
VERTEX
  8
RK-LAVAT
 10
0.0
 20
0.0
 30
0.0
 70
   128
 71
   534
 72
  -533
 73
   582
  0
VERTEX
  8
RK-LAVAT
 10
0.0
 20
0.0
 30
0.0
 70
   128
 71
   533
 72
   581
 73
  -582
  0
VERTEX
  8
RK-LAVAT
 10
0.0
 20
0.0
 30
0.0
 70
   128
 71
   535
 72
  -534
 73
   583
  0
VERTEX
  8
RK-LAVAT
 10
0.0
 20
0.0
 30
0.0
 70
   128
 71
   534
 72
   582
 73
  -583
  0
VERTEX
  8
RK-LAVAT
 10
0.0
 20
0.0
 30
0.0
 70
   128
 71
   536
 72
  -535
 73
   582
  0
VERTEX
  8
RK-LAVAT
 10
0.0
 20
0.0
 30
0.0
 70
   128
 71
   535
 72
   583
 73
  -582
  0
VERTEX
  8
RK-LAVAT
 10
0.0
 20
0.0
 30
0.0
 70
   128
 71
   537
 72
  -536
 73
   584
  0
VERTEX
  8
RK-LAVAT
 10
0.0
 20
0.0
 30
0.0
 70
   128
 71
   536
 72
   582
 73
  -584
  0
VERTEX
  8
RK-LAVAT
 10
0.0
 20
0.0
 30
0.0
 70
   128
 71
   538
 72
  -537
 73
   580
  0
VERTEX
  8
RK-LAVAT
 10
0.0
 20
0.0
 30
0.0
 70
   128
 71
   537
 72
   584
 73
  -580
  0
VERTEX
  8
RK-LAVAT
 10
0.0
 20
0.0
 30
0.0
 70
   128
 71
   539
 72
  -538
 73
   579
  0
VERTEX
  8
RK-LAVAT
 10
0.0
 20
0.0
 30
0.0
 70
   128
 71
   538
 72
   580
 73
  -579
  0
VERTEX
  8
RK-LAVAT
 10
0.0
 20
0.0
 30
0.0
 70
   128
 71
   540
 72
  -539
 73
   577
  0
VERTEX
  8
RK-LAVAT
 10
0.0
 20
0.0
 30
0.0
 70
   128
 71
   539
 72
   579
 73
  -577
  0
VERTEX
  8
RK-LAVAT
 10
0.0
 20
0.0
 30
0.0
 70
   128
 71
   541
 72
  -540
 73
   578
  0
VERTEX
  8
RK-LAVAT
 10
0.0
 20
0.0
 30
0.0
 70
   128
 71
   540
 72
   577
 73
  -578
  0
VERTEX
  8
RK-LAVAT
 10
0.0
 20
0.0
 30
0.0
 70
   128
 71
   542
 72
  -541
 73
   585
  0
VERTEX
  8
RK-LAVAT
 10
0.0
 20
0.0
 30
0.0
 70
   128
 71
   541
 72
   578
 73
  -585
  0
VERTEX
  8
RK-LAVAT
 10
0.0
 20
0.0
 30
0.0
 70
   128
 71
   543
 72
  -542
 73
   586
  0
VERTEX
  8
RK-LAVAT
 10
0.0
 20
0.0
 30
0.0
 70
   128
 71
   542
 72
   585
 73
  -586
  0
VERTEX
  8
RK-LAVAT
 10
0.0
 20
0.0
 30
0.0
 70
   128
 71
   544
 72
  -543
 73
   587
  0
VERTEX
  8
RK-LAVAT
 10
0.0
 20
0.0
 30
0.0
 70
   128
 71
   543
 72
   586
 73
  -587
  0
VERTEX
  8
RK-LAVAT
 10
0.0
 20
0.0
 30
0.0
 70
   128
 71
   545
 72
  -544
 73
   588
  0
VERTEX
  8
RK-LAVAT
 10
0.0
 20
0.0
 30
0.0
 70
   128
 71
   544
 72
   587
 73
  -588
  0
VERTEX
  8
RK-LAVAT
 10
0.0
 20
0.0
 30
0.0
 70
   128
 71
   546
 72
  -545
 73
   589
  0
VERTEX
  8
RK-LAVAT
 10
0.0
 20
0.0
 30
0.0
 70
   128
 71
   545
 72
   588
 73
  -589
  0
VERTEX
  8
RK-LAVAT
 10
0.0
 20
0.0
 30
0.0
 70
   128
 71
   547
 72
  -546
 73
   590
  0
VERTEX
  8
RK-LAVAT
 10
0.0
 20
0.0
 30
0.0
 70
   128
 71
   546
 72
   589
 73
  -590
  0
VERTEX
  8
RK-LAVAT
 10
0.0
 20
0.0
 30
0.0
 70
   128
 71
   548
 72
  -547
 73
   591
  0
VERTEX
  8
RK-LAVAT
 10
0.0
 20
0.0
 30
0.0
 70
   128
 71
   547
 72
   590
 73
  -591
  0
VERTEX
  8
RK-LAVAT
 10
0.0
 20
0.0
 30
0.0
 70
   128
 71
   549
 72
  -548
 73
   592
  0
VERTEX
  8
RK-LAVAT
 10
0.0
 20
0.0
 30
0.0
 70
   128
 71
   548
 72
   591
 73
  -592
  0
VERTEX
  8
RK-LAVAT
 10
0.0
 20
0.0
 30
0.0
 70
   128
 71
   550
 72
  -549
 73
   593
  0
VERTEX
  8
RK-LAVAT
 10
0.0
 20
0.0
 30
0.0
 70
   128
 71
   549
 72
   592
 73
  -593
  0
VERTEX
  8
RK-LAVAT
 10
0.0
 20
0.0
 30
0.0
 70
   128
 71
   551
 72
  -550
 73
   594
  0
VERTEX
  8
RK-LAVAT
 10
0.0
 20
0.0
 30
0.0
 70
   128
 71
   550
 72
   593
 73
  -594
  0
VERTEX
  8
RK-LAVAT
 10
0.0
 20
0.0
 30
0.0
 70
   128
 71
   552
 72
  -551
 73
   595
  0
VERTEX
  8
RK-LAVAT
 10
0.0
 20
0.0
 30
0.0
 70
   128
 71
   551
 72
   594
 73
  -595
  0
VERTEX
  8
RK-LAVAT
 10
0.0
 20
0.0
 30
0.0
 70
   128
 71
   553
 72
  -552
 73
   596
  0
VERTEX
  8
RK-LAVAT
 10
0.0
 20
0.0
 30
0.0
 70
   128
 71
   552
 72
   595
 73
  -596
  0
VERTEX
  8
RK-LAVAT
 10
0.0
 20
0.0
 30
0.0
 70
   128
 71
   554
 72
  -553
 73
   597
  0
VERTEX
  8
RK-LAVAT
 10
0.0
 20
0.0
 30
0.0
 70
   128
 71
   553
 72
   596
 73
  -597
  0
VERTEX
  8
RK-LAVAT
 10
0.0
 20
0.0
 30
0.0
 70
   128
 71
   555
 72
  -554
 73
   598
  0
VERTEX
  8
RK-LAVAT
 10
0.0
 20
0.0
 30
0.0
 70
   128
 71
   554
 72
   597
 73
  -598
  0
VERTEX
  8
RK-LAVAT
 10
0.0
 20
0.0
 30
0.0
 70
   128
 71
   556
 72
  -555
 73
   599
  0
VERTEX
  8
RK-LAVAT
 10
0.0
 20
0.0
 30
0.0
 70
   128
 71
   555
 72
   598
 73
  -599
  0
VERTEX
  8
RK-LAVAT
 10
0.0
 20
0.0
 30
0.0
 70
   128
 71
   557
 72
  -556
 73
   600
  0
VERTEX
  8
RK-LAVAT
 10
0.0
 20
0.0
 30
0.0
 70
   128
 71
   556
 72
   599
 73
  -600
  0
VERTEX
  8
RK-LAVAT
 10
0.0
 20
0.0
 30
0.0
 70
   128
 71
   558
 72
  -557
 73
   601
  0
VERTEX
  8
RK-LAVAT
 10
0.0
 20
0.0
 30
0.0
 70
   128
 71
   557
 72
   600
 73
  -601
  0
VERTEX
  8
RK-LAVAT
 10
0.0
 20
0.0
 30
0.0
 70
   128
 71
   559
 72
  -558
 73
   602
  0
VERTEX
  8
RK-LAVAT
 10
0.0
 20
0.0
 30
0.0
 70
   128
 71
   558
 72
   601
 73
  -602
  0
VERTEX
  8
RK-LAVAT
 10
0.0
 20
0.0
 30
0.0
 70
   128
 71
   560
 72
  -559
 73
   601
  0
VERTEX
  8
RK-LAVAT
 10
0.0
 20
0.0
 30
0.0
 70
   128
 71
   559
 72
   602
 73
  -601
  0
VERTEX
  8
RK-LAVAT
 10
0.0
 20
0.0
 30
0.0
 70
   128
 71
   561
 72
  -560
 73
   600
  0
VERTEX
  8
RK-LAVAT
 10
0.0
 20
0.0
 30
0.0
 70
   128
 71
   560
 72
   601
 73
  -600
  0
VERTEX
  8
RK-LAVAT
 10
0.0
 20
0.0
 30
0.0
 70
   128
 71
   562
 72
  -561
 73
   603
  0
VERTEX
  8
RK-LAVAT
 10
0.0
 20
0.0
 30
0.0
 70
   128
 71
   561
 72
   600
 73
  -603
  0
VERTEX
  8
RK-LAVAT
 10
0.0
 20
0.0
 30
0.0
 70
   128
 71
   563
 72
  -562
 73
   598
  0
VERTEX
  8
RK-LAVAT
 10
0.0
 20
0.0
 30
0.0
 70
   128
 71
   562
 72
   603
 73
  -598
  0
VERTEX
  8
RK-LAVAT
 10
0.0
 20
0.0
 30
0.0
 70
   128
 71
   564
 72
  -563
 73
   604
  0
VERTEX
  8
RK-LAVAT
 10
0.0
 20
0.0
 30
0.0
 70
   128
 71
   563
 72
   598
 73
  -604
  0
VERTEX
  8
RK-LAVAT
 10
0.0
 20
0.0
 30
0.0
 70
   128
 71
   565
 72
  -564
 73
   596
  0
VERTEX
  8
RK-LAVAT
 10
0.0
 20
0.0
 30
0.0
 70
   128
 71
   564
 72
   604
 73
  -596
  0
VERTEX
  8
RK-LAVAT
 10
0.0
 20
0.0
 30
0.0
 70
   128
 71
   566
 72
  -565
 73
   595
  0
VERTEX
  8
RK-LAVAT
 10
0.0
 20
0.0
 30
0.0
 70
   128
 71
   565
 72
   596
 73
  -595
  0
VERTEX
  8
RK-LAVAT
 10
0.0
 20
0.0
 30
0.0
 70
   128
 71
   567
 72
  -566
 73
   594
  0
VERTEX
  8
RK-LAVAT
 10
0.0
 20
0.0
 30
0.0
 70
   128
 71
   566
 72
   595
 73
  -594
  0
VERTEX
  8
RK-LAVAT
 10
0.0
 20
0.0
 30
0.0
 70
   128
 71
   568
 72
  -567
 73
   593
  0
VERTEX
  8
RK-LAVAT
 10
0.0
 20
0.0
 30
0.0
 70
   128
 71
   567
 72
   594
 73
  -593
  0
VERTEX
  8
RK-LAVAT
 10
0.0
 20
0.0
 30
0.0
 70
   128
 71
   569
 72
  -568
 73
   592
  0
VERTEX
  8
RK-LAVAT
 10
0.0
 20
0.0
 30
0.0
 70
   128
 71
   568
 72
   593
 73
  -592
  0
VERTEX
  8
RK-LAVAT
 10
0.0
 20
0.0
 30
0.0
 70
   128
 71
   570
 72
  -569
 73
   591
  0
VERTEX
  8
RK-LAVAT
 10
0.0
 20
0.0
 30
0.0
 70
   128
 71
   569
 72
   592
 73
  -591
  0
VERTEX
  8
RK-LAVAT
 10
0.0
 20
0.0
 30
0.0
 70
   128
 71
   571
 72
  -570
 73
   590
  0
VERTEX
  8
RK-LAVAT
 10
0.0
 20
0.0
 30
0.0
 70
   128
 71
   570
 72
   591
 73
  -590
  0
VERTEX
  8
RK-LAVAT
 10
0.0
 20
0.0
 30
0.0
 70
   128
 71
   572
 72
  -571
 73
   589
  0
VERTEX
  8
RK-LAVAT
 10
0.0
 20
0.0
 30
0.0
 70
   128
 71
   571
 72
   590
 73
  -589
  0
VERTEX
  8
RK-LAVAT
 10
0.0
 20
0.0
 30
0.0
 70
   128
 71
   573
 72
  -572
 73
   588
  0
VERTEX
  8
RK-LAVAT
 10
0.0
 20
0.0
 30
0.0
 70
   128
 71
   572
 72
   589
 73
  -588
  0
VERTEX
  8
RK-LAVAT
 10
0.0
 20
0.0
 30
0.0
 70
   128
 71
   574
 72
  -573
 73
   587
  0
VERTEX
  8
RK-LAVAT
 10
0.0
 20
0.0
 30
0.0
 70
   128
 71
   573
 72
   588
 73
  -587
  0
VERTEX
  8
RK-LAVAT
 10
0.0
 20
0.0
 30
0.0
 70
   128
 71
   575
 72
  -574
 73
   605
  0
VERTEX
  8
RK-LAVAT
 10
0.0
 20
0.0
 30
0.0
 70
   128
 71
   574
 72
   587
 73
  -605
  0
VERTEX
  8
RK-LAVAT
 10
0.0
 20
0.0
 30
0.0
 70
   128
 71
   576
 72
  -575
 73
   585
  0
VERTEX
  8
RK-LAVAT
 10
0.0
 20
0.0
 30
0.0
 70
   128
 71
   575
 72
   605
 73
  -585
  0
VERTEX
  8
RK-LAVAT
 10
0.0
 20
0.0
 30
0.0
 70
   128
 71
   530
 72
  -576
 73
   578
  0
VERTEX
  8
RK-LAVAT
 10
0.0
 20
0.0
 30
0.0
 70
   128
 71
   576
 72
   585
 73
  -578
  0
VERTEX
  8
RK-LAVAT
 10
0.0
 20
0.0
 30
0.0
 70
   128
 71
  -595
 72
   577
 73
  -578
  0
VERTEX
  8
RK-LAVAT
 10
0.0
 20
0.0
 30
0.0
 70
   128
 71
  -608
 72
   606
 73
   607
  0
VERTEX
  8
RK-LAVAT
 10
0.0
 20
0.0
 30
0.0
 70
   128
 71
  -606
 72
   608
 73
   609
  0
VERTEX
  8
RK-LAVAT
 10
0.0
 20
0.0
 30
0.0
 70
   128
 71
  -608
 72
   610
 73
   609
  0
VERTEX
  8
RK-LAVAT
 10
0.0
 20
0.0
 30
0.0
 70
   128
 71
   608
 72
   611
 73
  -610
  0
VERTEX
  8
RK-LAVAT
 10
0.0
 20
0.0
 30
0.0
 70
   128
 71
  -610
 72
   612
 73
   613
  0
VERTEX
  8
RK-LAVAT
 10
0.0
 20
0.0
 30
0.0
 70
   128
 71
   611
 72
  -612
 73
   610
  0
VERTEX
  8
RK-LAVAT
 10
0.0
 20
0.0
 30
0.0
 70
   128
 71
  -615
 72
   612
 73
   614
  0
VERTEX
  8
RK-LAVAT
 10
0.0
 20
0.0
 30
0.0
 70
   128
 71
  -612
 72
   615
 73
   613
  0
VERTEX
  8
RK-LAVAT
 10
0.0
 20
0.0
 30
0.0
 70
   128
 71
  -617
 72
   614
 73
   616
  0
VERTEX
  8
RK-LAVAT
 10
0.0
 20
0.0
 30
0.0
 70
   128
 71
  -614
 72
   617
 73
   615
  0
VERTEX
  8
RK-LAVAT
 10
0.0
 20
0.0
 30
0.0
 70
   128
 71
  -618
 72
   617
 73
   616
  0
VERTEX
  8
RK-LAVAT
 10
0.0
 20
0.0
 30
0.0
 70
   128
 71
  -617
 72
   618
 73
   619
  0
VERTEX
  8
RK-LAVAT
 10
0.0
 20
0.0
 30
0.0
 70
   128
 71
  -618
 72
   620
 73
   619
  0
VERTEX
  8
RK-LAVAT
 10
0.0
 20
0.0
 30
0.0
 70
   128
 71
   618
 72
   621
 73
  -620
  0
VERTEX
  8
RK-LAVAT
 10
0.0
 20
0.0
 30
0.0
 70
   128
 71
  -620
 72
   622
 73
   623
  0
VERTEX
  8
RK-LAVAT
 10
0.0
 20
0.0
 30
0.0
 70
   128
 71
   621
 72
  -622
 73
   620
  0
VERTEX
  8
RK-LAVAT
 10
0.0
 20
0.0
 30
0.0
 70
   128
 71
  -625
 72
   622
 73
   624
  0
VERTEX
  8
RK-LAVAT
 10
0.0
 20
0.0
 30
0.0
 70
   128
 71
  -622
 72
   625
 73
   623
  0
VERTEX
  8
RK-LAVAT
 10
0.0
 20
0.0
 30
0.0
 70
   128
 71
  -627
 72
   624
 73
   626
  0
VERTEX
  8
RK-LAVAT
 10
0.0
 20
0.0
 30
0.0
 70
   128
 71
  -624
 72
   627
 73
   625
  0
VERTEX
  8
RK-LAVAT
 10
0.0
 20
0.0
 30
0.0
 70
   128
 71
  -628
 72
   627
 73
   626
  0
VERTEX
  8
RK-LAVAT
 10
0.0
 20
0.0
 30
0.0
 70
   128
 71
  -627
 72
   628
 73
   629
  0
VERTEX
  8
RK-LAVAT
 10
0.0
 20
0.0
 30
0.0
 70
   128
 71
  -628
 72
   630
 73
   629
  0
VERTEX
  8
RK-LAVAT
 10
0.0
 20
0.0
 30
0.0
 70
   128
 71
   628
 72
   631
 73
  -630
  0
VERTEX
  8
RK-LAVAT
 10
0.0
 20
0.0
 30
0.0
 70
   128
 71
  -630
 72
   632
 73
   633
  0
VERTEX
  8
RK-LAVAT
 10
0.0
 20
0.0
 30
0.0
 70
   128
 71
   631
 72
  -632
 73
   630
  0
VERTEX
  8
RK-LAVAT
 10
0.0
 20
0.0
 30
0.0
 70
   128
 71
  -635
 72
   632
 73
   634
  0
VERTEX
  8
RK-LAVAT
 10
0.0
 20
0.0
 30
0.0
 70
   128
 71
  -632
 72
   635
 73
   633
  0
VERTEX
  8
RK-LAVAT
 10
0.0
 20
0.0
 30
0.0
 70
   128
 71
  -636
 72
   635
 73
   634
  0
VERTEX
  8
RK-LAVAT
 10
0.0
 20
0.0
 30
0.0
 70
   128
 71
  -635
 72
   636
 73
   637
  0
VERTEX
  8
RK-LAVAT
 10
0.0
 20
0.0
 30
0.0
 70
   128
 71
  -636
 72
   638
 73
   637
  0
VERTEX
  8
RK-LAVAT
 10
0.0
 20
0.0
 30
0.0
 70
   128
 71
   636
 72
   639
 73
  -638
  0
VERTEX
  8
RK-LAVAT
 10
0.0
 20
0.0
 30
0.0
 70
   128
 71
  -638
 72
   640
 73
   641
  0
VERTEX
  8
RK-LAVAT
 10
0.0
 20
0.0
 30
0.0
 70
   128
 71
   639
 72
  -640
 73
   638
  0
VERTEX
  8
RK-LAVAT
 10
0.0
 20
0.0
 30
0.0
 70
   128
 71
  -643
 72
   640
 73
   642
  0
VERTEX
  8
RK-LAVAT
 10
0.0
 20
0.0
 30
0.0
 70
   128
 71
  -640
 72
   643
 73
   641
  0
VERTEX
  8
RK-LAVAT
 10
0.0
 20
0.0
 30
0.0
 70
   128
 71
  -644
 72
   643
 73
   642
  0
VERTEX
  8
RK-LAVAT
 10
0.0
 20
0.0
 30
0.0
 70
   128
 71
  -643
 72
   644
 73
   645
  0
VERTEX
  8
RK-LAVAT
 10
0.0
 20
0.0
 30
0.0
 70
   128
 71
  -644
 72
   646
 73
   645
  0
VERTEX
  8
RK-LAVAT
 10
0.0
 20
0.0
 30
0.0
 70
   128
 71
   644
 72
   647
 73
  -646
  0
VERTEX
  8
RK-LAVAT
 10
0.0
 20
0.0
 30
0.0
 70
   128
 71
  -646
 72
   648
 73
   649
  0
VERTEX
  8
RK-LAVAT
 10
0.0
 20
0.0
 30
0.0
 70
   128
 71
   647
 72
  -648
 73
   646
  0
VERTEX
  8
RK-LAVAT
 10
0.0
 20
0.0
 30
0.0
 70
   128
 71
  -651
 72
   648
 73
   650
  0
VERTEX
  8
RK-LAVAT
 10
0.0
 20
0.0
 30
0.0
 70
   128
 71
  -648
 72
   651
 73
   649
  0
VERTEX
  8
RK-LAVAT
 10
0.0
 20
0.0
 30
0.0
 70
   128
 71
  -652
 72
   651
 73
   650
  0
VERTEX
  8
RK-LAVAT
 10
0.0
 20
0.0
 30
0.0
 70
   128
 71
  -651
 72
   652
 73
   653
  0
VERTEX
  8
RK-LAVAT
 10
0.0
 20
0.0
 30
0.0
 70
   128
 71
  -652
 72
   654
 73
   653
  0
VERTEX
  8
RK-LAVAT
 10
0.0
 20
0.0
 30
0.0
 70
   128
 71
   652
 72
   655
 73
  -654
  0
VERTEX
  8
RK-LAVAT
 10
0.0
 20
0.0
 30
0.0
 70
   128
 71
  -654
 72
   656
 73
   657
  0
VERTEX
  8
RK-LAVAT
 10
0.0
 20
0.0
 30
0.0
 70
   128
 71
   655
 72
  -656
 73
   654
  0
VERTEX
  8
RK-LAVAT
 10
0.0
 20
0.0
 30
0.0
 70
   128
 71
  -657
 72
   658
 73
   659
  0
VERTEX
  8
RK-LAVAT
 10
0.0
 20
0.0
 30
0.0
 70
   128
 71
   656
 72
  -658
 73
   657
  0
VERTEX
  8
RK-LAVAT
 10
0.0
 20
0.0
 30
0.0
 70
   128
 71
  -661
 72
   658
 73
   660
  0
VERTEX
  8
RK-LAVAT
 10
0.0
 20
0.0
 30
0.0
 70
   128
 71
  -658
 72
   661
 73
   659
  0
VERTEX
  8
RK-LAVAT
 10
0.0
 20
0.0
 30
0.0
 70
   128
 71
  -662
 72
   661
 73
   660
  0
VERTEX
  8
RK-LAVAT
 10
0.0
 20
0.0
 30
0.0
 70
   128
 71
  -661
 72
   662
 73
   663
  0
VERTEX
  8
RK-LAVAT
 10
0.0
 20
0.0
 30
0.0
 70
   128
 71
  -662
 72
   664
 73
   663
  0
VERTEX
  8
RK-LAVAT
 10
0.0
 20
0.0
 30
0.0
 70
   128
 71
   662
 72
   665
 73
  -664
  0
VERTEX
  8
RK-LAVAT
 10
0.0
 20
0.0
 30
0.0
 70
   128
 71
  -664
 72
   666
 73
   667
  0
VERTEX
  8
RK-LAVAT
 10
0.0
 20
0.0
 30
0.0
 70
   128
 71
   665
 72
  -666
 73
   664
  0
VERTEX
  8
RK-LAVAT
 10
0.0
 20
0.0
 30
0.0
 70
   128
 71
  -667
 72
   668
 73
   669
  0
VERTEX
  8
RK-LAVAT
 10
0.0
 20
0.0
 30
0.0
 70
   128
 71
   666
 72
  -668
 73
   667
  0
VERTEX
  8
RK-LAVAT
 10
0.0
 20
0.0
 30
0.0
 70
   128
 71
  -671
 72
   668
 73
   670
  0
VERTEX
  8
RK-LAVAT
 10
0.0
 20
0.0
 30
0.0
 70
   128
 71
  -668
 72
   671
 73
   669
  0
VERTEX
  8
RK-LAVAT
 10
0.0
 20
0.0
 30
0.0
 70
   128
 71
  -672
 72
   671
 73
   670
  0
VERTEX
  8
RK-LAVAT
 10
0.0
 20
0.0
 30
0.0
 70
   128
 71
  -671
 72
   672
 73
   673
  0
VERTEX
  8
RK-LAVAT
 10
0.0
 20
0.0
 30
0.0
 70
   128
 71
  -672
 72
   674
 73
   673
  0
VERTEX
  8
RK-LAVAT
 10
0.0
 20
0.0
 30
0.0
 70
   128
 71
   672
 72
   675
 73
  -674
  0
VERTEX
  8
RK-LAVAT
 10
0.0
 20
0.0
 30
0.0
 70
   128
 71
  -676
 72
   674
 73
   675
  0
VERTEX
  8
RK-LAVAT
 10
0.0
 20
0.0
 30
0.0
 70
   128
 71
  -674
 72
   676
 73
   677
  0
VERTEX
  8
RK-LAVAT
 10
0.0
 20
0.0
 30
0.0
 70
   128
 71
  -676
 72
   678
 73
   677
  0
VERTEX
  8
RK-LAVAT
 10
0.0
 20
0.0
 30
0.0
 70
   128
 71
   676
 72
   679
 73
  -678
  0
VERTEX
  8
RK-LAVAT
 10
0.0
 20
0.0
 30
0.0
 70
   128
 71
  -678
 72
   680
 73
   681
  0
VERTEX
  8
RK-LAVAT
 10
0.0
 20
0.0
 30
0.0
 70
   128
 71
   679
 72
  -680
 73
   678
  0
VERTEX
  8
RK-LAVAT
 10
0.0
 20
0.0
 30
0.0
 70
   128
 71
  -683
 72
   680
 73
   682
  0
VERTEX
  8
RK-LAVAT
 10
0.0
 20
0.0
 30
0.0
 70
   128
 71
  -680
 72
   683
 73
   681
  0
VERTEX
  8
RK-LAVAT
 10
0.0
 20
0.0
 30
0.0
 70
   128
 71
  -684
 72
   683
 73
   682
  0
VERTEX
  8
RK-LAVAT
 10
0.0
 20
0.0
 30
0.0
 70
   128
 71
  -683
 72
   684
 73
   685
  0
VERTEX
  8
RK-LAVAT
 10
0.0
 20
0.0
 30
0.0
 70
   128
 71
  -684
 72
   686
 73
   685
  0
VERTEX
  8
RK-LAVAT
 10
0.0
 20
0.0
 30
0.0
 70
   128
 71
   684
 72
   687
 73
  -686
  0
VERTEX
  8
RK-LAVAT
 10
0.0
 20
0.0
 30
0.0
 70
   128
 71
  -686
 72
   688
 73
   689
  0
VERTEX
  8
RK-LAVAT
 10
0.0
 20
0.0
 30
0.0
 70
   128
 71
   687
 72
  -688
 73
   686
  0
VERTEX
  8
RK-LAVAT
 10
0.0
 20
0.0
 30
0.0
 70
   128
 71
  -691
 72
   688
 73
   690
  0
VERTEX
  8
RK-LAVAT
 10
0.0
 20
0.0
 30
0.0
 70
   128
 71
  -688
 72
   691
 73
   689
  0
VERTEX
  8
RK-LAVAT
 10
0.0
 20
0.0
 30
0.0
 70
   128
 71
  -692
 72
   691
 73
   690
  0
VERTEX
  8
RK-LAVAT
 10
0.0
 20
0.0
 30
0.0
 70
   128
 71
  -691
 72
   692
 73
   693
  0
VERTEX
  8
RK-LAVAT
 10
0.0
 20
0.0
 30
0.0
 70
   128
 71
  -692
 72
   694
 73
   693
  0
VERTEX
  8
RK-LAVAT
 10
0.0
 20
0.0
 30
0.0
 70
   128
 71
   692
 72
   695
 73
  -694
  0
VERTEX
  8
RK-LAVAT
 10
0.0
 20
0.0
 30
0.0
 70
   128
 71
  -694
 72
   696
 73
   697
  0
VERTEX
  8
RK-LAVAT
 10
0.0
 20
0.0
 30
0.0
 70
   128
 71
   695
 72
  -696
 73
   694
  0
VERTEX
  8
RK-LAVAT
 10
0.0
 20
0.0
 30
0.0
 70
   128
 71
  -699
 72
   696
 73
   698
  0
VERTEX
  8
RK-LAVAT
 10
0.0
 20
0.0
 30
0.0
 70
   128
 71
  -696
 72
   699
 73
   697
  0
VERTEX
  8
RK-LAVAT
 10
0.0
 20
0.0
 30
0.0
 70
   128
 71
  -700
 72
   699
 73
   698
  0
VERTEX
  8
RK-LAVAT
 10
0.0
 20
0.0
 30
0.0
 70
   128
 71
  -699
 72
   700
 73
   701
  0
VERTEX
  8
RK-LAVAT
 10
0.0
 20
0.0
 30
0.0
 70
   128
 71
  -700
 72
   702
 73
   701
  0
VERTEX
  8
RK-LAVAT
 10
0.0
 20
0.0
 30
0.0
 70
   128
 71
   700
 72
   703
 73
  -702
  0
VERTEX
  8
RK-LAVAT
 10
0.0
 20
0.0
 30
0.0
 70
   128
 71
  -702
 72
   704
 73
   705
  0
VERTEX
  8
RK-LAVAT
 10
0.0
 20
0.0
 30
0.0
 70
   128
 71
   703
 72
  -704
 73
   702
  0
VERTEX
  8
RK-LAVAT
 10
0.0
 20
0.0
 30
0.0
 70
   128
 71
  -707
 72
   704
 73
   706
  0
VERTEX
  8
RK-LAVAT
 10
0.0
 20
0.0
 30
0.0
 70
   128
 71
  -704
 72
   707
 73
   705
  0
VERTEX
  8
RK-LAVAT
 10
0.0
 20
0.0
 30
0.0
 70
   128
 71
  -708
 72
   707
 73
   706
  0
VERTEX
  8
RK-LAVAT
 10
0.0
 20
0.0
 30
0.0
 70
   128
 71
  -707
 72
   708
 73
   709
  0
VERTEX
  8
RK-LAVAT
 10
0.0
 20
0.0
 30
0.0
 70
   128
 71
  -708
 72
   606
 73
   709
  0
VERTEX
  8
RK-LAVAT
 10
0.0
 20
0.0
 30
0.0
 70
   128
 71
   708
 72
   607
 73
  -606
  0
VERTEX
  8
RK-LAVAT
 10
0.0
 20
0.0
 30
0.0
 70
   128
 71
  -666
 72
   710
 73
  -711
  0
VERTEX
  8
RK-LAVAT
 10
0.0
 20
0.0
 30
0.0
 70
   128
 71
  -666
 72
   712
 73
  -710
  0
VERTEX
  8
RK-LAVAT
 10
0.0
 20
0.0
 30
0.0
 70
   128
 71
  -665
 72
  -712
 73
   666
  0
VERTEX
  8
RK-LAVAT
 10
0.0
 20
0.0
 30
0.0
 70
   128
 71
  -662
 72
  -712
 73
   665
  0
VERTEX
  8
RK-LAVAT
 10
0.0
 20
0.0
 30
0.0
 70
   128
 71
  -662
 72
   713
 73
  -712
  0
VERTEX
  8
RK-LAVAT
 10
0.0
 20
0.0
 30
0.0
 70
   128
 71
  -660
 72
  -713
 73
   662
  0
VERTEX
  8
RK-LAVAT
 10
0.0
 20
0.0
 30
0.0
 70
   128
 71
  -660
 72
   714
 73
  -713
  0
VERTEX
  8
RK-LAVAT
 10
0.0
 20
0.0
 30
0.0
 70
   128
 71
  -658
 72
  -714
 73
   660
  0
VERTEX
  8
RK-LAVAT
 10
0.0
 20
0.0
 30
0.0
 70
   128
 71
  -658
 72
   715
 73
  -714
  0
VERTEX
  8
RK-LAVAT
 10
0.0
 20
0.0
 30
0.0
 70
   128
 71
  -656
 72
  -715
 73
   658
  0
VERTEX
  8
RK-LAVAT
 10
0.0
 20
0.0
 30
0.0
 70
   128
 71
  -655
 72
  -715
 73
   656
  0
VERTEX
  8
RK-LAVAT
 10
0.0
 20
0.0
 30
0.0
 70
   128
 71
  -652
 72
  -715
 73
   655
  0
VERTEX
  8
RK-LAVAT
 10
0.0
 20
0.0
 30
0.0
 70
   128
 71
  -652
 72
   716
 73
  -715
  0
VERTEX
  8
RK-LAVAT
 10
0.0
 20
0.0
 30
0.0
 70
   128
 71
  -650
 72
  -716
 73
   652
  0
VERTEX
  8
RK-LAVAT
 10
0.0
 20
0.0
 30
0.0
 70
   128
 71
  -650
 72
   717
 73
  -716
  0
VERTEX
  8
RK-LAVAT
 10
0.0
 20
0.0
 30
0.0
 70
   128
 71
  -648
 72
  -717
 73
   650
  0
VERTEX
  8
RK-LAVAT
 10
0.0
 20
0.0
 30
0.0
 70
   128
 71
  -648
 72
   718
 73
  -717
  0
VERTEX
  8
RK-LAVAT
 10
0.0
 20
0.0
 30
0.0
 70
   128
 71
  -647
 72
  -718
 73
   648
  0
VERTEX
  8
RK-LAVAT
 10
0.0
 20
0.0
 30
0.0
 70
   128
 71
  -647
 72
   719
 73
  -718
  0
VERTEX
  8
RK-LAVAT
 10
0.0
 20
0.0
 30
0.0
 70
   128
 71
  -644
 72
  -719
 73
   647
  0
VERTEX
  8
RK-LAVAT
 10
0.0
 20
0.0
 30
0.0
 70
   128
 71
  -644
 72
   720
 73
  -719
  0
VERTEX
  8
RK-LAVAT
 10
0.0
 20
0.0
 30
0.0
 70
   128
 71
  -642
 72
  -720
 73
   644
  0
VERTEX
  8
RK-LAVAT
 10
0.0
 20
0.0
 30
0.0
 70
   128
 71
  -642
 72
   721
 73
  -720
  0
VERTEX
  8
RK-LAVAT
 10
0.0
 20
0.0
 30
0.0
 70
   128
 71
  -640
 72
  -721
 73
   642
  0
VERTEX
  8
RK-LAVAT
 10
0.0
 20
0.0
 30
0.0
 70
   128
 71
  -640
 72
   722
 73
  -721
  0
VERTEX
  8
RK-LAVAT
 10
0.0
 20
0.0
 30
0.0
 70
   128
 71
  -639
 72
  -722
 73
   640
  0
VERTEX
  8
RK-LAVAT
 10
0.0
 20
0.0
 30
0.0
 70
   128
 71
  -639
 72
   723
 73
  -722
  0
VERTEX
  8
RK-LAVAT
 10
0.0
 20
0.0
 30
0.0
 70
   128
 71
  -636
 72
  -723
 73
   639
  0
VERTEX
  8
RK-LAVAT
 10
0.0
 20
0.0
 30
0.0
 70
   128
 71
  -636
 72
   724
 73
  -723
  0
VERTEX
  8
RK-LAVAT
 10
0.0
 20
0.0
 30
0.0
 70
   128
 71
  -632
 72
   636
 73
   634
  0
VERTEX
  8
RK-LAVAT
 10
0.0
 20
0.0
 30
0.0
 70
   128
 71
  -628
 72
   632
 73
   631
  0
VERTEX
  8
RK-LAVAT
 10
0.0
 20
0.0
 30
0.0
 70
   128
 71
  -624
 72
   628
 73
   626
  0
VERTEX
  8
RK-LAVAT
 10
0.0
 20
0.0
 30
0.0
 70
   128
 71
  -621
 72
   624
 73
   622
  0
VERTEX
  8
RK-LAVAT
 10
0.0
 20
0.0
 30
0.0
 70
   128
 71
  -616
 72
   621
 73
   618
  0
VERTEX
  8
RK-LAVAT
 10
0.0
 20
0.0
 30
0.0
 70
   128
 71
  -612
 72
   616
 73
   614
  0
VERTEX
  8
RK-LAVAT
 10
0.0
 20
0.0
 30
0.0
 70
   128
 71
  -608
 72
   612
 73
   611
  0
VERTEX
  8
RK-LAVAT
 10
0.0
 20
0.0
 30
0.0
 70
   128
 71
  -708
 72
   608
 73
   607
  0
VERTEX
  8
RK-LAVAT
 10
0.0
 20
0.0
 30
0.0
 70
   128
 71
  -704
 72
   708
 73
   706
  0
VERTEX
  8
RK-LAVAT
 10
0.0
 20
0.0
 30
0.0
 70
   128
 71
  -700
 72
   704
 73
   703
  0
VERTEX
  8
RK-LAVAT
 10
0.0
 20
0.0
 30
0.0
 70
   128
 71
  -696
 72
   700
 73
   698
  0
VERTEX
  8
RK-LAVAT
 10
0.0
 20
0.0
 30
0.0
 70
   128
 71
  -692
 72
   696
 73
   695
  0
VERTEX
  8
RK-LAVAT
 10
0.0
 20
0.0
 30
0.0
 70
   128
 71
  -688
 72
   692
 73
   690
  0
VERTEX
  8
RK-LAVAT
 10
0.0
 20
0.0
 30
0.0
 70
   128
 71
  -684
 72
   688
 73
   687
  0
VERTEX
  8
RK-LAVAT
 10
0.0
 20
0.0
 30
0.0
 70
   128
 71
  -680
 72
   684
 73
   682
  0
VERTEX
  8
RK-LAVAT
 10
0.0
 20
0.0
 30
0.0
 70
   128
 71
  -676
 72
   680
 73
   679
  0
VERTEX
  8
RK-LAVAT
 10
0.0
 20
0.0
 30
0.0
 70
   128
 71
  -672
 72
   676
 73
   675
  0
VERTEX
  8
RK-LAVAT
 10
0.0
 20
0.0
 30
0.0
 70
   128
 71
  -668
 72
   672
 73
   670
  0
VERTEX
  8
RK-LAVAT
 10
0.0
 20
0.0
 30
0.0
 70
   128
 71
  -725
 72
   668
 73
  -666
  0
VERTEX
  8
RK-LAVAT
 10
0.0
 20
0.0
 30
0.0
 70
   128
 71
  -632
 72
  -724
 73
  -636
  0
VERTEX
  8
RK-LAVAT
 10
0.0
 20
0.0
 30
0.0
 70
   128
 71
  -632
 72
   726
 73
  -724
  0
VERTEX
  8
RK-LAVAT
 10
0.0
 20
0.0
 30
0.0
 70
   128
 71
  -632
 72
   727
 73
  -726
  0
VERTEX
  8
RK-LAVAT
 10
0.0
 20
0.0
 30
0.0
 70
   128
 71
  -632
 72
   728
 73
  -727
  0
VERTEX
  8
RK-LAVAT
 10
0.0
 20
0.0
 30
0.0
 70
   128
 71
  -628
 72
  -728
 73
  -632
  0
VERTEX
  8
RK-LAVAT
 10
0.0
 20
0.0
 30
0.0
 70
   128
 71
  -628
 72
   729
 73
  -728
  0
VERTEX
  8
RK-LAVAT
 10
0.0
 20
0.0
 30
0.0
 70
   128
 71
  -628
 72
   730
 73
  -729
  0
VERTEX
  8
RK-LAVAT
 10
0.0
 20
0.0
 30
0.0
 70
   128
 71
  -628
 72
   731
 73
  -730
  0
VERTEX
  8
RK-LAVAT
 10
0.0
 20
0.0
 30
0.0
 70
   128
 71
  -624
 72
  -731
 73
  -628
  0
VERTEX
  8
RK-LAVAT
 10
0.0
 20
0.0
 30
0.0
 70
   128
 71
  -624
 72
   732
 73
  -731
  0
VERTEX
  8
RK-LAVAT
 10
0.0
 20
0.0
 30
0.0
 70
   128
 71
  -624
 72
   733
 73
  -732
  0
VERTEX
  8
RK-LAVAT
 10
0.0
 20
0.0
 30
0.0
 70
   128
 71
  -621
 72
  -733
 73
  -624
  0
VERTEX
  8
RK-LAVAT
 10
0.0
 20
0.0
 30
0.0
 70
   128
 71
  -621
 72
   734
 73
  -733
  0
VERTEX
  8
RK-LAVAT
 10
0.0
 20
0.0
 30
0.0
 70
   128
 71
  -621
 72
   735
 73
  -734
  0
VERTEX
  8
RK-LAVAT
 10
0.0
 20
0.0
 30
0.0
 70
   128
 71
  -616
 72
  -735
 73
  -621
  0
VERTEX
  8
RK-LAVAT
 10
0.0
 20
0.0
 30
0.0
 70
   128
 71
  -616
 72
   736
 73
  -735
  0
VERTEX
  8
RK-LAVAT
 10
0.0
 20
0.0
 30
0.0
 70
   128
 71
  -616
 72
   737
 73
  -736
  0
VERTEX
  8
RK-LAVAT
 10
0.0
 20
0.0
 30
0.0
 70
   128
 71
  -616
 72
   738
 73
  -737
  0
VERTEX
  8
RK-LAVAT
 10
0.0
 20
0.0
 30
0.0
 70
   128
 71
  -612
 72
  -738
 73
  -616
  0
VERTEX
  8
RK-LAVAT
 10
0.0
 20
0.0
 30
0.0
 70
   128
 71
  -612
 72
   739
 73
  -738
  0
VERTEX
  8
RK-LAVAT
 10
0.0
 20
0.0
 30
0.0
 70
   128
 71
  -608
 72
  -739
 73
  -612
  0
VERTEX
  8
RK-LAVAT
 10
0.0
 20
0.0
 30
0.0
 70
   128
 71
  -704
 72
  -608
 73
  -708
  0
VERTEX
  8
RK-LAVAT
 10
0.0
 20
0.0
 30
0.0
 70
   128
 71
  -696
 72
  -704
 73
  -700
  0
VERTEX
  8
RK-LAVAT
 10
0.0
 20
0.0
 30
0.0
 70
   128
 71
  -688
 72
  -696
 73
  -692
  0
VERTEX
  8
RK-LAVAT
 10
0.0
 20
0.0
 30
0.0
 70
   128
 71
  -680
 72
  -688
 73
  -684
  0
VERTEX
  8
RK-LAVAT
 10
0.0
 20
0.0
 30
0.0
 70
   128
 71
  -672
 72
  -680
 73
  -676
  0
VERTEX
  8
RK-LAVAT
 10
0.0
 20
0.0
 30
0.0
 70
   128
 71
  -725
 72
  -672
 73
  -668
  0
VERTEX
  8
RK-LAVAT
 10
0.0
 20
0.0
 30
0.0
 70
   128
 71
  -740
 72
  -672
 73
   725
  0
VERTEX
  8
RK-LAVAT
 10
0.0
 20
0.0
 30
0.0
 70
   128
 71
  -608
 72
   741
 73
  -739
  0
VERTEX
  8
RK-LAVAT
 10
0.0
 20
0.0
 30
0.0
 70
   128
 71
  -608
 72
   742
 73
  -741
  0
VERTEX
  8
RK-LAVAT
 10
0.0
 20
0.0
 30
0.0
 70
   128
 71
  -704
 72
  -742
 73
  -608
  0
VERTEX
  8
RK-LAVAT
 10
0.0
 20
0.0
 30
0.0
 70
   128
 71
  -704
 72
   743
 73
  -742
  0
VERTEX
  8
RK-LAVAT
 10
0.0
 20
0.0
 30
0.0
 70
   128
 71
  -704
 72
   744
 73
  -743
  0
VERTEX
  8
RK-LAVAT
 10
0.0
 20
0.0
 30
0.0
 70
   128
 71
  -696
 72
  -744
 73
  -704
  0
VERTEX
  8
RK-LAVAT
 10
0.0
 20
0.0
 30
0.0
 70
   128
 71
  -696
 72
   745
 73
  -744
  0
VERTEX
  8
RK-LAVAT
 10
0.0
 20
0.0
 30
0.0
 70
   128
 71
  -696
 72
   746
 73
  -745
  0
VERTEX
  8
RK-LAVAT
 10
0.0
 20
0.0
 30
0.0
 70
   128
 71
  -696
 72
   747
 73
  -746
  0
VERTEX
  8
RK-LAVAT
 10
0.0
 20
0.0
 30
0.0
 70
   128
 71
  -696
 72
   748
 73
  -747
  0
VERTEX
  8
RK-LAVAT
 10
0.0
 20
0.0
 30
0.0
 70
   128
 71
  -688
 72
  -748
 73
  -696
  0
VERTEX
  8
RK-LAVAT
 10
0.0
 20
0.0
 30
0.0
 70
   128
 71
  -672
 72
  -688
 73
  -680
  0
VERTEX
  8
RK-LAVAT
 10
0.0
 20
0.0
 30
0.0
 70
   128
 71
  -749
 72
  -672
 73
   740
  0
VERTEX
  8
RK-LAVAT
 10
0.0
 20
0.0
 30
0.0
 70
   128
 71
  -750
 72
  -672
 73
   749
  0
VERTEX
  8
RK-LAVAT
 10
0.0
 20
0.0
 30
0.0
 70
   128
 71
  -688
 72
   751
 73
  -748
  0
VERTEX
  8
RK-LAVAT
 10
0.0
 20
0.0
 30
0.0
 70
   128
 71
  -688
 72
   752
 73
  -751
  0
VERTEX
  8
RK-LAVAT
 10
0.0
 20
0.0
 30
0.0
 70
   128
 71
  -688
 72
   753
 73
  -752
  0
VERTEX
  8
RK-LAVAT
 10
0.0
 20
0.0
 30
0.0
 70
   128
 71
  -688
 72
   754
 73
  -753
  0
VERTEX
  8
RK-LAVAT
 10
0.0
 20
0.0
 30
0.0
 70
   128
 71
  -672
 72
  -754
 73
  -688
  0
VERTEX
  8
RK-LAVAT
 10
0.0
 20
0.0
 30
0.0
 70
   128
 71
  -755
 72
  -672
 73
   750
  0
VERTEX
  8
RK-LAVAT
 10
0.0
 20
0.0
 30
0.0
 70
   128
 71
  -756
 72
  -672
 73
   755
  0
VERTEX
  8
RK-LAVAT
 10
0.0
 20
0.0
 30
0.0
 70
   128
 71
  -672
 72
   757
 73
  -754
  0
VERTEX
  8
RK-LAVAT
 10
0.0
 20
0.0
 30
0.0
 70
   128
 71
  -672
 72
   758
 73
  -757
  0
VERTEX
  8
RK-LAVAT
 10
0.0
 20
0.0
 30
0.0
 70
   128
 71
  -672
 72
   756
 73
  -758
  0
VERTEX
  8
RK-LAVAT
 10
0.0
 20
0.0
 30
0.0
 70
   128
 71
  -666
 72
   759
 73
  -725
  0
VERTEX
  8
RK-LAVAT
 10
0.0
 20
0.0
 30
0.0
 70
   128
 71
  -666
 72
   760
 73
  -759
  0
VERTEX
  8
RK-LAVAT
 10
0.0
 20
0.0
 30
0.0
 70
   128
 71
  -666
 72
   761
 73
  -760
  0
VERTEX
  8
RK-LAVAT
 10
0.0
 20
0.0
 30
0.0
 70
   128
 71
  -666
 72
   711
 73
  -761
  0
VERTEX
  8
RK-LAVAT
 10
0.0
 20
0.0
 30
0.0
 70
   128
 71
   625
 72
  -627
 73
   623
  0
VERTEX
  8
RK-LAVAT
 10
0.0
 20
0.0
 30
0.0
 70
   128
 71
   613
 72
  -615
 73
   610
  0
VERTEX
  8
RK-LAVAT
 10
0.0
 20
0.0
 30
0.0
 70
   128
 71
   709
 72
  -606
 73
   707
  0
VERTEX
  8
RK-LAVAT
 10
0.0
 20
0.0
 30
0.0
 70
   128
 71
   677
 72
  -678
 73
   674
  0
VERTEX
  8
RK-LAVAT
 10
0.0
 20
0.0
 30
0.0
 70
   128
 71
   673
 72
  -674
 73
   671
  0
VERTEX
  8
RK-LAVAT
 10
0.0
 20
0.0
 30
0.0
 70
   128
 71
   669
 72
  -671
 73
   667
  0
SEQEND
  8
RK-LAVAT
  0
INSERT
  8
0
  2
STRAINS
 10
10.70546382442515
 20
-3.763016076838129
 30
0.0599979999999993
 41
0.7
 42
0.7
 43
0.7
  0
INSERT
  8
0
  2
02211PLN
 10
0.0933075562631913
 20
-17.15658890535507
 30
5.499997999999999
  0
ENDSEC
  0
EOF
