  0
SECTION
  2
HEADER
  9
$ACADVER
  1
AC1009
  9
$INSBASE
 10
0.0
 20
0.0
 30
0.0
  9
$EXTMIN
 10
-0.5158688848069517
 20
-16.66803772264943
 30
0.0
  9
$EXTMAX
 10
23.72949869094993
 20
3.166534996581878
 30
6.0
  9
$LIMMIN
 10
0.0
 20
0.0
  9
$LIMMAX
 10
12.0
 20
9.0
  9
$ORTHOMODE
 70
     1
  9
$REGENMODE
 70
     1
  9
$FILLMODE
 70
     1
  9
$QTEXTMODE
 70
     0
  9
$MIRRTEXT
 70
     1
  9
$DRAGMODE
 70
     2
  9
$LTSCALE
 40
1.0
  9
$OSMODE
 70
     0
  9
$ATTMODE
 70
     1
  9
$TEXTSIZE
 40
0.2
  9
$TRACEWID
 40
0.05
  9
$TEXTSTYLE
  7
STANDARD
  9
$CLAYER
  8
0
  9
$CELTYPE
  6
BYLAYER
  9
$CECOLOR
 62
   256
  9
$DIMSCALE
 40
1.0
  9
$DIMASZ
 40
0.18
  9
$DIMEXO
 40
0.0625
  9
$DIMDLI
 40
0.38
  9
$DIMRND
 40
0.0
  9
$DIMDLE
 40
0.0
  9
$DIMEXE
 40
0.18
  9
$DIMTP
 40
0.0
  9
$DIMTM
 40
0.0
  9
$DIMTXT
 40
0.18
  9
$DIMCEN
 40
0.09
  9
$DIMTSZ
 40
0.0
  9
$DIMTOL
 70
     0
  9
$DIMLIM
 70
     0
  9
$DIMTIH
 70
     1
  9
$DIMTOH
 70
     1
  9
$DIMSE1
 70
     0
  9
$DIMSE2
 70
     0
  9
$DIMTAD
 70
     0
  9
$DIMZIN
 70
     0
  9
$DIMBLK
  1

  9
$DIMASO
 70
     1
  9
$DIMSHO
 70
     1
  9
$DIMPOST
  1

  9
$DIMAPOST
  1

  9
$DIMALT
 70
     0
  9
$DIMALTD
 70
     2
  9
$DIMALTF
 40
25.4
  9
$DIMLFAC
 40
1.0
  9
$DIMTOFL
 70
     0
  9
$DIMTVP
 40
0.0
  9
$DIMTIX
 70
     0
  9
$DIMSOXD
 70
     0
  9
$DIMSAH
 70
     0
  9
$DIMBLK1
  1

  9
$DIMBLK2
  1

  9
$DIMSTYLE
  2
*UNNAMED
  9
$DIMCLRD
 70
     0
  9
$DIMCLRE
 70
     0
  9
$DIMCLRT
 70
     0
  9
$DIMTFAC
 40
1.0
  9
$DIMGAP
 40
0.09
  9
$LUNITS
 70
     2
  9
$LUPREC
 70
     4
  9
$SKETCHINC
 40
0.1
  9
$FILLETRAD
 40
0.0
  9
$AUNITS
 70
     0
  9
$AUPREC
 70
     0
  9
$MENU
  1
acad
  9
$ELEVATION
 40
0.0
  9
$PELEVATION
 40
0.0
  9
$THICKNESS
 40
0.0
  9
$LIMCHECK
 70
     0
  9
$BLIPMODE
 70
     0
  9
$CHAMFERA
 40
0.0
  9
$CHAMFERB
 40
0.0
  9
$SKPOLY
 70
     0
  9
$TDCREATE
 40
2449710.621321065
  9
$TDUPDATE
 40
2449757.529299190
  9
$TDINDWG
 40
0.0001398148
  9
$TDUSRTIMER
 40
0.0001398148
  9
$USRTIMER
 70
     1
  9
$ANGBASE
 50
0.0
  9
$ANGDIR
 70
     0
  9
$PDMODE
 70
     0
  9
$PDSIZE
 40
0.0
  9
$PLINEWID
 40
0.0
  9
$COORDS
 70
     1
  9
$SPLFRAME
 70
     0
  9
$SPLINETYPE
 70
     6
  9
$SPLINESEGS
 70
     8
  9
$ATTDIA
 70
     0
  9
$ATTREQ
 70
     1
  9
$HANDLING
 70
     0
  9
$HANDSEED
  5
0
  9
$SURFTAB1
 70
     6
  9
$SURFTAB2
 70
     6
  9
$SURFTYPE
 70
     6
  9
$SURFU
 70
     6
  9
$SURFV
 70
     6
  9
$UCSNAME
  2

  9
$UCSORG
 10
0.0
 20
0.0
 30
0.0
  9
$UCSXDIR
 10
1.0
 20
0.0
 30
0.0
  9
$UCSYDIR
 10
0.0
 20
1.0
 30
0.0
  9
$PUCSNAME
  2

  9
$PUCSORG
 10
0.0
 20
0.0
 30
0.0
  9
$PUCSXDIR
 10
1.0
 20
0.0
 30
0.0
  9
$PUCSYDIR
 10
0.0
 20
1.0
 30
0.0
  9
$USERI1
 70
     0
  9
$USERI2
 70
     0
  9
$USERI3
 70
     0
  9
$USERI4
 70
     0
  9
$USERI5
 70
     0
  9
$USERR1
 40
0.0
  9
$USERR2
 40
0.0
  9
$USERR3
 40
0.0
  9
$USERR4
 40
0.0
  9
$USERR5
 40
0.0
  9
$WORLDVIEW
 70
     1
  9
$SHADEDGE
 70
     3
  9
$SHADEDIF
 70
    70
  9
$TILEMODE
 70
     1
  9
$MAXACTVP
 70
    16
  9
$PINSBASE
 10
0.0
 20
0.0
 30
2.123817452417862
  9
$PLIMCHECK
 70
     0
  9
$PEXTMIN
 10
1.000000000000000E+20
 20
1.000000000000000E+20
 30
1.000000000000000E+20
  9
$PEXTMAX
 10
-1.000000000000000E+20
 20
-1.000000000000000E+20
 30
-1.000000000000000E+20
  9
$PLIMMIN
 10
0.0
 20
0.0
  9
$PLIMMAX
 10
12.0
 20
9.0
  9
$UNITMODE
 70
     0
  9
$VISRETAIN
 70
     0
  9
$PLINEGEN
 70
     0
  9
$PSLTSCALE
 70
     1
  9
$TREEDEPTH
 70
  3020
  9
$DWGCODEPAGE
  3
ascii
  0
ENDSEC
  0
SECTION
  2
TABLES
  0
TABLE
  2
VPORT
 70
     1
  0
VPORT
  2
*ACTIVE
 70
     0
 10
0.0
 20
0.0
 11
1.0
 21
1.0
 12
17.76882130858325
 22
0.609534466562975
 13
0.0
 23
0.0
 14
1.0
 24
1.0
 15
0.0
 25
0.0
 16
-0.241844762647975
 26
-0.6644630243886748
 36
0.7071067811865475
 17
0.0
 27
0.0
 37
0.0
 40
22.7170828170078
 41
1.661211129296235
 42
50.0
 43
0.0
 44
0.0
 50
0.0
 51
0.0
 71
     0
 72
   100
 73
     1
 74
     0
 75
     0
 76
     0
 77
     0
 78
     0
  0
ENDTAB
  0
TABLE
  2
LTYPE
 70
     1
  0
LTYPE
  2
CONTINUOUS
 70
    64
  3
Solid line
 72
    65
 73
     0
 40
0.0
  0
ENDTAB
  0
TABLE
  2
LAYER
 70
     5
  0
LAYER
  2
0
 70
    64
 62
     7
  6
CONTINUOUS
  0
LAYER
  2
RK-LAVAT
 70
    64
 62
     7
  6
CONTINUOUS
  0
LAYER
  2
CNTRCUTR
 70
    64
 62
     7
  6
CONTINUOUS
  0
LAYER
  2
FK-FOOTP
 70
    64
 62
     7
  6
CONTINUOUS
  0
LAYER
  2
RK-DRAIN
 70
    64
 62
     7
  6
CONTINUOUS
  0
ENDTAB
  0
TABLE
  2
STYLE
 70
     1
  0
STYLE
  2
STANDARD
 70
     0
 40
0.0
 41
1.0
 50
0.0
 71
     0
 42
0.2
  3
txt
  4

  0
ENDTAB
  0
TABLE
  2
VIEW
 70
     0
  0
ENDTAB
  0
TABLE
  2
UCS
 70
     0
  0
ENDTAB
  0
TABLE
  2
APPID
 70
     3
  0
APPID
  2
ACAD
 70
    64
  0
APPID
  2
CDKT-SIZ
 70
    64
  0
APPID
  2
CDKT-STR2
 70
    64
  0
ENDTAB
  0
TABLE
  2
DIMSTYLE
 70
     0
  0
ENDTAB
  0
ENDSEC
  0
SECTION
  2
BLOCKS
  0
BLOCK
  8
0
  2
02215PLN
 70
    64
 10
0.0
 20
0.0
 30
0.0
  3
02215PLN
  0
ARC
  8
FK-FOOTP
 10
20.20555222378848
 20
3.120195439739413
 30
0.0
 40
1.19657980456026
 50
268.8999999923142
 51
1.099999999968559
  0
ARC
  8
FK-FOOTP
 10
20.82656199577546
 20
2.42345276872964
 30
0.0
 40
2.423452768729642
 50
270.1999999922771
 51
359.7999999897162
  0
ARC
  8
FK-FOOTP
 10
20.82656199577546
 20
13.82654723127035
 30
0.0
 40
2.423452768729642
 50
0.1999999999942836
 51
89.79999999743332
  0
ARC
  8
FK-FOOTP
 10
20.70538935733897
 20
13.69022801302931
 30
0.0
 40
1.19657980456026
 50
358.8999999897418
 51
91.09999999739619
  0
ARC
  8
FK-FOOTP
 10
20.70538935733897
 20
2.529478827361566
 30
0.0
 40
1.19657980456026
 50
268.8999999923142
 51
1.099999999968559
  0
ARC
  8
FK-FOOTP
 10
11.60986080245174
 20
-28.29695954581522
 30
0.0
 40
31.41715498555464
 50
74.15868634495258
 51
105.841313649889
  0
ARC
  8
FK-FOOTP
 10
2.999022801302931
 20
3.120195439739413
 30
0.0
 40
1.19657980456026
 50
178.8999999948866
 51
271.0999999922514
  0
CIRCLE
  8
FK-FOOTP
 10
11.61742671009771
 20
12.5
 30
0.0
 40
0.875
  0
ARC
  8
FK-FOOTP
 10
2.423452768729642
 20
13.82654723127035
 30
0.0
 40
2.423452768729642
 50
90.19999999742191
 51
179.7999999948609
  0
ARC
  8
FK-FOOTP
 10
2.423452768729642
 20
2.42345276872964
 30
0.0
 40
2.423452768729642
 50
180.1999999948495
 51
269.7999999922885
  0
ARC
  8
FK-FOOTP
 10
2.423452768729642
 20
2.529478827361566
 30
0.0
 40
1.19657980456026
 50
178.8999999948866
 51
271.0999999922514
  0
ARC
  8
FK-FOOTP
 10
2.423452768729642
 20
13.69022801302931
 30
0.0
 40
1.19657980456026
 50
88.89999999745906
 51
181.0999999948237
  0
LINE
  8
FK-FOOTP
 10
21.90196916189924
 20
2.544625407166124
 30
0.0
 11
21.90196916189924
 21
13.67508143322475
 31
0.0
  0
LINE
  8
FK-FOOTP
 10
23.2500147645051
 20
13.82654723127035
 30
0.0
 11
23.2500147645051
 21
2.42345276872964
 31
0.0
  0
LINE
  8
FK-FOOTP
 10
2.438599348534202
 20
14.88680781758957
 30
0.0
 11
20.69024277753441
 21
14.88680781758957
 31
0.0
  0
LINE
  8
FK-FOOTP
 10
2.438599348534202
 20
1.332899022801301
 30
0.0
 11
20.69024277753441
 21
1.332899022801301
 31
0.0
  0
LINE
  8
FK-FOOTP
 10
1.22687296416938
 20
13.67508143322475
 30
0.0
 11
1.22687296416938
 21
2.544625407166124
 31
0.0
  0
LINE
  8
FK-FOOTP
 10
2.423452768729642
 20
0.0
 30
0.0
 11
20.82656199577546
 21
0.0
 31
0.0
  0
LINE
  8
FK-FOOTP
 10
0.0
 20
2.42345276872964
 30
0.0
 11
0.0
 21
13.82654723127035
 31
0.0
  0
LINE
  8
FK-FOOTP
 10
2.423452768729642
 20
16.25
 30
0.0
 11
20.82656199577546
 21
16.25
 31
0.0
  0
ENDBLK
  8
0
  0
BLOCK
  8
0
  2
STRAINS
 70
    64
 10
0.0
 20
0.0
 30
0.0
  3
STRAINS
  0
CIRCLE
  8
RK-DRAIN
 10
0.0
 20
0.0
 30
0.06
 40
0.75
  0
CIRCLE
  8
RK-DRAIN
 10
0.0
 20
0.0
 30
0.05
 40
1.25
  0
ENDBLK
  8
0
  0
ENDSEC
  0
SECTION
  2
ENTITIES
  0
POLYLINE
  8
CNTRCUTR
 66
     1
 10
0.0
 20
0.0
 30
5.997878
 70
     1
1001
CDKT-SIZ
1002
{
1010
23.249998
1020
-16.120001
1030
5.997878
1002
}
1001
CDKT-STR2
1070
     1
1010
11.64111202417512
1020
2.666534996581878
1030
6.0
1040
4.712388980384689
  0
VERTEX
  8
CNTRCUTR
 10
21.12999899999999
 20
-15.0
 30
5.997878
  0
VERTEX
  8
CNTRCUTR
 10
21.62999899999999
 20
-14.866026
 30
5.997878
  0
VERTEX
  8
CNTRCUTR
 10
21.996023
 20
-14.5
 30
5.997878
  0
VERTEX
  8
CNTRCUTR
 10
22.12999899999999
 20
-14.0
 30
5.997878
  0
VERTEX
  8
CNTRCUTR
 10
22.12999899999999
 20
-2.210034000000002
 30
5.997878
  0
VERTEX
  8
CNTRCUTR
 10
21.993363
 20
-1.709318999999998
 30
5.997878
  0
VERTEX
  8
CNTRCUTR
 10
21.63450499999999
 20
-1.353150000000001
 30
5.997878
  0
VERTEX
  8
CNTRCUTR
 10
21.13001099999999
 20
-1.217537000000001
 30
5.997878
  0
VERTEX
  8
CNTRCUTR
 10
2.120241999999997
 20
-1.217537000000001
 30
5.997878
  0
VERTEX
  8
CNTRCUTR
 10
1.615749
 20
-1.353150000000001
 30
5.997878
  0
VERTEX
  8
CNTRCUTR
 10
1.256890999999995
 20
-1.709318999999998
 30
5.997878
  0
VERTEX
  8
CNTRCUTR
 10
1.120255
 20
-2.210034000000002
 30
5.997878
  0
VERTEX
  8
CNTRCUTR
 10
1.119998999999999
 20
-14.0
 30
5.997878
  0
VERTEX
  8
CNTRCUTR
 10
1.253970999999999
 20
-14.5
 30
5.997878
  0
VERTEX
  8
CNTRCUTR
 10
1.619998999999999
 20
-14.866026
 30
5.997878
  0
VERTEX
  8
CNTRCUTR
 10
2.119998999999999
 20
-15.0
 30
5.997878
  0
SEQEND
  8
CNTRCUTR
  0
POLYLINE
  8
RK-LAVAT
 66
     1
 10
0.0
 20
0.0
 30
0.0
 70
    64
 71
     6
 72
     3
  0
VERTEX
  8
RK-LAVAT
 10
21.13001099999999
 20
-1.217537000000001
 30
5.997875999999999
 70
   192
  0
VERTEX
  8
RK-LAVAT
 10
2.120241999999997
 20
-1.217537000000001
 30
5.997874999999999
 70
   192
  0
VERTEX
  8
RK-LAVAT
 10
21.107362
 20
-1.224466000000001
 30
5.799427
 70
   192
  0
VERTEX
  8
RK-LAVAT
 10
2.142898000000002
 20
-1.224466000000001
 30
5.799426
 70
   192
  0
VERTEX
  8
RK-LAVAT
 10
21.395676
 20
-1.253024000000001
 30
5.997875999999999
 70
   192
  0
VERTEX
  8
RK-LAVAT
 10
21.37239399999999
 20
-1.259915999999998
 30
5.799427
 70
   192
  0
VERTEX
  8
RK-LAVAT
 10
21.63450499999999
 20
-1.353150000000001
 30
5.997875999999999
 70
   192
  0
VERTEX
  8
RK-LAVAT
 10
21.610655
 20
-1.359939000000002
 30
5.799427
 70
   192
  0
VERTEX
  8
RK-LAVAT
 10
21.836925
 20
-1.508415000000001
 30
5.997875999999999
 70
   192
  0
VERTEX
  8
RK-LAVAT
 10
21.81259099999999
 20
-1.515044000000001
 30
5.799427
 70
   192
  0
VERTEX
  8
RK-LAVAT
 10
21.993363
 20
-1.709318999999998
 30
5.997875999999999
 70
   192
  0
VERTEX
  8
RK-LAVAT
 10
21.968656
 20
-1.715739000000001
 30
5.799427
 70
   192
  0
VERTEX
  8
RK-LAVAT
 10
22.094244
 20
-1.946358000000001
 30
5.997875999999999
 70
   192
  0
VERTEX
  8
RK-LAVAT
 10
22.069298
 20
-1.952533
 30
5.799427
 70
   192
  0
VERTEX
  8
RK-LAVAT
 10
22.12999899999999
 20
-2.210034000000002
 30
5.997875999999999
 70
   192
  0
VERTEX
  8
RK-LAVAT
 10
22.10496699999999
 20
-2.215936000000001
 30
5.799427
 70
   192
  0
VERTEX
  8
RK-LAVAT
 10
22.12999899999999
 20
-14.0
 30
5.997878
 70
   192
  0
VERTEX
  8
RK-LAVAT
 10
22.10496699999999
 20
-13.993587
 30
5.799428999999999
 70
   192
  0
VERTEX
  8
RK-LAVAT
 10
22.094244
 20
-14.263675
 30
5.997878
 70
   192
  0
VERTEX
  8
RK-LAVAT
 10
22.069298
 20
-14.25699
 30
5.799428999999999
 70
   192
  0
VERTEX
  8
RK-LAVAT
 10
21.993363
 20
-14.500716
 30
5.997878
 70
   192
  0
VERTEX
  8
RK-LAVAT
 10
21.968656
 20
-14.493786
 30
5.799428999999999
 70
   192
  0
VERTEX
  8
RK-LAVAT
 10
21.836925
 20
-14.701618
 30
5.997878
 70
   192
  0
VERTEX
  8
RK-LAVAT
 10
21.81259099999999
 20
-14.694481
 30
5.799428999999999
 70
   192
  0
VERTEX
  8
RK-LAVAT
 10
21.63450399999999
 20
-14.856884
 30
5.997878
 70
   192
  0
VERTEX
  8
RK-LAVAT
 10
21.610654
 20
-14.849585
 30
5.799428999999999
 70
   192
  0
VERTEX
  8
RK-LAVAT
 10
21.395676
 20
-14.95701
 30
5.997878
 70
   192
  0
VERTEX
  8
RK-LAVAT
 10
21.37239399999999
 20
-14.949608
 30
5.799428999999999
 70
   192
  0
VERTEX
  8
RK-LAVAT
 10
21.13001099999999
 20
-14.992497
 30
5.997878
 70
   192
  0
VERTEX
  8
RK-LAVAT
 10
21.107362
 20
-14.985058
 30
5.799428999999999
 70
   192
  0
VERTEX
  8
RK-LAVAT
 10
2.120241999999997
 20
-14.992497
 30
5.997876999999999
 70
   192
  0
VERTEX
  8
RK-LAVAT
 10
2.142898000000002
 20
-14.985058
 30
5.799427999999999
 70
   192
  0
VERTEX
  8
RK-LAVAT
 10
1.854576999999999
 20
-14.957011
 30
5.997876999999999
 70
   192
  0
VERTEX
  8
RK-LAVAT
 10
1.877864999999999
 20
-14.949609
 30
5.799427999999999
 70
   192
  0
VERTEX
  8
RK-LAVAT
 10
1.615749
 20
-14.856885
 30
5.997876999999999
 70
   192
  0
VERTEX
  8
RK-LAVAT
 10
1.639606
 20
-14.849586
 30
5.799427999999999
 70
   192
  0
VERTEX
  8
RK-LAVAT
 10
1.413328999999997
 20
-14.701618
 30
5.997876999999999
 70
   192
  0
VERTEX
  8
RK-LAVAT
 10
1.437668999999999
 20
-14.694481
 30
5.799427999999999
 70
   192
  0
VERTEX
  8
RK-LAVAT
 10
1.256890999999995
 20
-14.50071499999999
 30
5.997876999999999
 70
   192
  0
VERTEX
  8
RK-LAVAT
 10
1.281604000000001
 20
-14.493785
 30
5.799427999999999
 70
   192
  0
VERTEX
  8
RK-LAVAT
 10
1.156008999999997
 20
-14.263675
 30
5.997876999999999
 70
   192
  0
VERTEX
  8
RK-LAVAT
 10
1.180962999999998
 20
-14.25699
 30
5.799427999999999
 70
   192
  0
VERTEX
  8
RK-LAVAT
 10
1.120255
 20
-14.0
 30
5.997876999999999
 70
   192
  0
VERTEX
  8
RK-LAVAT
 10
1.145292999999995
 20
-13.993587
 30
5.799427999999999
 70
   192
  0
VERTEX
  8
RK-LAVAT
 10
1.120255
 20
-2.210034000000002
 30
5.997874999999999
 70
   192
  0
VERTEX
  8
RK-LAVAT
 10
1.145292999999995
 20
-2.215936000000001
 30
5.799426
 70
   192
  0
VERTEX
  8
RK-LAVAT
 10
1.156008999999997
 20
-1.946358000000001
 30
5.997874999999999
 70
   192
  0
VERTEX
  8
RK-LAVAT
 10
1.180962999999998
 20
-1.952533
 30
5.799426
 70
   192
  0
VERTEX
  8
RK-LAVAT
 10
1.256890999999995
 20
-1.709318999999998
 30
5.997874999999999
 70
   192
  0
VERTEX
  8
RK-LAVAT
 10
1.281604000000001
 20
-1.715739000000001
 30
5.799426
 70
   192
  0
VERTEX
  8
RK-LAVAT
 10
1.413328999999997
 20
-1.508415000000001
 30
5.997874999999999
 70
   192
  0
VERTEX
  8
RK-LAVAT
 10
1.437668999999999
 20
-1.515044000000001
 30
5.799426
 70
   192
  0
VERTEX
  8
RK-LAVAT
 10
1.615749
 20
-1.353150000000001
 30
5.997874999999999
 70
   192
  0
VERTEX
  8
RK-LAVAT
 10
1.639606
 20
-1.359939000000002
 30
5.799426
 70
   192
  0
VERTEX
  8
RK-LAVAT
 10
1.854576999999999
 20
-1.253024000000001
 30
5.997874999999999
 70
   192
  0
VERTEX
  8
RK-LAVAT
 10
1.877864999999999
 20
-1.259915999999998
 30
5.799426
 70
   192
  0
VERTEX
  8
RK-LAVAT
 10
21.08287499999999
 20
-1.231400000000002
 30
5.600977999999999
 70
   192
  0
VERTEX
  8
RK-LAVAT
 10
2.167389
 20
-1.231400000000002
 30
5.600977
 70
   192
  0
VERTEX
  8
RK-LAVAT
 10
21.34722299999999
 20
-1.266809
 30
5.600977999999999
 70
   192
  0
VERTEX
  8
RK-LAVAT
 10
21.58486899999999
 20
-1.366715000000001
 30
5.600977999999999
 70
   192
  0
VERTEX
  8
RK-LAVAT
 10
21.786284
 20
-1.521639000000002
 30
5.600977999999999
 70
   192
  0
VERTEX
  8
RK-LAVAT
 10
21.94194499999999
 20
-1.722099000000001
 30
5.600977999999999
 70
   192
  0
VERTEX
  8
RK-LAVAT
 10
22.04232699999999
 20
-1.958617000000002
 30
5.600977999999999
 70
   192
  0
VERTEX
  8
RK-LAVAT
 10
22.077905
 20
-2.221712000000001
 30
5.600977999999999
 70
   192
  0
VERTEX
  8
RK-LAVAT
 10
22.077905
 20
-13.985447
 30
5.600979999999999
 70
   192
  0
VERTEX
  8
RK-LAVAT
 10
22.04232699999999
 20
-14.248541
 30
5.600979999999999
 70
   192
  0
VERTEX
  8
RK-LAVAT
 10
21.94194499999999
 20
-14.48505899999999
 30
5.600979999999999
 70
   192
  0
VERTEX
  8
RK-LAVAT
 10
21.786284
 20
-14.68552
 30
5.600979999999999
 70
   192
  0
VERTEX
  8
RK-LAVAT
 10
21.58486799999999
 20
-14.840442
 30
5.600979999999999
 70
   192
  0
VERTEX
  8
RK-LAVAT
 10
21.34722299999999
 20
-14.940349
 30
5.600979999999999
 70
   192
  0
VERTEX
  8
RK-LAVAT
 10
21.08287499999999
 20
-14.975757
 30
5.600979999999999
 70
   192
  0
VERTEX
  8
RK-LAVAT
 10
2.167389
 20
-14.975757
 30
5.600978999999999
 70
   192
  0
VERTEX
  8
RK-LAVAT
 10
1.903041000000001
 20
-14.940349
 30
5.600978999999999
 70
   192
  0
VERTEX
  8
RK-LAVAT
 10
1.665396999999998
 20
-14.840443
 30
5.600978999999999
 70
   192
  0
VERTEX
  8
RK-LAVAT
 10
1.463982000000001
 20
-14.68552
 30
5.600978999999999
 70
   192
  0
VERTEX
  8
RK-LAVAT
 10
1.308319999999994
 20
-14.485058
 30
5.600978999999999
 70
   192
  0
VERTEX
  8
RK-LAVAT
 10
1.207937999999998
 20
-14.248541
 30
5.600978999999999
 70
   192
  0
VERTEX
  8
RK-LAVAT
 10
1.172360999999995
 20
-13.985447
 30
5.600978999999999
 70
   192
  0
VERTEX
  8
RK-LAVAT
 10
1.172360999999995
 20
-2.221712000000001
 30
5.600977
 70
   192
  0
VERTEX
  8
RK-LAVAT
 10
1.207937999999998
 20
-1.958617000000002
 30
5.600977
 70
   192
  0
VERTEX
  8
RK-LAVAT
 10
1.308319999999994
 20
-1.722099000000001
 30
5.600977
 70
   192
  0
VERTEX
  8
RK-LAVAT
 10
1.463982000000001
 20
-1.521639000000002
 30
5.600977
 70
   192
  0
VERTEX
  8
RK-LAVAT
 10
1.665396999999998
 20
-1.366715000000001
 30
5.600977
 70
   192
  0
VERTEX
  8
RK-LAVAT
 10
1.903041000000001
 20
-1.266809
 30
5.600977
 70
   192
  0
VERTEX
  8
RK-LAVAT
 10
21.05655599999999
 20
-1.238324
 30
5.402528999999999
 70
   192
  0
VERTEX
  8
RK-LAVAT
 10
2.193691999999998
 20
-1.238324
 30
5.402527999999999
 70
   192
  0
VERTEX
  8
RK-LAVAT
 10
21.32016899999999
 20
-1.273687
 30
5.402528999999999
 70
   192
  0
VERTEX
  8
RK-LAVAT
 10
21.55715199999999
 20
-1.373462000000001
 30
5.402528999999999
 70
   192
  0
VERTEX
  8
RK-LAVAT
 10
21.75800699999999
 20
-1.528184000000001
 30
5.402528999999999
 70
   192
  0
VERTEX
  8
RK-LAVAT
 10
21.913236
 20
-1.728382999999999
 30
5.402528999999999
 70
   192
  0
VERTEX
  8
RK-LAVAT
 10
22.013338
 20
-1.964592999999998
 30
5.402528999999999
 70
   192
  0
VERTEX
  8
RK-LAVAT
 10
22.048817
 20
-2.227344
 30
5.402528999999999
 70
   192
  0
VERTEX
  8
RK-LAVAT
 10
22.048817
 20
-13.975584
 30
5.402531
 70
   192
  0
VERTEX
  8
RK-LAVAT
 10
22.013338
 20
-14.238335
 30
5.402531
 70
   192
  0
VERTEX
  8
RK-LAVAT
 10
21.913236
 20
-14.474545
 30
5.402531
 70
   192
  0
VERTEX
  8
RK-LAVAT
 10
21.75800699999999
 20
-14.674744
 30
5.402531
 70
   192
  0
VERTEX
  8
RK-LAVAT
 10
21.55715099999999
 20
-14.829465
 30
5.402531
 70
   192
  0
VERTEX
  8
RK-LAVAT
 10
21.32016899999999
 20
-14.929241
 30
5.402531
 70
   192
  0
VERTEX
  8
RK-LAVAT
 10
21.05655599999999
 20
-14.964603
 30
5.402531
 70
   192
  0
VERTEX
  8
RK-LAVAT
 10
2.193691999999998
 20
-14.964603
 30
5.40253
 70
   192
  0
VERTEX
  8
RK-LAVAT
 10
1.930079999999996
 20
-14.929242
 30
5.40253
 70
   192
  0
VERTEX
  8
RK-LAVAT
 10
1.693095999999997
 20
-14.829466
 30
5.40253
 70
   192
  0
VERTEX
  8
RK-LAVAT
 10
1.492241999999997
 20
-14.674744
 30
5.40253
 70
   192
  0
VERTEX
  8
RK-LAVAT
 10
1.337012999999998
 20
-14.474544
 30
5.40253
 70
   192
  0
VERTEX
  8
RK-LAVAT
 10
1.236910000000001
 20
-14.238335
 30
5.40253
 70
   192
  0
VERTEX
  8
RK-LAVAT
 10
1.201431999999996
 20
-13.975584
 30
5.40253
 70
   192
  0
VERTEX
  8
RK-LAVAT
 10
1.201431999999996
 20
-2.227344
 30
5.402527999999999
 70
   192
  0
VERTEX
  8
RK-LAVAT
 10
1.236910000000001
 20
-1.964592999999998
 30
5.402527999999999
 70
   192
  0
VERTEX
  8
RK-LAVAT
 10
1.337012999999998
 20
-1.728382999999999
 30
5.402527999999999
 70
   192
  0
VERTEX
  8
RK-LAVAT
 10
1.492241999999997
 20
-1.528184000000001
 30
5.402527999999999
 70
   192
  0
VERTEX
  8
RK-LAVAT
 10
1.693095999999997
 20
-1.373462000000001
 30
5.402527999999999
 70
   192
  0
VERTEX
  8
RK-LAVAT
 10
1.930079999999996
 20
-1.273687
 30
5.402527999999999
 70
   192
  0
VERTEX
  8
RK-LAVAT
 10
21.028397
 20
-1.24525
 30
5.20408
 70
   192
  0
VERTEX
  8
RK-LAVAT
 10
2.221849999999996
 20
-1.24525
 30
5.204079
 70
   192
  0
VERTEX
  8
RK-LAVAT
 10
21.291223
 20
-1.280561
 30
5.20408
 70
   192
  0
VERTEX
  8
RK-LAVAT
 10
21.52749899999999
 20
-1.380193
 30
5.20408
 70
   192
  0
VERTEX
  8
RK-LAVAT
 10
21.72775399999999
 20
-1.534692000000001
 30
5.20408
 70
   192
  0
VERTEX
  8
RK-LAVAT
 10
21.882519
 20
-1.734603000000001
 30
5.20408
 70
   192
  0
VERTEX
  8
RK-LAVAT
 10
21.982323
 20
-1.970471000000001
 30
5.20408
 70
   192
  0
VERTEX
  8
RK-LAVAT
 10
22.01769599999999
 20
-2.232844000000001
 30
5.20408
 70
   192
  0
VERTEX
  8
RK-LAVAT
 10
22.01769599999999
 20
-13.963978
 30
5.204081999999999
 70
   192
  0
VERTEX
  8
RK-LAVAT
 10
21.982323
 20
-14.226351
 30
5.204081999999999
 70
   192
  0
VERTEX
  8
RK-LAVAT
 10
21.882519
 20
-14.462221
 30
5.204081999999999
 70
   192
  0
VERTEX
  8
RK-LAVAT
 10
21.72775399999999
 20
-14.662131
 30
5.204081999999999
 70
   192
  0
VERTEX
  8
RK-LAVAT
 10
21.527498
 20
-14.816629
 30
5.204081999999999
 70
   192
  0
VERTEX
  8
RK-LAVAT
 10
21.291223
 20
-14.916261
 30
5.204081999999999
 70
   192
  0
VERTEX
  8
RK-LAVAT
 10
21.028397
 20
-14.95157299999999
 30
5.204081999999999
 70
   192
  0
VERTEX
  8
RK-LAVAT
 10
2.221849999999996
 20
-14.95157299999999
 30
5.204081
 70
   192
  0
VERTEX
  8
RK-LAVAT
 10
1.959024999999996
 20
-14.91626199999999
 30
5.204081
 70
   192
  0
VERTEX
  8
RK-LAVAT
 10
1.722749
 20
-14.81663
 30
5.204081
 70
   192
  0
VERTEX
  8
RK-LAVAT
 10
1.522493999999994
 20
-14.662131
 30
5.204081
 70
   192
  0
VERTEX
  8
RK-LAVAT
 10
1.367727999999999
 20
-14.46222
 30
5.204081
 70
   192
  0
VERTEX
  8
RK-LAVAT
 10
1.267924
 20
-14.226351
 30
5.204081
 70
   192
  0
VERTEX
  8
RK-LAVAT
 10
1.232551999999998
 20
-13.963978
 30
5.204081
 70
   192
  0
VERTEX
  8
RK-LAVAT
 10
1.232551999999998
 20
-2.232844000000001
 30
5.204079
 70
   192
  0
VERTEX
  8
RK-LAVAT
 10
1.267924
 20
-1.970471000000001
 30
5.204079
 70
   192
  0
VERTEX
  8
RK-LAVAT
 10
1.367727999999999
 20
-1.734603000000001
 30
5.204079
 70
   192
  0
VERTEX
  8
RK-LAVAT
 10
1.522493999999994
 20
-1.534692000000001
 30
5.204079
 70
   192
  0
VERTEX
  8
RK-LAVAT
 10
1.722749
 20
-1.380193
 30
5.204079
 70
   192
  0
VERTEX
  8
RK-LAVAT
 10
1.959024999999996
 20
-1.280561
 30
5.204079
 70
   192
  0
VERTEX
  8
RK-LAVAT
 10
20.99837199999999
 20
-1.252181999999999
 30
5.005631
 70
   192
  0
VERTEX
  8
RK-LAVAT
 10
2.251873000000003
 20
-1.252181999999999
 30
5.00563
 70
   192
  0
VERTEX
  8
RK-LAVAT
 10
21.26035799999999
 20
-1.287437999999999
 30
5.005631
 70
   192
  0
VERTEX
  8
RK-LAVAT
 10
21.49588
 20
-1.386912
 30
5.005631
 70
   192
  0
VERTEX
  8
RK-LAVAT
 10
21.69549599999999
 20
-1.541166999999999
 30
5.005631
 70
   192
  0
VERTEX
  8
RK-LAVAT
 10
21.84976699999999
 20
-1.740762000000001
 30
5.005631
 70
   192
  0
VERTEX
  8
RK-LAVAT
 10
21.949252
 20
-1.976259
 30
5.005631
 70
   192
  0
VERTEX
  8
RK-LAVAT
 10
21.984512
 20
-2.238218000000001
 30
5.005631
 70
   192
  0
VERTEX
  8
RK-LAVAT
 10
21.984512
 20
-13.95064999999999
 30
5.005632999999999
 70
   192
  0
VERTEX
  8
RK-LAVAT
 10
21.949252
 20
-14.212609
 30
5.005632999999999
 70
   192
  0
VERTEX
  8
RK-LAVAT
 10
21.84976699999999
 20
-14.448106
 30
5.005632999999999
 70
   192
  0
VERTEX
  8
RK-LAVAT
 10
21.69549599999999
 20
-14.647701
 30
5.005632999999999
 70
   192
  0
VERTEX
  8
RK-LAVAT
 10
21.49587899999999
 20
-14.801955
 30
5.005632999999999
 70
   192
  0
VERTEX
  8
RK-LAVAT
 10
21.26035799999999
 20
-14.90143
 30
5.005632999999999
 70
   192
  0
VERTEX
  8
RK-LAVAT
 10
20.99837199999999
 20
-14.936686
 30
5.005632999999999
 70
   192
  0
VERTEX
  8
RK-LAVAT
 10
2.251873000000003
 20
-14.936686
 30
5.005631999999999
 70
   192
  0
VERTEX
  8
RK-LAVAT
 10
1.989886999999995
 20
-14.901431
 30
5.005631999999999
 70
   192
  0
VERTEX
  8
RK-LAVAT
 10
1.754365999999997
 20
-14.801956
 30
5.005631999999999
 70
   192
  0
VERTEX
  8
RK-LAVAT
 10
1.554750999999995
 20
-14.647701
 30
5.005631999999999
 70
   192
  0
VERTEX
  8
RK-LAVAT
 10
1.400478999999997
 20
-14.448105
 30
5.005631999999999
 70
   192
  0
VERTEX
  8
RK-LAVAT
 10
1.300994000000002
 20
-14.212609
 30
5.005631999999999
 70
   192
  0
VERTEX
  8
RK-LAVAT
 10
1.265734999999999
 20
-13.95064999999999
 30
5.005631999999999
 70
   192
  0
VERTEX
  8
RK-LAVAT
 10
1.265734999999999
 20
-2.238218000000001
 30
5.00563
 70
   192
  0
VERTEX
  8
RK-LAVAT
 10
1.300994000000002
 20
-1.976259
 30
5.00563
 70
   192
  0
VERTEX
  8
RK-LAVAT
 10
1.400478999999997
 20
-1.740762000000001
 30
5.00563
 70
   192
  0
VERTEX
  8
RK-LAVAT
 10
1.554750999999995
 20
-1.541166999999999
 30
5.00563
 70
   192
  0
VERTEX
  8
RK-LAVAT
 10
1.754365999999997
 20
-1.386912
 30
5.00563
 70
   192
  0
VERTEX
  8
RK-LAVAT
 10
1.989886999999995
 20
-1.287437999999999
 30
5.00563
 70
   192
  0
VERTEX
  8
RK-LAVAT
 10
20.96649499999999
 20
-1.259110000000001
 30
4.807182
 70
   192
  0
VERTEX
  8
RK-LAVAT
 10
2.283746999999998
 20
-1.259110000000001
 30
4.807180999999999
 70
   192
  0
VERTEX
  8
RK-LAVAT
 10
21.22758999999999
 20
-1.294306
 30
4.807182
 70
   192
  0
VERTEX
  8
RK-LAVAT
 10
21.462311
 20
-1.39361
 30
4.807182
 70
   192
  0
VERTEX
  8
RK-LAVAT
 10
21.661247
 20
-1.547598999999999
 30
4.807182
 70
   192
  0
VERTEX
  8
RK-LAVAT
 10
21.81499399999999
 20
-1.746852000000002
 30
4.807182
 70
   192
  0
VERTEX
  8
RK-LAVAT
 10
21.914141
 20
-1.981944
 30
4.807182
 70
   192
  0
VERTEX
  8
RK-LAVAT
 10
21.94928099999999
 20
-2.243453
 30
4.807182
 70
   192
  0
VERTEX
  8
RK-LAVAT
 10
21.94928099999999
 20
-13.93557
 30
4.807184
 70
   192
  0
VERTEX
  8
RK-LAVAT
 10
21.914141
 20
-14.19707999999999
 30
4.807184
 70
   192
  0
VERTEX
  8
RK-LAVAT
 10
21.81499399999999
 20
-14.432173
 30
4.807184
 70
   192
  0
VERTEX
  8
RK-LAVAT
 10
21.661247
 20
-14.631425
 30
4.807184
 70
   192
  0
VERTEX
  8
RK-LAVAT
 10
21.46230999999999
 20
-14.785414
 30
4.807184
 70
   192
  0
VERTEX
  8
RK-LAVAT
 10
21.22758999999999
 20
-14.884719
 30
4.807184
 70
   192
  0
VERTEX
  8
RK-LAVAT
 10
20.96649499999999
 20
-14.919914
 30
4.807184
 70
   192
  0
VERTEX
  8
RK-LAVAT
 10
2.283746999999998
 20
-14.919914
 30
4.807183
 70
   192
  0
VERTEX
  8
RK-LAVAT
 10
2.022652
 20
-14.88472
 30
4.807183
 70
   192
  0
VERTEX
  8
RK-LAVAT
 10
1.787931999999997
 20
-14.785415
 30
4.807183
 70
   192
  0
VERTEX
  8
RK-LAVAT
 10
1.588994999999997
 20
-14.631425
 30
4.807183
 70
   192
  0
VERTEX
  8
RK-LAVAT
 10
1.435248999999998
 20
-14.432172
 30
4.807183
 70
   192
  0
VERTEX
  8
RK-LAVAT
 10
1.336101999999996
 20
-14.19707999999999
 30
4.807183
 70
   192
  0
VERTEX
  8
RK-LAVAT
 10
1.300961999999998
 20
-13.93557
 30
4.807183
 70
   192
  0
VERTEX
  8
RK-LAVAT
 10
1.300961999999998
 20
-2.243453
 30
4.807180999999999
 70
   192
  0
VERTEX
  8
RK-LAVAT
 10
1.336101999999996
 20
-1.981944
 30
4.807180999999999
 70
   192
  0
VERTEX
  8
RK-LAVAT
 10
1.435248999999998
 20
-1.746852000000002
 30
4.807180999999999
 70
   192
  0
VERTEX
  8
RK-LAVAT
 10
1.588994999999997
 20
-1.547598999999999
 30
4.807180999999999
 70
   192
  0
VERTEX
  8
RK-LAVAT
 10
1.787931999999997
 20
-1.39361
 30
4.807180999999999
 70
   192
  0
VERTEX
  8
RK-LAVAT
 10
2.022652
 20
-1.294306
 30
4.807180999999999
 70
   192
  0
VERTEX
  8
RK-LAVAT
 10
20.928995
 20
-1.266797000000002
 30
4.587246999999999
 70
   192
  0
VERTEX
  8
RK-LAVAT
 10
2.321274000000002
 20
-1.266797000000002
 30
4.587245999999999
 70
   192
  0
VERTEX
  8
RK-LAVAT
 10
21.189042
 20
-1.301918999999999
 30
4.587246999999999
 70
   192
  0
VERTEX
  8
RK-LAVAT
 10
21.422821
 20
-1.401017999999998
 30
4.587246999999999
 70
   192
  0
VERTEX
  8
RK-LAVAT
 10
21.62095799999999
 20
-1.554689999999999
 30
4.587246999999999
 70
   192
  0
VERTEX
  8
RK-LAVAT
 10
21.77408799999999
 20
-1.753531
 30
4.587246999999999
 70
   192
  0
VERTEX
  8
RK-LAVAT
 10
21.872836
 20
-1.988138000000001
 30
4.587246999999999
 70
   192
  0
VERTEX
  8
RK-LAVAT
 10
21.90783499999999
 20
-2.249107
 30
4.587246999999999
 70
   192
  0
VERTEX
  8
RK-LAVAT
 10
21.90783499999999
 20
-13.916839
 30
4.587248999999999
 70
   192
  0
VERTEX
  8
RK-LAVAT
 10
21.872836
 20
-14.177808
 30
4.587248999999999
 70
   192
  0
VERTEX
  8
RK-LAVAT
 10
21.77408799999999
 20
-14.412416
 30
4.587248999999999
 70
   192
  0
VERTEX
  8
RK-LAVAT
 10
21.62095799999999
 20
-14.611256
 30
4.587248999999999
 70
   192
  0
VERTEX
  8
RK-LAVAT
 10
21.42281999999999
 20
-14.764928
 30
4.587248999999999
 70
   192
  0
VERTEX
  8
RK-LAVAT
 10
21.189042
 20
-14.864027
 30
4.587248999999999
 70
   192
  0
VERTEX
  8
RK-LAVAT
 10
20.928995
 20
-14.89915
 30
4.587248999999999
 70
   192
  0
VERTEX
  8
RK-LAVAT
 10
2.321274000000002
 20
-14.89915
 30
4.587247999999999
 70
   192
  0
VERTEX
  8
RK-LAVAT
 10
2.061227000000002
 20
-14.864028
 30
4.587247999999999
 70
   192
  0
VERTEX
  8
RK-LAVAT
 10
1.827449999999998
 20
-14.764929
 30
4.587247999999999
 70
   192
  0
VERTEX
  8
RK-LAVAT
 10
1.629311999999998
 20
-14.611256
 30
4.587247999999999
 70
   192
  0
VERTEX
  8
RK-LAVAT
 10
1.476182999999998
 20
-14.412415
 30
4.587247999999999
 70
   192
  0
VERTEX
  8
RK-LAVAT
 10
1.377434
 20
-14.177808
 30
4.587247999999999
 70
   192
  0
VERTEX
  8
RK-LAVAT
 10
1.342435000000001
 20
-13.916839
 30
4.587247999999999
 70
   192
  0
VERTEX
  8
RK-LAVAT
 10
1.342435000000001
 20
-2.249107
 30
4.587245999999999
 70
   192
  0
VERTEX
  8
RK-LAVAT
 10
1.377434
 20
-1.988138000000001
 30
4.587245999999999
 70
   192
  0
VERTEX
  8
RK-LAVAT
 10
1.476182999999998
 20
-1.753531
 30
4.587245999999999
 70
   192
  0
VERTEX
  8
RK-LAVAT
 10
1.629311999999998
 20
-1.554689999999999
 30
4.587245999999999
 70
   192
  0
VERTEX
  8
RK-LAVAT
 10
1.827449999999998
 20
-1.401017999999998
 30
4.587245999999999
 70
   192
  0
VERTEX
  8
RK-LAVAT
 10
2.061227000000002
 20
-1.301918999999999
 30
4.587245999999999
 70
   192
  0
VERTEX
  8
RK-LAVAT
 10
20.88916699999999
 20
-1.274480000000002
 30
4.367310999999999
 70
   192
  0
VERTEX
  8
RK-LAVAT
 10
2.361100999999997
 20
-1.274480000000002
 30
4.36731
 70
   192
  0
VERTEX
  8
RK-LAVAT
 10
21.148101
 20
-1.309523
 30
4.367310999999999
 70
   192
  0
VERTEX
  8
RK-LAVAT
 10
21.38087899999999
 20
-1.408400000000002
 30
4.367310999999999
 70
   192
  0
VERTEX
  8
RK-LAVAT
 10
21.57816799999999
 20
-1.561728
 30
4.367310999999999
 70
   192
  0
VERTEX
  8
RK-LAVAT
 10
21.73064199999999
 20
-1.760125
 30
4.367310999999999
 70
   192
  0
VERTEX
  8
RK-LAVAT
 10
21.828967
 20
-1.994207000000001
 30
4.367310999999999
 70
   192
  0
VERTEX
  8
RK-LAVAT
 10
21.863816
 20
-2.254593000000001
 30
4.367310999999999
 70
   192
  0
VERTEX
  8
RK-LAVAT
 10
21.863816
 20
-13.895953
 30
4.367313
 70
   192
  0
VERTEX
  8
RK-LAVAT
 10
21.828967
 20
-14.156338
 30
4.367313
 70
   192
  0
VERTEX
  8
RK-LAVAT
 10
21.73064199999999
 20
-14.390422
 30
4.367313
 70
   192
  0
VERTEX
  8
RK-LAVAT
 10
21.57816799999999
 20
-14.588817
 30
4.367313
 70
   192
  0
VERTEX
  8
RK-LAVAT
 10
21.380878
 20
-14.742145
 30
4.367313
 70
   192
  0
VERTEX
  8
RK-LAVAT
 10
21.148101
 20
-14.841022
 30
4.367313
 70
   192
  0
VERTEX
  8
RK-LAVAT
 10
20.88916699999999
 20
-14.876067
 30
4.367313
 70
   192
  0
VERTEX
  8
RK-LAVAT
 10
2.361100999999997
 20
-14.876067
 30
4.367312
 70
   192
  0
VERTEX
  8
RK-LAVAT
 10
2.102166999999994
 20
-14.84102299999999
 30
4.367312
 70
   192
  0
VERTEX
  8
RK-LAVAT
 10
1.869391
 20
-14.742146
 30
4.367312
 70
   192
  0
VERTEX
  8
RK-LAVAT
 10
1.672100999999997
 20
-14.588817
 30
4.367312
 70
   192
  0
VERTEX
  8
RK-LAVAT
 10
1.519627999999997
 20
-14.39042099999999
 30
4.367312
 70
   192
  0
VERTEX
  8
RK-LAVAT
 10
1.421301999999997
 20
-14.156338
 30
4.367312
 70
   192
  0
VERTEX
  8
RK-LAVAT
 10
1.386452999999995
 20
-13.895953
 30
4.367312
 70
   192
  0
VERTEX
  8
RK-LAVAT
 10
1.386452999999995
 20
-2.254593000000001
 30
4.36731
 70
   192
  0
VERTEX
  8
RK-LAVAT
 10
1.421301999999997
 20
-1.994207000000001
 30
4.36731
 70
   192
  0
VERTEX
  8
RK-LAVAT
 10
1.519627999999997
 20
-1.760125
 30
4.36731
 70
   192
  0
VERTEX
  8
RK-LAVAT
 10
1.672100999999997
 20
-1.561728
 30
4.36731
 70
   192
  0
VERTEX
  8
RK-LAVAT
 10
1.869391
 20
-1.408400000000002
 30
4.36731
 70
   192
  0
VERTEX
  8
RK-LAVAT
 10
2.102166999999994
 20
-1.309523
 30
4.36731
 70
   192
  0
VERTEX
  8
RK-LAVAT
 10
20.84699599999999
 20
-1.282158
 30
4.147375
 70
   192
  0
VERTEX
  8
RK-LAVAT
 10
2.403241000000001
 20
-1.282158
 30
4.147374
 70
   192
  0
VERTEX
  8
RK-LAVAT
 10
21.10475099999999
 20
-1.317117000000001
 30
4.147375
 70
   192
  0
VERTEX
  8
RK-LAVAT
 10
21.336469
 20
-1.415756
 30
4.147375
 70
   192
  0
VERTEX
  8
RK-LAVAT
 10
21.53286099999999
 20
-1.568714999999999
 30
4.147375
 70
   192
  0
VERTEX
  8
RK-LAVAT
 10
21.684641
 20
-1.766633
 30
4.147375
 70
   192
  0
VERTEX
  8
RK-LAVAT
 10
21.78252
 20
-2.000149999999999
 30
4.147375
 70
   192
  0
VERTEX
  8
RK-LAVAT
 10
21.81720899999999
 20
-2.259907
 30
4.147375
 70
   192
  0
VERTEX
  8
RK-LAVAT
 10
21.81720899999999
 20
-13.872906
 30
4.147377
 70
   192
  0
VERTEX
  8
RK-LAVAT
 10
21.78252
 20
-14.132664
 30
4.147377
 70
   192
  0
VERTEX
  8
RK-LAVAT
 10
21.684641
 20
-14.366183
 30
4.147377
 70
   192
  0
VERTEX
  8
RK-LAVAT
 10
21.53286099999999
 20
-14.56409999999999
 30
4.147377
 70
   192
  0
VERTEX
  8
RK-LAVAT
 10
21.336468
 20
-14.717058
 30
4.147377
 70
   192
  0
VERTEX
  8
RK-LAVAT
 10
21.10475099999999
 20
-14.815696
 30
4.147377
 70
   192
  0
VERTEX
  8
RK-LAVAT
 10
20.84699599999999
 20
-14.850656
 30
4.147377
 70
   192
  0
VERTEX
  8
RK-LAVAT
 10
2.403241000000001
 20
-14.850656
 30
4.147376
 70
   192
  0
VERTEX
  8
RK-LAVAT
 10
2.145485999999998
 20
-14.815697
 30
4.147376
 70
   192
  0
VERTEX
  8
RK-LAVAT
 10
1.913767999999997
 20
-14.717059
 30
4.147376
 70
   192
  0
VERTEX
  8
RK-LAVAT
 10
1.717376999999999
 20
-14.56409999999999
 30
4.147376
 70
   192
  0
VERTEX
  8
RK-LAVAT
 10
1.565596999999996
 20
-14.366182
 30
4.147376
 70
   192
  0
VERTEX
  8
RK-LAVAT
 10
1.467717999999997
 20
-14.132664
 30
4.147376
 70
   192
  0
VERTEX
  8
RK-LAVAT
 10
1.433026999999995
 20
-13.872906
 30
4.147376
 70
   192
  0
VERTEX
  8
RK-LAVAT
 10
1.433026999999995
 20
-2.259907
 30
4.147374
 70
   192
  0
VERTEX
  8
RK-LAVAT
 10
1.467717999999997
 20
-2.000149999999999
 30
4.147374
 70
   192
  0
VERTEX
  8
RK-LAVAT
 10
1.565596999999996
 20
-1.766633
 30
4.147374
 70
   192
  0
VERTEX
  8
RK-LAVAT
 10
1.717376999999999
 20
-1.568714999999999
 30
4.147374
 70
   192
  0
VERTEX
  8
RK-LAVAT
 10
1.913767999999997
 20
-1.415756
 30
4.147374
 70
   192
  0
VERTEX
  8
RK-LAVAT
 10
2.145485999999998
 20
-1.317117000000001
 30
4.147374
 70
   192
  0
VERTEX
  8
RK-LAVAT
 10
20.80249899999999
 20
-1.289839999999999
 30
3.927438999999999
 70
   192
  0
VERTEX
  8
RK-LAVAT
 10
2.447760000000002
 20
-1.289839999999999
 30
3.927438
 70
   192
  0
VERTEX
  8
RK-LAVAT
 10
21.05901
 20
-1.324709
 30
3.927438999999999
 70
   192
  0
VERTEX
  8
RK-LAVAT
 10
21.28960999999999
 20
-1.423092000000002
 30
3.927438999999999
 70
   192
  0
VERTEX
  8
RK-LAVAT
 10
21.48505399999999
 20
-1.575654000000001
 30
3.927438999999999
 70
   192
  0
VERTEX
  8
RK-LAVAT
 10
21.636102
 20
-1.773059999999999
 30
3.927438999999999
 70
   192
  0
VERTEX
  8
RK-LAVAT
 10
21.73350699999999
 20
-2.005974
 30
3.927438999999999
 70
   192
  0
VERTEX
  8
RK-LAVAT
 10
21.76803
 20
-2.265058000000002
 30
3.927438999999999
 70
   192
  0
VERTEX
  8
RK-LAVAT
 10
21.76803
 20
-13.847692
 30
3.927440999999999
 70
   192
  0
VERTEX
  8
RK-LAVAT
 10
21.73350699999999
 20
-14.106777
 30
3.927440999999999
 70
   192
  0
VERTEX
  8
RK-LAVAT
 10
21.636102
 20
-14.339691
 30
3.927440999999999
 70
   192
  0
VERTEX
  8
RK-LAVAT
 10
21.48505399999999
 20
-14.537097
 30
3.927440999999999
 70
   192
  0
VERTEX
  8
RK-LAVAT
 10
21.289609
 20
-14.689659
 30
3.927442
 70
   192
  0
VERTEX
  8
RK-LAVAT
 10
21.05901
 20
-14.788042
 30
3.927442
 70
   192
  0
VERTEX
  8
RK-LAVAT
 10
20.80249899999999
 20
-14.822911
 30
3.927442
 70
   192
  0
VERTEX
  8
RK-LAVAT
 10
2.447760000000002
 20
-14.822911
 30
3.927440999999999
 70
   192
  0
VERTEX
  8
RK-LAVAT
 10
2.191248000000001
 20
-14.788043
 30
3.927440999999999
 70
   192
  0
VERTEX
  8
RK-LAVAT
 10
1.960649000000003
 20
-14.68965999999999
 30
3.927440999999999
 70
   192
  0
VERTEX
  8
RK-LAVAT
 10
1.765205999999999
 20
-14.537097
 30
3.927439999999999
 70
   192
  0
VERTEX
  8
RK-LAVAT
 10
1.614157999999996
 20
-14.33969
 30
3.927439999999999
 70
   192
  0
VERTEX
  8
RK-LAVAT
 10
1.516750999999999
 20
-14.106777
 30
3.927439999999999
 70
   192
  0
VERTEX
  8
RK-LAVAT
 10
1.482229000000003
 20
-13.847692
 30
3.927439999999999
 70
   192
  0
VERTEX
  8
RK-LAVAT
 10
1.482229000000003
 20
-2.265058000000002
 30
3.927438
 70
   192
  0
VERTEX
  8
RK-LAVAT
 10
1.516750999999999
 20
-2.005974
 30
3.927438
 70
   192
  0
VERTEX
  8
RK-LAVAT
 10
1.614157999999996
 20
-1.773059999999999
 30
3.927438
 70
   192
  0
VERTEX
  8
RK-LAVAT
 10
1.765205999999999
 20
-1.575654000000001
 30
3.927438
 70
   192
  0
VERTEX
  8
RK-LAVAT
 10
1.960649000000003
 20
-1.423092000000002
 30
3.927438
 70
   192
  0
VERTEX
  8
RK-LAVAT
 10
2.191248000000001
 20
-1.324709
 30
3.927438
 70
   192
  0
VERTEX
  8
RK-LAVAT
 10
20.755574
 20
-1.29751
 30
3.707503999999999
 70
   192
  0
VERTEX
  8
RK-LAVAT
 10
2.493419000000002
 20
-1.29751
 30
3.707502999999999
 70
   192
  0
VERTEX
  8
RK-LAVAT
 10
21.01079299999999
 20
-1.332283000000002
 30
3.707503999999999
 70
   192
  0
VERTEX
  8
RK-LAVAT
 10
21.24022999999999
 20
-1.430394000000001
 30
3.707503999999999
 70
   192
  0
VERTEX
  8
RK-LAVAT
 10
21.434688
 20
-1.582535999999999
 30
3.707503999999999
 70
   192
  0
VERTEX
  8
RK-LAVAT
 10
21.584973
 20
-1.779396
 30
3.707503999999999
 70
   192
  0
VERTEX
  8
RK-LAVAT
 10
21.681888
 20
-2.011665999999999
 30
3.707503999999999
 70
   192
  0
VERTEX
  8
RK-LAVAT
 10
21.71623599999999
 20
-2.270036
 30
3.707503999999999
 70
   192
  0
VERTEX
  8
RK-LAVAT
 10
21.71623599999999
 20
-13.820346
 30
3.707506
 70
   192
  0
VERTEX
  8
RK-LAVAT
 10
21.681888
 20
-14.078716
 30
3.707506
 70
   192
  0
VERTEX
  8
RK-LAVAT
 10
21.584973
 20
-14.310987
 30
3.707506
 70
   192
  0
VERTEX
  8
RK-LAVAT
 10
21.434688
 20
-14.507846
 30
3.707506
 70
   192
  0
VERTEX
  8
RK-LAVAT
 10
21.24022899999999
 20
-14.659988
 30
3.707506
 70
   192
  0
VERTEX
  8
RK-LAVAT
 10
21.01079299999999
 20
-14.758099
 30
3.707506
 70
   192
  0
VERTEX
  8
RK-LAVAT
 10
20.755574
 20
-14.792872
 30
3.707506
 70
   192
  0
VERTEX
  8
RK-LAVAT
 10
2.493419000000002
 20
-14.792872
 30
3.707505
 70
   192
  0
VERTEX
  8
RK-LAVAT
 10
2.238201000000003
 20
-14.7581
 30
3.707505
 70
   192
  0
VERTEX
  8
RK-LAVAT
 10
2.008764999999996
 20
-14.659989
 30
3.707505
 70
   192
  0
VERTEX
  8
RK-LAVAT
 10
1.814306999999999
 20
-14.507846
 30
3.707505
 70
   192
  0
VERTEX
  8
RK-LAVAT
 10
1.664022000000002
 20
-14.310986
 30
3.707505
 70
   192
  0
VERTEX
  8
RK-LAVAT
 10
1.567107
 20
-14.078716
 30
3.707505
 70
   192
  0
VERTEX
  8
RK-LAVAT
 10
1.532758999999998
 20
-13.820346
 30
3.707505
 70
   192
  0
VERTEX
  8
RK-LAVAT
 10
1.532758999999998
 20
-2.270036
 30
3.707502999999999
 70
   192
  0
VERTEX
  8
RK-LAVAT
 10
1.567107
 20
-2.011665999999999
 30
3.707502999999999
 70
   192
  0
VERTEX
  8
RK-LAVAT
 10
1.664022000000002
 20
-1.779396
 30
3.707502999999999
 70
   192
  0
VERTEX
  8
RK-LAVAT
 10
1.814306999999999
 20
-1.582535999999999
 30
3.707502999999999
 70
   192
  0
VERTEX
  8
RK-LAVAT
 10
2.008764999999996
 20
-1.430394000000001
 30
3.707502999999999
 70
   192
  0
VERTEX
  8
RK-LAVAT
 10
2.238201000000003
 20
-1.332283000000002
 30
3.707502999999999
 70
   192
  0
VERTEX
  8
RK-LAVAT
 10
20.63575399999999
 20
-1.305190000000001
 30
3.487568
 70
   192
  0
VERTEX
  8
RK-LAVAT
 10
2.615158
 20
-1.305190000000001
 30
3.487567
 70
   192
  0
VERTEX
  8
RK-LAVAT
 10
20.88759499999999
 20
-1.339861
 30
3.487568
 70
   192
  0
VERTEX
  8
RK-LAVAT
 10
21.113998
 20
-1.437683000000001
 30
3.487568
 70
   192
  0
VERTEX
  8
RK-LAVAT
 10
21.305884
 20
-1.589375000000002
 30
3.487568
 70
   192
  0
VERTEX
  8
RK-LAVAT
 10
21.454181
 20
-1.785656999999998
 30
3.487568
 70
   192
  0
VERTEX
  8
RK-LAVAT
 10
21.549813
 20
-2.017242000000001
 30
3.487568
 70
   192
  0
VERTEX
  8
RK-LAVAT
 10
21.583708
 20
-2.274851
 30
3.487568
 70
   192
  0
VERTEX
  8
RK-LAVAT
 10
21.583708
 20
-13.790776
 30
3.48757
 70
   192
  0
VERTEX
  8
RK-LAVAT
 10
21.549813
 20
-14.048384
 30
3.48757
 70
   192
  0
VERTEX
  8
RK-LAVAT
 10
21.454181
 20
-14.279971
 30
3.48757
 70
   192
  0
VERTEX
  8
RK-LAVAT
 10
21.305884
 20
-14.476251
 30
3.48757
 70
   192
  0
VERTEX
  8
RK-LAVAT
 10
21.11399699999999
 20
-14.627944
 30
3.48757
 70
   192
  0
VERTEX
  8
RK-LAVAT
 10
20.88759499999999
 20
-14.725766
 30
3.48757
 70
   192
  0
VERTEX
  8
RK-LAVAT
 10
20.63575399999999
 20
-14.76043699999999
 30
3.48757
 70
   192
  0
VERTEX
  8
RK-LAVAT
 10
2.615158
 20
-14.76043699999999
 30
3.487569
 70
   192
  0
VERTEX
  8
RK-LAVAT
 10
2.363315999999997
 20
-14.725767
 30
3.487569
 70
   192
  0
VERTEX
  8
RK-LAVAT
 10
2.136913999999997
 20
-14.627945
 30
3.487569
 70
   192
  0
VERTEX
  8
RK-LAVAT
 10
1.945028999999998
 20
-14.476251
 30
3.487569
 70
   192
  0
VERTEX
  8
RK-LAVAT
 10
1.796730999999994
 20
-14.27997
 30
3.487569
 70
   192
  0
VERTEX
  8
RK-LAVAT
 10
1.701098999999999
 20
-14.048384
 30
3.487569
 70
   192
  0
VERTEX
  8
RK-LAVAT
 10
1.667203999999998
 20
-13.790776
 30
3.487569
 70
   192
  0
VERTEX
  8
RK-LAVAT
 10
1.667203999999998
 20
-2.274851
 30
3.487567
 70
   192
  0
VERTEX
  8
RK-LAVAT
 10
1.701098999999999
 20
-2.017242000000001
 30
3.487567
 70
   192
  0
VERTEX
  8
RK-LAVAT
 10
1.796730999999994
 20
-1.785656999999998
 30
3.487567
 70
   192
  0
VERTEX
  8
RK-LAVAT
 10
1.945028999999998
 20
-1.589375000000002
 30
3.487567
 70
   192
  0
VERTEX
  8
RK-LAVAT
 10
2.136913999999997
 20
-1.437683000000001
 30
3.487567
 70
   192
  0
VERTEX
  8
RK-LAVAT
 10
2.363315999999997
 20
-1.339861
 30
3.487567
 70
   192
  0
VERTEX
  8
RK-LAVAT
 10
20.30402999999999
 20
-1.315178000000001
 30
3.201893
 70
   192
  0
VERTEX
  8
RK-LAVAT
 10
2.948746999999997
 20
-1.315178000000001
 30
3.201891999999999
 70
   192
  0
VERTEX
  8
RK-LAVAT
 10
20.54657399999999
 20
-1.349705999999999
 30
3.201893
 70
   192
  0
VERTEX
  8
RK-LAVAT
 10
20.76461699999999
 20
-1.447128000000001
 30
3.201893
 70
   192
  0
VERTEX
  8
RK-LAVAT
 10
20.949418
 20
-1.598198999999999
 30
3.201893
 70
   192
  0
VERTEX
  8
RK-LAVAT
 10
21.09224
 20
-1.793674999999998
 30
3.201893
 70
   192
  0
VERTEX
  8
RK-LAVAT
 10
21.184343
 20
-2.024312
 30
3.201893
 70
   192
  0
VERTEX
  8
RK-LAVAT
 10
21.21698599999999
 20
-2.280864
 30
3.201893
 70
   192
  0
VERTEX
  8
RK-LAVAT
 10
21.21698599999999
 20
-13.749108
 30
3.201894999999999
 70
   192
  0
VERTEX
  8
RK-LAVAT
 10
21.184343
 20
-14.00566099999999
 30
3.201894999999999
 70
   192
  0
VERTEX
  8
RK-LAVAT
 10
21.09224
 20
-14.236298
 30
3.201894999999999
 70
   192
  0
VERTEX
  8
RK-LAVAT
 10
20.949418
 20
-14.431774
 30
3.201894999999999
 70
   192
  0
VERTEX
  8
RK-LAVAT
 10
20.76461599999999
 20
-14.582844
 30
3.201894999999999
 70
   192
  0
VERTEX
  8
RK-LAVAT
 10
20.54657399999999
 20
-14.68026599999999
 30
3.201894999999999
 70
   192
  0
VERTEX
  8
RK-LAVAT
 10
20.30402999999999
 20
-14.714795
 30
3.201894999999999
 70
   192
  0
VERTEX
  8
RK-LAVAT
 10
2.948746999999997
 20
-14.714795
 30
3.201894
 70
   192
  0
VERTEX
  8
RK-LAVAT
 10
2.706203000000002
 20
-14.680267
 30
3.201894
 70
   192
  0
VERTEX
  8
RK-LAVAT
 10
2.48816
 20
-14.582845
 30
3.201894
 70
   192
  0
VERTEX
  8
RK-LAVAT
 10
2.303359
 20
-14.431774
 30
3.201894
 70
   192
  0
VERTEX
  8
RK-LAVAT
 10
2.160536
 20
-14.236297
 30
3.201894
 70
   192
  0
VERTEX
  8
RK-LAVAT
 10
2.068433999999996
 20
-14.00566099999999
 30
3.201894
 70
   192
  0
VERTEX
  8
RK-LAVAT
 10
2.035792
 20
-13.749108
 30
3.201894
 70
   192
  0
VERTEX
  8
RK-LAVAT
 10
2.035792
 20
-2.280864
 30
3.201891999999999
 70
   192
  0
VERTEX
  8
RK-LAVAT
 10
2.068433999999996
 20
-2.024312
 30
3.201891999999999
 70
   192
  0
VERTEX
  8
RK-LAVAT
 10
2.160536
 20
-1.793674999999998
 30
3.201891999999999
 70
   192
  0
VERTEX
  8
RK-LAVAT
 10
2.303359
 20
-1.598198999999999
 30
3.201891999999999
 70
   192
  0
VERTEX
  8
RK-LAVAT
 10
2.48816
 20
-1.447128000000001
 30
3.201891999999999
 70
   192
  0
VERTEX
  8
RK-LAVAT
 10
2.706203000000002
 20
-1.349705999999999
 30
3.201891999999999
 70
   192
  0
VERTEX
  8
RK-LAVAT
 10
19.948794
 20
-1.325150999999999
 30
2.916218
 70
   192
  0
VERTEX
  8
RK-LAVAT
 10
3.303958999999998
 20
-1.325150999999999
 30
2.916216999999999
 70
   192
  0
VERTEX
  8
RK-LAVAT
 10
20.18140799999999
 20
-1.359526999999998
 30
2.916218
 70
   192
  0
VERTEX
  8
RK-LAVAT
 10
20.390526
 20
-1.456519000000001
 30
2.916218
 70
   192
  0
VERTEX
  8
RK-LAVAT
 10
20.567763
 20
-1.606925000000002
 30
2.916218
 70
   192
  0
VERTEX
  8
RK-LAVAT
 10
20.70473899999999
 20
-1.801540000000001
 30
2.916218
 70
   192
  0
VERTEX
  8
RK-LAVAT
 10
20.79307099999999
 20
-2.031160999999999
 30
2.916218
 70
   192
  0
VERTEX
  8
RK-LAVAT
 10
20.82437699999999
 20
-2.286583000000002
 30
2.916218
 70
   192
  0
VERTEX
  8
RK-LAVAT
 10
20.82437699999999
 20
-13.703768
 30
2.91622
 70
   192
  0
VERTEX
  8
RK-LAVAT
 10
20.79307099999999
 20
-13.959191
 30
2.91622
 70
   192
  0
VERTEX
  8
RK-LAVAT
 10
20.70473899999999
 20
-14.188811
 30
2.91622
 70
   192
  0
VERTEX
  8
RK-LAVAT
 10
20.567763
 20
-14.383426
 30
2.91622
 70
   192
  0
VERTEX
  8
RK-LAVAT
 10
20.39052499999999
 20
-14.533832
 30
2.91622
 70
   192
  0
VERTEX
  8
RK-LAVAT
 10
20.18140799999999
 20
-14.630824
 30
2.91622
 70
   192
  0
VERTEX
  8
RK-LAVAT
 10
19.948794
 20
-14.6652
 30
2.91622
 70
   192
  0
VERTEX
  8
RK-LAVAT
 10
3.303958999999998
 20
-14.6652
 30
2.916218999999999
 70
   192
  0
VERTEX
  8
RK-LAVAT
 10
3.071343999999996
 20
-14.630825
 30
2.916218999999999
 70
   192
  0
VERTEX
  8
RK-LAVAT
 10
2.862226999999997
 20
-14.533833
 30
2.916218999999999
 70
   192
  0
VERTEX
  8
RK-LAVAT
 10
2.684989999999999
 20
-14.383426
 30
2.916218999999999
 70
   192
  0
VERTEX
  8
RK-LAVAT
 10
2.548013999999994
 20
-14.18881
 30
2.916218999999999
 70
   192
  0
VERTEX
  8
RK-LAVAT
 10
2.459682999999998
 20
-13.959191
 30
2.916218999999999
 70
   192
  0
VERTEX
  8
RK-LAVAT
 10
2.428375000000002
 20
-13.703768
 30
2.916218999999999
 70
   192
  0
VERTEX
  8
RK-LAVAT
 10
2.428375000000002
 20
-2.286583000000002
 30
2.916216999999999
 70
   192
  0
VERTEX
  8
RK-LAVAT
 10
2.459682999999998
 20
-2.031160999999999
 30
2.916216999999999
 70
   192
  0
VERTEX
  8
RK-LAVAT
 10
2.548013999999994
 20
-1.801540000000001
 30
2.916216999999999
 70
   192
  0
VERTEX
  8
RK-LAVAT
 10
2.684989999999999
 20
-1.606925000000002
 30
2.916216999999999
 70
   192
  0
VERTEX
  8
RK-LAVAT
 10
2.862226999999997
 20
-1.456519000000001
 30
2.916216999999999
 70
   192
  0
VERTEX
  8
RK-LAVAT
 10
3.071343999999996
 20
-1.359526999999998
 30
2.916216999999999
 70
   192
  0
VERTEX
  8
RK-LAVAT
 10
19.56922
 20
-1.335119
 30
2.630542
 70
   192
  0
VERTEX
  8
RK-LAVAT
 10
3.682958999999996
 20
-1.335119
 30
2.630542
 70
   192
  0
VERTEX
  8
RK-LAVAT
 10
19.79123399999999
 20
-1.369333000000002
 30
2.630542
 70
   192
  0
VERTEX
  8
RK-LAVAT
 10
19.99082099999999
 20
-1.465866
 30
2.630542
 70
   192
  0
VERTEX
  8
RK-LAVAT
 10
20.15997999999999
 20
-1.61556
 30
2.630542
 70
   192
  0
VERTEX
  8
RK-LAVAT
 10
20.29071299999999
 20
-1.809255000000002
 30
2.630542
 70
   192
  0
VERTEX
  8
RK-LAVAT
 10
20.37501999999999
 20
-2.037789999999999
 30
2.630542
 70
   192
  0
VERTEX
  8
RK-LAVAT
 10
20.40489999999999
 20
-2.292004000000001
 30
2.630542
 70
   192
  0
VERTEX
  8
RK-LAVAT
 10
20.40489999999999
 20
-13.654626
 30
2.630543999999999
 70
   192
  0
VERTEX
  8
RK-LAVAT
 10
20.37501999999999
 20
-13.908841
 30
2.630543999999999
 70
   192
  0
VERTEX
  8
RK-LAVAT
 10
20.29071299999999
 20
-14.137376
 30
2.630543999999999
 70
   192
  0
VERTEX
  8
RK-LAVAT
 10
20.15997999999999
 20
-14.33107
 30
2.630543999999999
 70
   192
  0
VERTEX
  8
RK-LAVAT
 10
19.99081999999999
 20
-14.480765
 30
2.630543999999999
 70
   192
  0
VERTEX
  8
RK-LAVAT
 10
19.79123399999999
 20
-14.577298
 30
2.630543999999999
 70
   192
  0
VERTEX
  8
RK-LAVAT
 10
19.56922
 20
-14.611511
 30
2.630543999999999
 70
   192
  0
VERTEX
  8
RK-LAVAT
 10
3.682958999999996
 20
-14.611511
 30
2.630543999999999
 70
   192
  0
VERTEX
  8
RK-LAVAT
 10
3.460944999999995
 20
-14.577299
 30
2.630543999999999
 70
   192
  0
VERTEX
  8
RK-LAVAT
 10
3.261358000000001
 20
-14.480765
 30
2.630543999999999
 70
   192
  0
VERTEX
  8
RK-LAVAT
 10
3.092199
 20
-14.33107
 30
2.630543999999999
 70
   192
  0
VERTEX
  8
RK-LAVAT
 10
2.961466000000001
 20
-14.137375
 30
2.630543
 70
   192
  0
VERTEX
  8
RK-LAVAT
 10
2.877160000000003
 20
-13.908841
 30
2.630543
 70
   192
  0
VERTEX
  8
RK-LAVAT
 10
2.847279999999997
 20
-13.654626
 30
2.630543
 70
   192
  0
VERTEX
  8
RK-LAVAT
 10
2.847279999999997
 20
-2.292004000000001
 30
2.630542
 70
   192
  0
VERTEX
  8
RK-LAVAT
 10
2.877160000000003
 20
-2.037789999999999
 30
2.630542
 70
   192
  0
VERTEX
  8
RK-LAVAT
 10
2.961466000000001
 20
-1.809255000000002
 30
2.630542
 70
   192
  0
VERTEX
  8
RK-LAVAT
 10
3.092199
 20
-1.61556
 30
2.630542
 70
   192
  0
VERTEX
  8
RK-LAVAT
 10
3.261358000000001
 20
-1.465866
 30
2.630542
 70
   192
  0
VERTEX
  8
RK-LAVAT
 10
3.460944999999995
 20
-1.369333000000002
 30
2.630542
 70
   192
  0
VERTEX
  8
RK-LAVAT
 10
19.162169
 20
-1.345095999999999
 30
2.344866999999999
 70
   192
  0
VERTEX
  8
RK-LAVAT
 10
4.090538000000002
 20
-1.345095999999999
 30
2.344866
 70
   192
  0
VERTEX
  8
RK-LAVAT
 10
19.37279799999999
 20
-1.379136
 30
2.344866999999999
 70
   192
  0
VERTEX
  8
RK-LAVAT
 10
19.562151
 20
-1.475182999999999
 30
2.344866999999999
 70
   192
  0
VERTEX
  8
RK-LAVAT
 10
19.722636
 20
-1.624119999999999
 30
2.344866999999999
 70
   192
  0
VERTEX
  8
RK-LAVAT
 10
19.84666599999999
 20
-1.816836
 30
2.344866999999999
 70
   192
  0
VERTEX
  8
RK-LAVAT
 10
19.926648
 20
-2.044214000000001
 30
2.344866999999999
 70
   192
  0
VERTEX
  8
RK-LAVAT
 10
19.954996
 20
-2.297144000000002
 30
2.344866999999999
 70
   192
  0
VERTEX
  8
RK-LAVAT
 10
19.954996
 20
-13.601717
 30
2.344869
 70
   192
  0
VERTEX
  8
RK-LAVAT
 10
19.926648
 20
-13.85464699999999
 30
2.344869
 70
   192
  0
VERTEX
  8
RK-LAVAT
 10
19.84666599999999
 20
-14.082027
 30
2.344869
 70
   192
  0
VERTEX
  8
RK-LAVAT
 10
19.722636
 20
-14.274741
 30
2.344869
 70
   192
  0
VERTEX
  8
RK-LAVAT
 10
19.56215
 20
-14.42367899999999
 30
2.344869
 70
   192
  0
VERTEX
  8
RK-LAVAT
 10
19.37279799999999
 20
-14.519724
 30
2.344869
 70
   192
  0
VERTEX
  8
RK-LAVAT
 10
19.162169
 20
-14.553764
 30
2.344869
 70
   192
  0
VERTEX
  8
RK-LAVAT
 10
4.090538000000002
 20
-14.553764
 30
2.344868
 70
   192
  0
VERTEX
  8
RK-LAVAT
 10
3.879908999999997
 20
-14.519725
 30
2.344868
 70
   192
  0
VERTEX
  8
RK-LAVAT
 10
3.690556999999998
 20
-14.42367899999999
 30
2.344868
 70
   192
  0
VERTEX
  8
RK-LAVAT
 10
3.530071999999996
 20
-14.274741
 30
2.344868
 70
   192
  0
VERTEX
  8
RK-LAVAT
 10
3.406041999999999
 20
-14.082026
 30
2.344868
 70
   192
  0
VERTEX
  8
RK-LAVAT
 10
3.326059999999998
 20
-13.85464699999999
 30
2.344868
 70
   192
  0
VERTEX
  8
RK-LAVAT
 10
3.297711999999997
 20
-13.601717
 30
2.344868
 70
   192
  0
VERTEX
  8
RK-LAVAT
 10
3.297711999999997
 20
-2.297144000000002
 30
2.344866
 70
   192
  0
VERTEX
  8
RK-LAVAT
 10
3.326059999999998
 20
-2.044214000000001
 30
2.344866
 70
   192
  0
VERTEX
  8
RK-LAVAT
 10
3.406041999999999
 20
-1.816836
 30
2.344866
 70
   192
  0
VERTEX
  8
RK-LAVAT
 10
3.530071999999996
 20
-1.624119999999999
 30
2.344866
 70
   192
  0
VERTEX
  8
RK-LAVAT
 10
3.690556999999998
 20
-1.475182999999999
 30
2.344866
 70
   192
  0
VERTEX
  8
RK-LAVAT
 10
3.879908999999997
 20
-1.379136
 30
2.344866
 70
   192
  0
VERTEX
  8
RK-LAVAT
 10
18.722104
 20
-1.355069000000002
 30
2.059191999999999
 70
   192
  0
VERTEX
  8
RK-LAVAT
 10
4.530014999999998
 20
-1.355069000000002
 30
2.059191
 70
   192
  0
VERTEX
  8
RK-LAVAT
 10
18.920442
 20
-1.388927
 30
2.059191999999999
 70
   192
  0
VERTEX
  8
RK-LAVAT
 10
19.098745
 20
-1.484455000000002
 30
2.059191999999999
 70
   192
  0
VERTEX
  8
RK-LAVAT
 10
19.24986399999999
 20
-1.632590999999999
 30
2.059191999999999
 70
   192
  0
VERTEX
  8
RK-LAVAT
 10
19.36665599999999
 20
-1.824268000000001
 30
2.059191999999999
 70
   192
  0
VERTEX
  8
RK-LAVAT
 10
19.441971
 20
-2.050421999999999
 30
2.059191999999999
 70
   192
  0
VERTEX
  8
RK-LAVAT
 10
19.46866399999999
 20
-2.301989000000001
 30
2.059191999999999
 70
   192
  0
VERTEX
  8
RK-LAVAT
 10
19.46866399999999
 20
-13.545018
 30
2.059194
 70
   192
  0
VERTEX
  8
RK-LAVAT
 10
19.441971
 20
-13.796585
 30
2.059194
 70
   192
  0
VERTEX
  8
RK-LAVAT
 10
19.36665599999999
 20
-14.022741
 30
2.059194
 70
   192
  0
VERTEX
  8
RK-LAVAT
 10
19.24986399999999
 20
-14.214417
 30
2.059194
 70
   192
  0
VERTEX
  8
RK-LAVAT
 10
19.09874399999999
 20
-14.362552
 30
2.059194
 70
   192
  0
VERTEX
  8
RK-LAVAT
 10
18.920442
 20
-14.45808
 30
2.059194
 70
   192
  0
VERTEX
  8
RK-LAVAT
 10
18.722104
 20
-14.491938
 30
2.059194
 70
   192
  0
VERTEX
  8
RK-LAVAT
 10
4.530014999999998
 20
-14.491938
 30
2.059193
 70
   192
  0
VERTEX
  8
RK-LAVAT
 10
4.331676999999999
 20
-14.45808099999999
 30
2.059193
 70
   192
  0
VERTEX
  8
RK-LAVAT
 10
4.153374999999996
 20
-14.362553
 30
2.059193
 70
   192
  0
VERTEX
  8
RK-LAVAT
 10
4.002255999999995
 20
-14.214417
 30
2.059193
 70
   192
  0
VERTEX
  8
RK-LAVAT
 10
3.885463999999998
 20
-14.02274
 30
2.059193
 70
   192
  0
VERTEX
  8
RK-LAVAT
 10
3.810148999999995
 20
-13.796585
 30
2.059193
 70
   192
  0
VERTEX
  8
RK-LAVAT
 10
3.783456000000001
 20
-13.545018
 30
2.059193
 70
   192
  0
VERTEX
  8
RK-LAVAT
 10
3.783456000000001
 20
-2.301989000000001
 30
2.059191
 70
   192
  0
VERTEX
  8
RK-LAVAT
 10
3.810148999999995
 20
-2.050421999999999
 30
2.059191
 70
   192
  0
VERTEX
  8
RK-LAVAT
 10
3.885463999999998
 20
-1.824268000000001
 30
2.059191
 70
   192
  0
VERTEX
  8
RK-LAVAT
 10
4.002255999999995
 20
-1.632590999999999
 30
2.059191
 70
   192
  0
VERTEX
  8
RK-LAVAT
 10
4.153374999999996
 20
-1.484455000000002
 30
2.059191
 70
   192
  0
VERTEX
  8
RK-LAVAT
 10
4.331676999999999
 20
-1.388927
 30
2.059191
 70
   192
  0
VERTEX
  8
RK-LAVAT
 10
18.242862
 20
-1.365052
 30
1.773515999999999
 70
   192
  0
VERTEX
  8
RK-LAVAT
 10
5.009228999999997
 20
-1.365052
 30
1.773515999999999
 70
   192
  0
VERTEX
  8
RK-LAVAT
 10
18.42780499999999
 20
-1.398714
 30
1.773517
 70
   192
  0
VERTEX
  8
RK-LAVAT
 10
18.59406599999999
 20
-1.493696000000001
 30
1.773517
 70
   192
  0
VERTEX
  8
RK-LAVAT
 10
18.73498
 20
-1.640983
 30
1.773517
 70
   192
  0
VERTEX
  8
RK-LAVAT
 10
18.843884
 20
-1.831561999999999
 30
1.773517
 70
   192
  0
VERTEX
  8
RK-LAVAT
 10
18.914113
 20
-2.056421999999999
 30
1.773517
 70
   192
  0
VERTEX
  8
RK-LAVAT
 10
18.93900399999999
 20
-2.306548000000002
 30
1.773517
 70
   192
  0
VERTEX
  8
RK-LAVAT
 10
18.93900399999999
 20
-13.484512
 30
1.773519
 70
   192
  0
VERTEX
  8
RK-LAVAT
 10
18.914113
 20
-13.734639
 30
1.773519
 70
   192
  0
VERTEX
  8
RK-LAVAT
 10
18.843884
 20
-13.959499
 30
1.773519
 70
   192
  0
VERTEX
  8
RK-LAVAT
 10
18.73498
 20
-14.150078
 30
1.773519
 70
   192
  0
VERTEX
  8
RK-LAVAT
 10
18.594065
 20
-14.297364
 30
1.773519
 70
   192
  0
VERTEX
  8
RK-LAVAT
 10
18.42780499999999
 20
-14.392347
 30
1.773519
 70
   192
  0
VERTEX
  8
RK-LAVAT
 10
18.242862
 20
-14.426009
 30
1.773519
 70
   192
  0
VERTEX
  8
RK-LAVAT
 10
5.009228999999997
 20
-14.426009
 30
1.773518
 70
   192
  0
VERTEX
  8
RK-LAVAT
 10
4.824286
 20
-14.392347
 30
1.773518
 70
   192
  0
VERTEX
  8
RK-LAVAT
 10
4.658025999999999
 20
-14.297365
 30
1.773518
 70
   192
  0
VERTEX
  8
RK-LAVAT
 10
4.517111999999997
 20
-14.150078
 30
1.773518
 70
   192
  0
VERTEX
  8
RK-LAVAT
 10
4.408208000000001
 20
-13.959499
 30
1.773518
 70
   192
  0
VERTEX
  8
RK-LAVAT
 10
4.337978999999997
 20
-13.734639
 30
1.773518
 70
   192
  0
VERTEX
  8
RK-LAVAT
 10
4.313088999999997
 20
-13.484512
 30
1.773518
 70
   192
  0
VERTEX
  8
RK-LAVAT
 10
4.313088999999997
 20
-2.306548000000002
 30
1.773515999999999
 70
   192
  0
VERTEX
  8
RK-LAVAT
 10
4.337978999999997
 20
-2.056421999999999
 30
1.773515999999999
 70
   192
  0
VERTEX
  8
RK-LAVAT
 10
4.408208000000001
 20
-1.831561999999999
 30
1.773515999999999
 70
   192
  0
VERTEX
  8
RK-LAVAT
 10
4.517111999999997
 20
-1.640983
 30
1.773515999999999
 70
   192
  0
VERTEX
  8
RK-LAVAT
 10
4.658025999999999
 20
-1.493696000000001
 30
1.773515999999999
 70
   192
  0
VERTEX
  8
RK-LAVAT
 10
4.824286
 20
-1.398714
 30
1.773515999999999
 70
   192
  0
VERTEX
  8
RK-LAVAT
 10
17.790202
 20
-1.373676999999998
 30
1.526481
 70
   192
  0
VERTEX
  8
RK-LAVAT
 10
5.462457999999998
 20
-1.373676999999998
 30
1.526481
 70
   192
  0
VERTEX
  8
RK-LAVAT
 10
17.962485
 20
-1.407163999999999
 30
1.526481
 70
   192
  0
VERTEX
  8
RK-LAVAT
 10
18.117365
 20
-1.501647
 30
1.526481
 70
   192
  0
VERTEX
  8
RK-LAVAT
 10
18.248632
 20
-1.648162000000001
 30
1.526481
 70
   192
  0
VERTEX
  8
RK-LAVAT
 10
18.350082
 20
-1.837743000000001
 30
1.526481
 70
   192
  0
VERTEX
  8
RK-LAVAT
 10
18.415503
 20
-2.061425000000001
 30
1.526481
 70
   192
  0
VERTEX
  8
RK-LAVAT
 10
18.43869
 20
-2.310240000000002
 30
1.526481
 70
   192
  0
VERTEX
  8
RK-LAVAT
 10
18.43869
 20
-13.429004
 30
1.526482999999999
 70
   192
  0
VERTEX
  8
RK-LAVAT
 10
18.415503
 20
-13.67781899999999
 30
1.526482999999999
 70
   192
  0
VERTEX
  8
RK-LAVAT
 10
18.350082
 20
-13.901501
 30
1.526482999999999
 70
   192
  0
VERTEX
  8
RK-LAVAT
 10
18.248632
 20
-14.091082
 30
1.526482999999999
 70
   192
  0
VERTEX
  8
RK-LAVAT
 10
18.117364
 20
-14.237597
 30
1.526482999999999
 70
   192
  0
VERTEX
  8
RK-LAVAT
 10
17.962485
 20
-14.33208
 30
1.526482999999999
 70
   192
  0
VERTEX
  8
RK-LAVAT
 10
17.790202
 20
-14.365567
 30
1.526482999999999
 70
   192
  0
VERTEX
  8
RK-LAVAT
 10
5.462457999999998
 20
-14.365567
 30
1.526482999999999
 70
   192
  0
VERTEX
  8
RK-LAVAT
 10
5.290176000000002
 20
-14.332081
 30
1.526482999999999
 70
   192
  0
VERTEX
  8
RK-LAVAT
 10
5.135295999999996
 20
-14.237598
 30
1.526482999999999
 70
   192
  0
VERTEX
  8
RK-LAVAT
 10
5.004027999999998
 20
-14.091082
 30
1.526482999999999
 70
   192
  0
VERTEX
  8
RK-LAVAT
 10
4.902579000000002
 20
-13.9015
 30
1.526482999999999
 70
   192
  0
VERTEX
  8
RK-LAVAT
 10
4.837158000000002
 20
-13.67781899999999
 30
1.526482999999999
 70
   192
  0
VERTEX
  8
RK-LAVAT
 10
4.813971000000002
 20
-13.429004
 30
1.526482999999999
 70
   192
  0
VERTEX
  8
RK-LAVAT
 10
4.813971000000002
 20
-2.310240000000002
 30
1.526481
 70
   192
  0
VERTEX
  8
RK-LAVAT
 10
4.837158000000002
 20
-2.061425000000001
 30
1.526481
 70
   192
  0
VERTEX
  8
RK-LAVAT
 10
4.902579000000002
 20
-1.837743000000001
 30
1.526481
 70
   192
  0
VERTEX
  8
RK-LAVAT
 10
5.004027999999998
 20
-1.648162000000001
 30
1.526481
 70
   192
  0
VERTEX
  8
RK-LAVAT
 10
5.135295999999996
 20
-1.501647
 30
1.526481
 70
   192
  0
VERTEX
  8
RK-LAVAT
 10
5.290176000000002
 20
-1.407163999999999
 30
1.526481
 70
   192
  0
VERTEX
  8
RK-LAVAT
 10
17.29235899999999
 20
-1.382303000000002
 30
1.279446
 70
   192
  0
VERTEX
  8
RK-LAVAT
 10
5.960293
 20
-1.382303000000002
 30
1.279444999999999
 70
   192
  0
VERTEX
  8
RK-LAVAT
 10
17.450727
 20
-1.415605000000001
 30
1.279446
 70
   192
  0
VERTEX
  8
RK-LAVAT
 10
17.59309799999999
 20
-1.509569
 30
1.279446
 70
   192
  0
VERTEX
  8
RK-LAVAT
 10
17.713763
 20
-1.655278
 30
1.279446
 70
   192
  0
VERTEX
  8
RK-LAVAT
 10
17.807018
 20
-1.843816000000002
 30
1.279446
 70
   192
  0
VERTEX
  8
RK-LAVAT
 10
17.867156
 20
-2.066266
 30
1.279446
 70
   192
  0
VERTEX
  8
RK-LAVAT
 10
17.88846999999999
 20
-2.313713000000002
 30
1.279446
 70
   192
  0
VERTEX
  8
RK-LAVAT
 10
17.88846999999999
 20
-13.370651
 30
1.279448
 70
   192
  0
VERTEX
  8
RK-LAVAT
 10
17.867156
 20
-13.618098
 30
1.279448
 70
   192
  0
VERTEX
  8
RK-LAVAT
 10
17.807018
 20
-13.84055
 30
1.279448
 70
   192
  0
VERTEX
  8
RK-LAVAT
 10
17.713763
 20
-14.02908599999999
 30
1.279448
 70
   192
  0
VERTEX
  8
RK-LAVAT
 10
17.593097
 20
-14.174795
 30
1.279448
 70
   192
  0
VERTEX
  8
RK-LAVAT
 10
17.450727
 20
-14.26876
 30
1.279448
 70
   192
  0
VERTEX
  8
RK-LAVAT
 10
17.29235899999999
 20
-14.302062
 30
1.279448
 70
   192
  0
VERTEX
  8
RK-LAVAT
 10
5.960293
 20
-14.302062
 30
1.279447
 70
   192
  0
VERTEX
  8
RK-LAVAT
 10
5.801923999999999
 20
-14.268761
 30
1.279447
 70
   192
  0
VERTEX
  8
RK-LAVAT
 10
5.659554999999997
 20
-14.174796
 30
1.279447
 70
   192
  0
VERTEX
  8
RK-LAVAT
 10
5.538888999999997
 20
-14.02908599999999
 30
1.279447
 70
   192
  0
VERTEX
  8
RK-LAVAT
 10
5.445633999999998
 20
-13.840549
 30
1.279447
 70
   192
  0
VERTEX
  8
RK-LAVAT
 10
5.385495999999996
 20
-13.618098
 30
1.279447
 70
   192
  0
VERTEX
  8
RK-LAVAT
 10
5.364181999999999
 20
-13.370651
 30
1.279447
 70
   192
  0
VERTEX
  8
RK-LAVAT
 10
5.364181999999999
 20
-2.313713000000002
 30
1.279444999999999
 70
   192
  0
VERTEX
  8
RK-LAVAT
 10
5.385495999999996
 20
-2.066266
 30
1.279444999999999
 70
   192
  0
VERTEX
  8
RK-LAVAT
 10
5.445633999999998
 20
-1.843816000000002
 30
1.279444999999999
 70
   192
  0
VERTEX
  8
RK-LAVAT
 10
5.538888999999997
 20
-1.655278
 30
1.279444999999999
 70
   192
  0
VERTEX
  8
RK-LAVAT
 10
5.659554999999997
 20
-1.509569
 30
1.279444999999999
 70
   192
  0
VERTEX
  8
RK-LAVAT
 10
5.801923999999999
 20
-1.415605000000001
 30
1.279444999999999
 70
   192
  0
VERTEX
  8
RK-LAVAT
 10
16.73648899999999
 20
-1.390933000000002
 30
1.03241
 70
   192
  0
VERTEX
  8
RK-LAVAT
 10
6.516159999999999
 20
-1.390933000000002
 30
1.03241
 70
   192
  0
VERTEX
  8
RK-LAVAT
 10
16.87931999999999
 20
-1.424044
 30
1.03241
 70
   192
  0
VERTEX
  8
RK-LAVAT
 10
17.00772299999999
 20
-1.517464000000002
 30
1.03241
 70
   192
  0
VERTEX
  8
RK-LAVAT
 10
17.116551
 20
-1.662331
 30
1.03241
 70
   192
  0
VERTEX
  8
RK-LAVAT
 10
17.20065799999999
 20
-1.849778999999999
 30
1.03241
 70
   192
  0
VERTEX
  8
RK-LAVAT
 10
17.25489499999999
 20
-2.070943000000001
 30
1.03241
 70
   192
  0
VERTEX
  8
RK-LAVAT
 10
17.27411899999999
 20
-2.31696
 30
1.03241
 70
   192
  0
VERTEX
  8
RK-LAVAT
 10
17.27411899999999
 20
-13.309272
 30
1.032411999999999
 70
   192
  0
VERTEX
  8
RK-LAVAT
 10
17.25489499999999
 20
-13.555288
 30
1.032411999999999
 70
   192
  0
VERTEX
  8
RK-LAVAT
 10
17.20065799999999
 20
-13.776453
 30
1.032411999999999
 70
   192
  0
VERTEX
  8
RK-LAVAT
 10
17.116551
 20
-13.963901
 30
1.032411999999999
 70
   192
  0
VERTEX
  8
RK-LAVAT
 10
17.00772299999999
 20
-14.108767
 30
1.032411999999999
 70
   192
  0
VERTEX
  8
RK-LAVAT
 10
16.87931999999999
 20
-14.202188
 30
1.032411999999999
 70
   192
  0
VERTEX
  8
RK-LAVAT
 10
16.73648899999999
 20
-14.235298
 30
1.032411999999999
 70
   192
  0
VERTEX
  8
RK-LAVAT
 10
6.516159999999999
 20
-14.235298
 30
1.032411999999999
 70
   192
  0
VERTEX
  8
RK-LAVAT
 10
6.373328
 20
-14.202189
 30
1.032411999999999
 70
   192
  0
VERTEX
  8
RK-LAVAT
 10
6.244925999999999
 20
-14.108768
 30
1.032411999999999
 70
   192
  0
VERTEX
  8
RK-LAVAT
 10
6.136097999999996
 20
-13.963901
 30
1.032411999999999
 70
   192
  0
VERTEX
  8
RK-LAVAT
 10
6.051991999999998
 20
-13.776452
 30
1.032411999999999
 70
   192
  0
VERTEX
  8
RK-LAVAT
 10
5.997753000000002
 20
-13.555288
 30
1.032411999999999
 70
   192
  0
VERTEX
  8
RK-LAVAT
 10
5.978530999999996
 20
-13.309272
 30
1.032411999999999
 70
   192
  0
VERTEX
  8
RK-LAVAT
 10
5.978530999999996
 20
-2.31696
 30
1.03241
 70
   192
  0
VERTEX
  8
RK-LAVAT
 10
5.997753000000002
 20
-2.070943000000001
 30
1.03241
 70
   192
  0
VERTEX
  8
RK-LAVAT
 10
6.051991999999998
 20
-1.849778999999999
 30
1.03241
 70
   192
  0
VERTEX
  8
RK-LAVAT
 10
6.136097999999996
 20
-1.662331
 30
1.03241
 70
   192
  0
VERTEX
  8
RK-LAVAT
 10
6.244925999999999
 20
-1.517464000000002
 30
1.03241
 70
   192
  0
VERTEX
  8
RK-LAVAT
 10
6.373328
 20
-1.424044
 30
1.03241
 70
   192
  0
VERTEX
  8
RK-LAVAT
 10
16.100667
 20
-1.399563999999999
 30
0.7853750000000002
 70
   192
  0
VERTEX
  8
RK-LAVAT
 10
7.151361999999998
 20
-1.399563999999999
 30
0.7853740000000001
 70
   192
  0
VERTEX
  8
RK-LAVAT
 10
16.22573599999999
 20
-1.432472999999999
 30
0.7853750000000002
 70
   192
  0
VERTEX
  8
RK-LAVAT
 10
16.338171
 20
-1.525328
 30
0.7853750000000002
 70
   192
  0
VERTEX
  8
RK-LAVAT
 10
16.433464
 20
-1.669317000000001
 30
0.7853750000000002
 70
   192
  0
VERTEX
  8
RK-LAVAT
 10
16.50711099999999
 20
-1.855628000000001
 30
0.7853750000000002
 70
   192
  0
VERTEX
  8
RK-LAVAT
 10
16.55460399999999
 20
-2.075450999999999
 30
0.7853750000000002
 70
   192
  0
VERTEX
  8
RK-LAVAT
 10
16.57143599999999
 20
-2.319975999999999
 30
0.7853750000000002
 70
   192
  0
VERTEX
  8
RK-LAVAT
 10
16.57143599999999
 20
-13.244928
 30
0.7853770000000005
 70
   192
  0
VERTEX
  8
RK-LAVAT
 10
16.55460399999999
 20
-13.489452
 30
0.7853770000000005
 70
   192
  0
VERTEX
  8
RK-LAVAT
 10
16.50711099999999
 20
-13.709277
 30
0.7853770000000005
 70
   192
  0
VERTEX
  8
RK-LAVAT
 10
16.433464
 20
-13.895588
 30
0.7853770000000005
 70
   192
  0
VERTEX
  8
RK-LAVAT
 10
16.33816999999999
 20
-14.039577
 30
0.7853770000000005
 70
   192
  0
VERTEX
  8
RK-LAVAT
 10
16.22573599999999
 20
-14.132431
 30
0.7853770000000005
 70
   192
  0
VERTEX
  8
RK-LAVAT
 10
16.100667
 20
-14.165341
 30
0.7853770000000005
 70
   192
  0
VERTEX
  8
RK-LAVAT
 10
7.151361999999998
 20
-14.165341
 30
0.7853770000000005
 70
   192
  0
VERTEX
  8
RK-LAVAT
 10
7.026294
 20
-14.132432
 30
0.7853770000000005
 70
   192
  0
VERTEX
  8
RK-LAVAT
 10
6.913859999999999
 20
-14.039578
 30
0.7853770000000005
 70
   192
  0
VERTEX
  8
RK-LAVAT
 10
6.818565999999997
 20
-13.895588
 30
0.7853770000000005
 70
   192
  0
VERTEX
  8
RK-LAVAT
 10
6.744918999999995
 20
-13.709276
 30
0.7853760000000003
 70
   192
  0
VERTEX
  8
RK-LAVAT
 10
6.697426
 20
-13.489452
 30
0.7853760000000003
 70
   192
  0
VERTEX
  8
RK-LAVAT
 10
6.680593999999999
 20
-13.244928
 30
0.7853760000000003
 70
   192
  0
VERTEX
  8
RK-LAVAT
 10
6.680593999999999
 20
-2.319975999999999
 30
0.7853750000000002
 70
   192
  0
VERTEX
  8
RK-LAVAT
 10
6.697426
 20
-2.075450999999999
 30
0.7853740000000001
 70
   192
  0
VERTEX
  8
RK-LAVAT
 10
6.744918999999995
 20
-1.855628000000001
 30
0.7853740000000001
 70
   192
  0
VERTEX
  8
RK-LAVAT
 10
6.818565999999997
 20
-1.669317000000001
 30
0.7853740000000001
 70
   192
  0
VERTEX
  8
RK-LAVAT
 10
6.913859999999999
 20
-1.525328
 30
0.7853740000000001
 70
   192
  0
VERTEX
  8
RK-LAVAT
 10
7.026294
 20
-1.432472999999999
 30
0.7853740000000001
 70
   192
  0
VERTEX
  8
RK-LAVAT
 10
15.345433
 20
-1.408188
 30
0.5383390000000006
 70
   192
  0
VERTEX
  8
RK-LAVAT
 10
7.906598000000002
 20
-1.408188
 30
0.5383390000000006
 70
   192
  0
VERTEX
  8
RK-LAVAT
 10
15.449392
 20
-1.440889
 30
0.5383390000000006
 70
   192
  0
VERTEX
  8
RK-LAVAT
 10
15.54285
 20
-1.533154000000001
 30
0.5383390000000006
 70
   192
  0
VERTEX
  8
RK-LAVAT
 10
15.62205999999999
 20
-1.676228
 30
0.5383390000000006
 70
   192
  0
VERTEX
  8
RK-LAVAT
 10
15.68327699999999
 20
-1.861356999999999
 30
0.5383390000000006
 70
   192
  0
VERTEX
  8
RK-LAVAT
 10
15.72275399999999
 20
-2.079786
 30
0.5383399999999999
 70
   192
  0
VERTEX
  8
RK-LAVAT
 10
15.736745
 20
-2.322758000000002
 30
0.5383399999999999
 70
   192
  0
VERTEX
  8
RK-LAVAT
 10
15.736745
 20
-13.177599
 30
0.538341
 70
   192
  0
VERTEX
  8
RK-LAVAT
 10
15.72275399999999
 20
-13.420571
 30
0.538341
 70
   192
  0
VERTEX
  8
RK-LAVAT
 10
15.68327699999999
 20
-13.639
 30
0.538341
 70
   192
  0
VERTEX
  8
RK-LAVAT
 10
15.62205999999999
 20
-13.824129
 30
0.538341
 70
   192
  0
VERTEX
  8
RK-LAVAT
 10
15.54285
 20
-13.967203
 30
0.538341
 70
   192
  0
VERTEX
  8
RK-LAVAT
 10
15.449392
 20
-14.059468
 30
0.538341
 70
   192
  0
VERTEX
  8
RK-LAVAT
 10
15.345433
 20
-14.092169
 30
0.538341
 70
   192
  0
VERTEX
  8
RK-LAVAT
 10
7.906598000000002
 20
-14.092169
 30
0.538341
 70
   192
  0
VERTEX
  8
RK-LAVAT
 10
7.802638999999999
 20
-14.05946899999999
 30
0.538341
 70
   192
  0
VERTEX
  8
RK-LAVAT
 10
7.709181
 20
-13.967204
 30
0.538341
 70
   192
  0
VERTEX
  8
RK-LAVAT
 10
7.629971999999995
 20
-13.824129
 30
0.538341
 70
   192
  0
VERTEX
  8
RK-LAVAT
 10
7.568754999999995
 20
-13.639
 30
0.538341
 70
   192
  0
VERTEX
  8
RK-LAVAT
 10
7.529277999999997
 20
-13.420571
 30
0.538341
 70
   192
  0
VERTEX
  8
RK-LAVAT
 10
7.515287
 20
-13.177599
 30
0.538341
 70
   192
  0
VERTEX
  8
RK-LAVAT
 10
7.515287
 20
-2.322758000000002
 30
0.5383390000000006
 70
   192
  0
VERTEX
  8
RK-LAVAT
 10
7.529277999999997
 20
-2.079786
 30
0.5383390000000006
 70
   192
  0
VERTEX
  8
RK-LAVAT
 10
7.568754999999995
 20
-1.861356999999999
 30
0.5383390000000006
 70
   192
  0
VERTEX
  8
RK-LAVAT
 10
7.629971999999995
 20
-1.676228
 30
0.5383390000000006
 70
   192
  0
VERTEX
  8
RK-LAVAT
 10
7.709181
 20
-1.533154000000001
 30
0.5383390000000006
 70
   192
  0
VERTEX
  8
RK-LAVAT
 10
7.802638999999999
 20
-1.440889
 30
0.5383390000000006
 70
   192
  0
VERTEX
  8
RK-LAVAT
 10
14.37290199999999
 20
-1.455551999999999
 30
0.2913040000000002
 70
   192
  0
VERTEX
  8
RK-LAVAT
 10
8.879151
 20
-1.455551999999999
 30
0.2913040000000002
 70
   192
  0
VERTEX
  8
RK-LAVAT
 10
14.449679
 20
-1.487935999999999
 30
0.2913040000000002
 70
   192
  0
VERTEX
  8
RK-LAVAT
 10
14.51869899999999
 20
-1.579310000000001
 30
0.2913040000000002
 70
   192
  0
VERTEX
  8
RK-LAVAT
 10
14.57719799999999
 20
-1.721000000000001
 30
0.2913040000000002
 70
   192
  0
VERTEX
  8
RK-LAVAT
 10
14.622408
 20
-1.904339000000002
 30
0.2913040000000002
 70
   192
  0
VERTEX
  8
RK-LAVAT
 10
14.651562
 20
-2.120654
 30
0.2913040000000002
 70
   192
  0
VERTEX
  8
RK-LAVAT
 10
14.661895
 20
-2.361277
 30
0.2913040000000002
 70
   192
  0
VERTEX
  8
RK-LAVAT
 10
14.661895
 20
-13.109978
 30
0.2913060000000005
 70
   192
  0
VERTEX
  8
RK-LAVAT
 10
14.651562
 20
-13.350601
 30
0.2913060000000005
 70
   192
  0
VERTEX
  8
RK-LAVAT
 10
14.622408
 20
-13.566918
 30
0.2913060000000005
 70
   192
  0
VERTEX
  8
RK-LAVAT
 10
14.57719799999999
 20
-13.750256
 30
0.2913060000000005
 70
   192
  0
VERTEX
  8
RK-LAVAT
 10
14.51869899999999
 20
-13.891946
 30
0.2913060000000005
 70
   192
  0
VERTEX
  8
RK-LAVAT
 10
14.449679
 20
-13.983318
 30
0.2913060000000005
 70
   192
  0
VERTEX
  8
RK-LAVAT
 10
14.37290199999999
 20
-14.015703
 30
0.2913060000000005
 70
   192
  0
VERTEX
  8
RK-LAVAT
 10
8.879151
 20
-14.015703
 30
0.2913060000000005
 70
   192
  0
VERTEX
  8
RK-LAVAT
 10
8.802374999999997
 20
-13.983319
 30
0.2913060000000005
 70
   192
  0
VERTEX
  8
RK-LAVAT
 10
8.733353999999998
 20
-13.891947
 30
0.2913060000000005
 70
   192
  0
VERTEX
  8
RK-LAVAT
 10
8.674855999999998
 20
-13.750256
 30
0.2913060000000005
 70
   192
  0
VERTEX
  8
RK-LAVAT
 10
8.629646000000001
 20
-13.566917
 30
0.2913060000000005
 70
   192
  0
VERTEX
  8
RK-LAVAT
 10
8.600490999999998
 20
-13.350601
 30
0.2913060000000005
 70
   192
  0
VERTEX
  8
RK-LAVAT
 10
8.590158000000002
 20
-13.109978
 30
0.2913060000000005
 70
   192
  0
VERTEX
  8
RK-LAVAT
 10
8.590158000000002
 20
-2.361277
 30
0.2913040000000002
 70
   192
  0
VERTEX
  8
RK-LAVAT
 10
8.600490999999998
 20
-2.120654
 30
0.2913040000000002
 70
   192
  0
VERTEX
  8
RK-LAVAT
 10
8.629646000000001
 20
-1.904339000000002
 30
0.2913040000000002
 70
   192
  0
VERTEX
  8
RK-LAVAT
 10
8.674855999999998
 20
-1.721000000000001
 30
0.2913040000000002
 70
   192
  0
VERTEX
  8
RK-LAVAT
 10
8.733353999999998
 20
-1.579310000000001
 30
0.2913040000000002
 70
   192
  0
VERTEX
  8
RK-LAVAT
 10
8.802374999999997
 20
-1.487935999999999
 30
0.2913040000000002
 70
   192
  0
VERTEX
  8
RK-LAVAT
 10
14.13584999999999
 20
-1.481272000000002
 30
0.2427530000000004
 70
   192
  0
VERTEX
  8
RK-LAVAT
 10
9.116856999999995
 20
-1.481272000000002
 30
0.2427530000000004
 70
   192
  0
VERTEX
  8
RK-LAVAT
 10
14.205992
 20
-1.513526
 30
0.2427530000000004
 70
   192
  0
VERTEX
  8
RK-LAVAT
 10
14.26904799999999
 20
-1.604530999999999
 30
0.2427530000000004
 70
   192
  0
VERTEX
  8
RK-LAVAT
 10
14.32249099999999
 20
-1.745649999999999
 30
0.2427530000000004
 70
   192
  0
VERTEX
  8
RK-LAVAT
 10
14.36379399999999
 20
-1.92825
 30
0.2427530000000004
 70
   192
  0
VERTEX
  8
RK-LAVAT
 10
14.39042899999999
 20
-2.143693
 30
0.2427530000000004
 70
   192
  0
VERTEX
  8
RK-LAVAT
 10
14.39986899999999
 20
-2.383346999999999
 30
0.2427530000000004
 70
   192
  0
VERTEX
  8
RK-LAVAT
 10
14.39986899999999
 20
-13.08824
 30
0.2427550000000007
 70
   192
  0
VERTEX
  8
RK-LAVAT
 10
14.39042899999999
 20
-13.32789299999999
 30
0.2427550000000007
 70
   192
  0
VERTEX
  8
RK-LAVAT
 10
14.36379399999999
 20
-13.543338
 30
0.2427550000000007
 70
   192
  0
VERTEX
  8
RK-LAVAT
 10
14.32249099999999
 20
-13.725937
 30
0.2427550000000007
 70
   192
  0
VERTEX
  8
RK-LAVAT
 10
14.269047
 20
-13.867056
 30
0.2427550000000007
 70
   192
  0
VERTEX
  8
RK-LAVAT
 10
14.205992
 20
-13.95806
 30
0.2427550000000007
 70
   192
  0
VERTEX
  8
RK-LAVAT
 10
14.13584999999999
 20
-13.990315
 30
0.2427550000000007
 70
   192
  0
VERTEX
  8
RK-LAVAT
 10
9.116856999999995
 20
-13.990315
 30
0.2427550000000007
 70
   192
  0
VERTEX
  8
RK-LAVAT
 10
9.046714999999998
 20
-13.958061
 30
0.2427550000000007
 70
   192
  0
VERTEX
  8
RK-LAVAT
 10
8.983658999999995
 20
-13.867057
 30
0.2427550000000007
 70
   192
  0
VERTEX
  8
RK-LAVAT
 10
8.930216000000001
 20
-13.725937
 30
0.2427550000000007
 70
   192
  0
VERTEX
  8
RK-LAVAT
 10
8.888913000000002
 20
-13.543337
 30
0.2427550000000007
 70
   192
  0
VERTEX
  8
RK-LAVAT
 10
8.862277999999996
 20
-13.32789299999999
 30
0.2427550000000007
 70
   192
  0
VERTEX
  8
RK-LAVAT
 10
8.852837999999998
 20
-13.08824
 30
0.2427550000000007
 70
   192
  0
VERTEX
  8
RK-LAVAT
 10
8.852837999999998
 20
-2.383346999999999
 30
0.2427530000000004
 70
   192
  0
VERTEX
  8
RK-LAVAT
 10
8.862277999999996
 20
-2.143693
 30
0.2427530000000004
 70
   192
  0
VERTEX
  8
RK-LAVAT
 10
8.888913000000002
 20
-1.92825
 30
0.2427530000000004
 70
   192
  0
VERTEX
  8
RK-LAVAT
 10
8.930216000000001
 20
-1.745649999999999
 30
0.2427530000000004
 70
   192
  0
VERTEX
  8
RK-LAVAT
 10
8.983658999999995
 20
-1.604530999999999
 30
0.2427530000000004
 70
   192
  0
VERTEX
  8
RK-LAVAT
 10
9.046714999999998
 20
-1.513526
 30
0.2427530000000004
 70
   192
  0
VERTEX
  8
RK-LAVAT
 10
13.872725
 20
-1.514547000000002
 30
0.1942029999999999
 70
   192
  0
VERTEX
  8
RK-LAVAT
 10
9.379993999999996
 20
-1.514547000000002
 30
0.1942020000000006
 70
   192
  0
VERTEX
  8
RK-LAVAT
 10
13.935512
 20
-1.546630999999999
 30
0.1942029999999999
 70
   192
  0
VERTEX
  8
RK-LAVAT
 10
13.99195699999999
 20
-1.637159000000002
 30
0.1942029999999999
 70
   192
  0
VERTEX
  8
RK-LAVAT
 10
14.03979599999999
 20
-1.777538999999999
 30
0.1942029999999999
 70
   192
  0
VERTEX
  8
RK-LAVAT
 10
14.076768
 20
-1.959182
 30
0.1942029999999999
 70
   192
  0
VERTEX
  8
RK-LAVAT
 10
14.10061
 20
-2.173496999999999
 30
0.1942029999999999
 70
   192
  0
VERTEX
  8
RK-LAVAT
 10
14.10906099999999
 20
-2.411895
 30
0.1942029999999999
 70
   192
  0
VERTEX
  8
RK-LAVAT
 10
14.10906099999999
 20
-13.060086
 30
0.1942050000000002
 70
   192
  0
VERTEX
  8
RK-LAVAT
 10
14.10061
 20
-13.298484
 30
0.1942050000000002
 70
   192
  0
VERTEX
  8
RK-LAVAT
 10
14.076768
 20
-13.5128
 30
0.1942050000000002
 70
   192
  0
VERTEX
  8
RK-LAVAT
 10
14.03979599999999
 20
-13.694443
 30
0.1942050000000002
 70
   192
  0
VERTEX
  8
RK-LAVAT
 10
13.991956
 20
-13.834823
 30
0.1942050000000002
 70
   192
  0
VERTEX
  8
RK-LAVAT
 10
13.935512
 20
-13.92535
 30
0.1942050000000002
 70
   192
  0
VERTEX
  8
RK-LAVAT
 10
13.872725
 20
-13.957436
 30
0.1942050000000002
 70
   192
  0
VERTEX
  8
RK-LAVAT
 10
9.379993999999996
 20
-13.957436
 30
0.194204
 70
   192
  0
VERTEX
  8
RK-LAVAT
 10
9.317206999999996
 20
-13.925351
 30
0.194204
 70
   192
  0
VERTEX
  8
RK-LAVAT
 10
9.260762999999997
 20
-13.834824
 30
0.194204
 70
   192
  0
VERTEX
  8
RK-LAVAT
 10
9.212924000000001
 20
-13.694443
 30
0.194204
 70
   192
  0
VERTEX
  8
RK-LAVAT
 10
9.175950999999997
 20
-13.512799
 30
0.194204
 70
   192
  0
VERTEX
  8
RK-LAVAT
 10
9.152108999999995
 20
-13.298484
 30
0.194204
 70
   192
  0
VERTEX
  8
RK-LAVAT
 10
9.143658999999999
 20
-13.060086
 30
0.194204
 70
   192
  0
VERTEX
  8
RK-LAVAT
 10
9.143658999999999
 20
-2.411895
 30
0.1942020000000006
 70
   192
  0
VERTEX
  8
RK-LAVAT
 10
9.152108999999995
 20
-2.173496999999999
 30
0.1942020000000006
 70
   192
  0
VERTEX
  8
RK-LAVAT
 10
9.175950999999997
 20
-1.959182
 30
0.1942020000000006
 70
   192
  0
VERTEX
  8
RK-LAVAT
 10
9.212924000000001
 20
-1.777538999999999
 30
0.1942020000000006
 70
   192
  0
VERTEX
  8
RK-LAVAT
 10
9.260762999999997
 20
-1.637159000000002
 30
0.1942020000000006
 70
   192
  0
VERTEX
  8
RK-LAVAT
 10
9.317206999999996
 20
-1.546630999999999
 30
0.1942020000000006
 70
   192
  0
VERTEX
  8
RK-LAVAT
 10
13.573334
 20
-1.557479999999999
 30
0.1456520000000001
 70
   192
  0
VERTEX
  8
RK-LAVAT
 10
9.679401999999996
 20
-1.557479999999999
 30
0.1456520000000001
 70
   192
  0
VERTEX
  8
RK-LAVAT
 10
13.627753
 20
-1.589347000000001
 30
0.1456520000000001
 70
   192
  0
VERTEX
  8
RK-LAVAT
 10
13.67667399999999
 20
-1.679260000000001
 30
0.1456520000000001
 70
   192
  0
VERTEX
  8
RK-LAVAT
 10
13.71813699999999
 20
-1.818686000000001
 30
0.1456520000000001
 70
   192
  0
VERTEX
  8
RK-LAVAT
 10
13.750182
 20
-1.999094000000001
 30
0.1456520000000001
 70
   192
  0
VERTEX
  8
RK-LAVAT
 10
13.770847
 20
-2.211952999999999
 30
0.1456520000000001
 70
   192
  0
VERTEX
  8
RK-LAVAT
 10
13.778171
 20
-2.448731000000001
 30
0.1456520000000001
 70
   192
  0
VERTEX
  8
RK-LAVAT
 10
13.778171
 20
-13.02372899999999
 30
0.1456540000000004
 70
   192
  0
VERTEX
  8
RK-LAVAT
 10
13.770847
 20
-13.260508
 30
0.1456540000000004
 70
   192
  0
VERTEX
  8
RK-LAVAT
 10
13.750182
 20
-13.473367
 30
0.1456540000000004
 70
   192
  0
VERTEX
  8
RK-LAVAT
 10
13.71813699999999
 20
-13.653774
 30
0.1456540000000004
 70
   192
  0
VERTEX
  8
RK-LAVAT
 10
13.67667399999999
 20
-13.793201
 30
0.1456540000000004
 70
   192
  0
VERTEX
  8
RK-LAVAT
 10
13.627753
 20
-13.883113
 30
0.1456540000000004
 70
   192
  0
VERTEX
  8
RK-LAVAT
 10
13.573334
 20
-13.91498
 30
0.1456540000000004
 70
   192
  0
VERTEX
  8
RK-LAVAT
 10
9.679401999999996
 20
-13.91498
 30
0.1456540000000004
 70
   192
  0
VERTEX
  8
RK-LAVAT
 10
9.624983
 20
-13.883114
 30
0.1456540000000004
 70
   192
  0
VERTEX
  8
RK-LAVAT
 10
9.576062
 20
-13.793202
 30
0.1456540000000004
 70
   192
  0
VERTEX
  8
RK-LAVAT
 10
9.534599
 20
-13.653774
 30
0.1456540000000004
 70
   192
  0
VERTEX
  8
RK-LAVAT
 10
9.502553999999996
 20
-13.473366
 30
0.1456540000000004
 70
   192
  0
VERTEX
  8
RK-LAVAT
 10
9.481889999999999
 20
-13.260508
 30
0.1456540000000004
 70
   192
  0
VERTEX
  8
RK-LAVAT
 10
9.474565999999995
 20
-13.02372899999999
 30
0.1456529999999994
 70
   192
  0
VERTEX
  8
RK-LAVAT
 10
9.474565999999995
 20
-2.448731000000001
 30
0.1456520000000001
 70
   192
  0
VERTEX
  8
RK-LAVAT
 10
9.481889999999999
 20
-2.211952999999999
 30
0.1456520000000001
 70
   192
  0
VERTEX
  8
RK-LAVAT
 10
9.502553999999996
 20
-1.999094000000001
 30
0.1456520000000001
 70
   192
  0
VERTEX
  8
RK-LAVAT
 10
9.534599
 20
-1.818686000000001
 30
0.1456520000000001
 70
   192
  0
VERTEX
  8
RK-LAVAT
 10
9.576062
 20
-1.679260000000001
 30
0.1456520000000001
 70
   192
  0
VERTEX
  8
RK-LAVAT
 10
9.624983
 20
-1.589347000000001
 30
0.1456520000000001
 70
   192
  0
VERTEX
  8
RK-LAVAT
 10
13.217261
 20
-1.614143
 30
0.0971010000000003
 70
   192
  0
VERTEX
  8
RK-LAVAT
 10
10.03549799999999
 20
-1.614143
 30
0.0971010000000003
 70
   192
  0
VERTEX
  8
RK-LAVAT
 10
13.261727
 20
-1.645722000000001
 30
0.0971010000000003
 70
   192
  0
VERTEX
  8
RK-LAVAT
 10
13.301701
 20
-1.734821999999999
 30
0.0971010000000003
 70
   192
  0
VERTEX
  8
RK-LAVAT
 10
13.33558099999999
 20
-1.872988000000001
 30
0.0971010000000003
 70
   192
  0
VERTEX
  8
RK-LAVAT
 10
13.36176499999999
 20
-2.051766999999999
 30
0.0971010000000003
 70
   192
  0
VERTEX
  8
RK-LAVAT
 10
13.37865
 20
-2.262701999999999
 30
0.0971010000000003
 70
   192
  0
VERTEX
  8
RK-LAVAT
 10
13.38463399999999
 20
-2.497339000000002
 30
0.0971010000000003
 70
   192
  0
VERTEX
  8
RK-LAVAT
 10
13.38463399999999
 20
-12.975702
 30
0.0971030000000006
 70
   192
  0
VERTEX
  8
RK-LAVAT
 10
13.37865
 20
-13.210341
 30
0.0971030000000006
 70
   192
  0
VERTEX
  8
RK-LAVAT
 10
13.36176499999999
 20
-13.421276
 30
0.0971030000000006
 70
   192
  0
VERTEX
  8
RK-LAVAT
 10
13.33558099999999
 20
-13.600054
 30
0.0971030000000006
 70
   192
  0
VERTEX
  8
RK-LAVAT
 10
13.301701
 20
-13.73822
 30
0.0971030000000006
 70
   192
  0
VERTEX
  8
RK-LAVAT
 10
13.261727
 20
-13.82732
 30
0.0971030000000006
 70
   192
  0
VERTEX
  8
RK-LAVAT
 10
13.217261
 20
-13.858899
 30
0.0971030000000006
 70
   192
  0
VERTEX
  8
RK-LAVAT
 10
10.03549799999999
 20
-13.858899
 30
0.0971030000000006
 70
   192
  0
VERTEX
  8
RK-LAVAT
 10
9.991031999999997
 20
-13.827321
 30
0.0971030000000006
 70
   192
  0
VERTEX
  8
RK-LAVAT
 10
9.951057999999996
 20
-13.738221
 30
0.0971030000000006
 70
   192
  0
VERTEX
  8
RK-LAVAT
 10
9.917177999999999
 20
-13.600054
 30
0.0971030000000006
 70
   192
  0
VERTEX
  8
RK-LAVAT
 10
9.890993999999999
 20
-13.421276
 30
0.0971030000000006
 70
   192
  0
VERTEX
  8
RK-LAVAT
 10
9.874108999999997
 20
-13.210341
 30
0.0971030000000006
 70
   192
  0
VERTEX
  8
RK-LAVAT
 10
9.868124999999999
 20
-12.975702
 30
0.0971030000000006
 70
   192
  0
VERTEX
  8
RK-LAVAT
 10
9.868124999999999
 20
-2.497339000000002
 30
0.0971010000000003
 70
   192
  0
VERTEX
  8
RK-LAVAT
 10
9.874108999999997
 20
-2.262701999999999
 30
0.0971010000000003
 70
   192
  0
VERTEX
  8
RK-LAVAT
 10
9.890993999999999
 20
-2.051766999999999
 30
0.0971010000000003
 70
   192
  0
VERTEX
  8
RK-LAVAT
 10
9.917177999999999
 20
-1.872988000000001
 30
0.0971010000000003
 70
   192
  0
VERTEX
  8
RK-LAVAT
 10
9.951057999999996
 20
-1.734821999999999
 30
0.0971010000000003
 70
   192
  0
VERTEX
  8
RK-LAVAT
 10
9.991031999999997
 20
-1.645722000000001
 30
0.0971010000000003
 70
   192
  0
VERTEX
  8
RK-LAVAT
 10
12.752296
 20
-1.695121999999999
 30
0.0485509999999998
 70
   192
  0
VERTEX
  8
RK-LAVAT
 10
10.500495
 20
-1.695121999999999
 30
0.0485509999999998
 70
   192
  0
VERTEX
  8
RK-LAVAT
 10
12.783766
 20
-1.72629
 30
0.0485509999999998
 70
   192
  0
VERTEX
  8
RK-LAVAT
 10
12.81205599999999
 20
-1.814231000000001
 30
0.0485509999999998
 70
   192
  0
VERTEX
  8
RK-LAVAT
 10
12.83603399999999
 20
-1.950599999999999
 30
0.0485509999999998
 70
   192
  0
VERTEX
  8
RK-LAVAT
 10
12.85456399999999
 20
-2.127053999999999
 30
0.0485509999999998
 70
   192
  0
VERTEX
  8
RK-LAVAT
 10
12.866514
 20
-2.335244000000002
 30
0.0485509999999998
 70
   192
  0
VERTEX
  8
RK-LAVAT
 10
12.87075
 20
-2.566830000000002
 30
0.0485509999999998
 70
   192
  0
VERTEX
  8
RK-LAVAT
 10
12.87075
 20
-12.907324
 30
0.0485519999999999
 70
   192
  0
VERTEX
  8
RK-LAVAT
 10
12.866514
 20
-13.138909
 30
0.0485519999999999
 70
   192
  0
VERTEX
  8
RK-LAVAT
 10
12.85456399999999
 20
-13.34710199999999
 30
0.0485519999999999
 70
   192
  0
VERTEX
  8
RK-LAVAT
 10
12.83603399999999
 20
-13.523554
 30
0.0485519999999999
 70
   192
  0
VERTEX
  8
RK-LAVAT
 10
12.81205599999999
 20
-13.659923
 30
0.0485519999999999
 70
   192
  0
VERTEX
  8
RK-LAVAT
 10
12.783766
 20
-13.747864
 30
0.0485519999999999
 70
   192
  0
VERTEX
  8
RK-LAVAT
 10
12.752296
 20
-13.779032
 30
0.0485519999999999
 70
   192
  0
VERTEX
  8
RK-LAVAT
 10
10.500495
 20
-13.779032
 30
0.0485519999999999
 70
   192
  0
VERTEX
  8
RK-LAVAT
 10
10.46902599999999
 20
-13.747865
 30
0.0485519999999999
 70
   192
  0
VERTEX
  8
RK-LAVAT
 10
10.440736
 20
-13.659924
 30
0.0485519999999999
 70
   192
  0
VERTEX
  8
RK-LAVAT
 10
10.416758
 20
-13.523554
 30
0.0485519999999999
 70
   192
  0
VERTEX
  8
RK-LAVAT
 10
10.39822699999999
 20
-13.347101
 30
0.0485519999999999
 70
   192
  0
VERTEX
  8
RK-LAVAT
 10
10.38627699999999
 20
-13.138909
 30
0.0485519999999999
 70
   192
  0
VERTEX
  8
RK-LAVAT
 10
10.38204199999999
 20
-12.907324
 30
0.0485519999999999
 70
   192
  0
VERTEX
  8
RK-LAVAT
 10
10.38204199999999
 20
-2.566830000000002
 30
0.0485509999999998
 70
   192
  0
VERTEX
  8
RK-LAVAT
 10
10.38627699999999
 20
-2.335244000000002
 30
0.0485509999999998
 70
   192
  0
VERTEX
  8
RK-LAVAT
 10
10.39822699999999
 20
-2.127053999999999
 30
0.0485509999999998
 70
   192
  0
VERTEX
  8
RK-LAVAT
 10
10.416758
 20
-1.950599999999999
 30
0.0485509999999998
 70
   192
  0
VERTEX
  8
RK-LAVAT
 10
10.440736
 20
-1.814231000000001
 30
0.0485509999999998
 70
   192
  0
VERTEX
  8
RK-LAVAT
 10
10.46902599999999
 20
-1.72629
 30
0.0485509999999998
 70
   192
  0
VERTEX
  8
RK-LAVAT
 10
11.61816799999999
 20
-1.919089000000001
 30
0.0
 70
   192
  0
VERTEX
  8
RK-LAVAT
 10
11.61816799999999
 20
-1.949234999999999
 30
0.0
 70
   192
  0
VERTEX
  8
RK-LAVAT
 10
11.61816799999999
 20
-2.034294
 30
0.0
 70
   192
  0
VERTEX
  8
RK-LAVAT
 10
11.61816799999999
 20
-2.166193999999999
 30
0.0
 70
   192
  0
VERTEX
  8
RK-LAVAT
 10
11.61816799999999
 20
-2.336865000000002
 30
0.0
 70
   192
  0
VERTEX
  8
RK-LAVAT
 10
11.61816799999999
 20
-2.538233
 30
0.0
 70
   192
  0
VERTEX
  8
RK-LAVAT
 10
11.61816799999999
 20
-2.762230000000001
 30
0.0
 70
   192
  0
VERTEX
  8
RK-LAVAT
 10
11.61816799999999
 20
-12.759922
 30
0.0000020000000003
 70
   192
  0
VERTEX
  8
RK-LAVAT
 10
11.61816799999999
 20
-12.983918
 30
0.0000020000000003
 70
   192
  0
VERTEX
  8
RK-LAVAT
 10
11.61816799999999
 20
-13.185288
 30
0.0000020000000003
 70
   192
  0
VERTEX
  8
RK-LAVAT
 10
11.61816799999999
 20
-13.355957
 30
0.0000020000000003
 70
   192
  0
VERTEX
  8
RK-LAVAT
 10
11.61816799999999
 20
-13.487857
 30
0.0000020000000003
 70
   192
  0
VERTEX
  8
RK-LAVAT
 10
11.61816799999999
 20
-13.572916
 30
0.0000020000000003
 70
   192
  0
VERTEX
  8
RK-LAVAT
 10
11.61816799999999
 20
-13.603063
 30
0.0000020000000003
 70
   192
  0
VERTEX
  8
RK-LAVAT
 10
11.61816799999999
 20
-13.572917
 30
0.0000020000000003
 70
   192
  0
VERTEX
  8
RK-LAVAT
 10
11.61816799999999
 20
-13.487858
 30
0.0000020000000003
 70
   192
  0
VERTEX
  8
RK-LAVAT
 10
11.61816799999999
 20
-13.185287
 30
0.0000020000000003
 70
   192
  0
VERTEX
  8
RK-LAVAT
 10
21.67869299999999
 20
-0.0722369999999995
 30
5.997878
 70
   192
  0
VERTEX
  8
RK-LAVAT
 10
21.67869299999999
 20
-0.0722369999999995
 30
5.497878
 70
   192
  0
VERTEX
  8
RK-LAVAT
 10
21.12999899999999
 20
0.0
 30
5.497878
 70
   192
  0
VERTEX
  8
RK-LAVAT
 10
21.12999899999999
 20
0.0
 30
5.997878
 70
   192
  0
VERTEX
  8
RK-LAVAT
 10
22.189998
 20
-0.284025999999999
 30
5.997878
 70
   192
  0
VERTEX
  8
RK-LAVAT
 10
22.189998
 20
-0.284025999999999
 30
5.497878
 70
   192
  0
VERTEX
  8
RK-LAVAT
 10
22.629064
 20
-0.6209340000000001
 30
5.997878
 70
   192
  0
VERTEX
  8
RK-LAVAT
 10
22.629064
 20
-0.6209340000000001
 30
5.497878
 70
   192
  0
VERTEX
  8
RK-LAVAT
 10
22.96597299999999
 20
-1.06
 30
5.497878
 70
   192
  0
VERTEX
  8
RK-LAVAT
 10
22.96597299999999
 20
-1.06
 30
5.997878
 70
   192
  0
VERTEX
  8
RK-LAVAT
 10
23.177761
 20
-1.571303999999999
 30
5.997878
 70
   192
  0
VERTEX
  8
RK-LAVAT
 10
23.177761
 20
-1.571303999999999
 30
5.497878
 70
   192
  0
VERTEX
  8
RK-LAVAT
 10
23.249998
 20
-2.119999999999999
 30
5.997878
 70
   192
  0
VERTEX
  8
RK-LAVAT
 10
23.249998
 20
-2.119999999999999
 30
5.497878
 70
   192
  0
VERTEX
  8
RK-LAVAT
 10
23.249998
 20
-14.0
 30
5.497878
 70
   192
  0
VERTEX
  8
RK-LAVAT
 10
23.249998
 20
-14.0
 30
5.997878
 70
   192
  0
VERTEX
  8
RK-LAVAT
 10
23.177761
 20
-14.548696
 30
5.997878
 70
   192
  0
VERTEX
  8
RK-LAVAT
 10
23.177761
 20
-14.548696
 30
5.497878
 70
   192
  0
VERTEX
  8
RK-LAVAT
 10
22.96597299999999
 20
-15.06
 30
5.497878
 70
   192
  0
VERTEX
  8
RK-LAVAT
 10
22.96597299999999
 20
-15.06
 30
5.997878
 70
   192
  0
VERTEX
  8
RK-LAVAT
 10
22.629064
 20
-15.49906599999999
 30
5.997878
 70
   192
  0
VERTEX
  8
RK-LAVAT
 10
22.629064
 20
-15.49906599999999
 30
5.497878
 70
   192
  0
VERTEX
  8
RK-LAVAT
 10
22.189998
 20
-15.835974
 30
5.997878
 70
   192
  0
VERTEX
  8
RK-LAVAT
 10
22.189998
 20
-15.835974
 30
5.497878
 70
   192
  0
VERTEX
  8
RK-LAVAT
 10
21.67869299999999
 20
-16.047764
 30
5.997878
 70
   192
  0
VERTEX
  8
RK-LAVAT
 10
21.67869299999999
 20
-16.047764
 30
5.497878
 70
   192
  0
VERTEX
  8
RK-LAVAT
 10
21.12999899999999
 20
-16.120001
 30
5.497878
 70
   192
  0
VERTEX
  8
RK-LAVAT
 10
21.12999899999999
 20
-16.120001
 30
5.997878
 70
   192
  0
VERTEX
  8
RK-LAVAT
 10
1.5713
 20
-16.047764
 30
5.997878
 70
   192
  0
VERTEX
  8
RK-LAVAT
 10
1.5713
 20
-16.047764
 30
5.497878
 70
   192
  0
VERTEX
  8
RK-LAVAT
 10
2.119998999999999
 20
-16.120001
 30
5.497878
 70
   192
  0
VERTEX
  8
RK-LAVAT
 10
2.119998999999999
 20
-16.120001
 30
5.997878
 70
   192
  0
VERTEX
  8
RK-LAVAT
 10
1.059996999999995
 20
-15.835974
 30
5.997878
 70
   192
  0
VERTEX
  8
RK-LAVAT
 10
1.059996999999995
 20
-15.835974
 30
5.497878
 70
   192
  0
VERTEX
  8
RK-LAVAT
 10
0.6209289999999968
 20
-15.49906599999999
 30
5.997878
 70
   192
  0
VERTEX
  8
RK-LAVAT
 10
0.6209289999999968
 20
-15.49906599999999
 30
5.497878
 70
   192
  0
VERTEX
  8
RK-LAVAT
 10
0.2840229999999977
 20
-15.06
 30
5.497878
 70
   192
  0
VERTEX
  8
RK-LAVAT
 10
0.2840229999999977
 20
-15.06
 30
5.997878
 70
   192
  0
VERTEX
  8
RK-LAVAT
 10
0.0722349999999992
 20
-14.548696
 30
5.997878
 70
   192
  0
VERTEX
  8
RK-LAVAT
 10
0.0722349999999992
 20
-14.548696
 30
5.497878
 70
   192
  0
VERTEX
  8
RK-LAVAT
 10
0.0
 20
-14.0
 30
5.997878
 70
   192
  0
VERTEX
  8
RK-LAVAT
 10
0.0
 20
-14.0
 30
5.497878
 70
   192
  0
VERTEX
  8
RK-LAVAT
 10
0.0
 20
-2.119999999999999
 30
5.497878
 70
   192
  0
VERTEX
  8
RK-LAVAT
 10
0.0
 20
-2.119999999999999
 30
5.997878
 70
   192
  0
VERTEX
  8
RK-LAVAT
 10
0.0722349999999992
 20
-1.571303999999999
 30
5.997878
 70
   192
  0
VERTEX
  8
RK-LAVAT
 10
0.0722349999999992
 20
-1.571303999999999
 30
5.497878
 70
   192
  0
VERTEX
  8
RK-LAVAT
 10
0.2840229999999977
 20
-1.06
 30
5.497878
 70
   192
  0
VERTEX
  8
RK-LAVAT
 10
0.2840229999999977
 20
-1.06
 30
5.997878
 70
   192
  0
VERTEX
  8
RK-LAVAT
 10
0.6209289999999968
 20
-0.6209340000000001
 30
5.997878
 70
   192
  0
VERTEX
  8
RK-LAVAT
 10
0.6209289999999968
 20
-0.6209340000000001
 30
5.497878
 70
   192
  0
VERTEX
  8
RK-LAVAT
 10
1.059996999999995
 20
-0.284025999999999
 30
5.997878
 70
   192
  0
VERTEX
  8
RK-LAVAT
 10
1.059996999999995
 20
-0.284025999999999
 30
5.497878
 70
   192
  0
VERTEX
  8
RK-LAVAT
 10
1.5713
 20
-0.0722369999999995
 30
5.997878
 70
   192
  0
VERTEX
  8
RK-LAVAT
 10
1.5713
 20
-0.0722369999999995
 30
5.497878
 70
   192
  0
VERTEX
  8
RK-LAVAT
 10
2.119998999999999
 20
0.0
 30
5.497878
 70
   192
  0
VERTEX
  8
RK-LAVAT
 10
2.119998999999999
 20
0.0
 30
5.997878
 70
   192
  0
VERTEX
  8
RK-LAVAT
 10
1.119998999999999
 20
-14.0
 30
5.997878
 70
   192
  0
VERTEX
  8
RK-LAVAT
 10
1.154070999999994
 20
-14.258819
 30
5.997878
 70
   192
  0
VERTEX
  8
RK-LAVAT
 10
1.253970999999999
 20
-14.5
 30
5.997878
 70
   192
  0
VERTEX
  8
RK-LAVAT
 10
1.412890999999994
 20
-14.707107
 30
5.997878
 70
   192
  0
VERTEX
  8
RK-LAVAT
 10
1.619998999999999
 20
-14.866026
 30
5.997878
 70
   192
  0
VERTEX
  8
RK-LAVAT
 10
1.861178999999999
 20
-14.965926
 30
5.997878
 70
   192
  0
VERTEX
  8
RK-LAVAT
 10
2.119998999999999
 20
-15.0
 30
5.997878
 70
   192
  0
VERTEX
  8
RK-LAVAT
 10
21.12999899999999
 20
-15.0
 30
5.997878
 70
   192
  0
VERTEX
  8
RK-LAVAT
 10
21.38881599999999
 20
-14.965926
 30
5.997878
 70
   192
  0
VERTEX
  8
RK-LAVAT
 10
21.62999899999999
 20
-14.866026
 30
5.997878
 70
   192
  0
VERTEX
  8
RK-LAVAT
 10
21.83710399999999
 20
-14.707107
 30
5.997878
 70
   192
  0
VERTEX
  8
RK-LAVAT
 10
21.996023
 20
-14.5
 30
5.997878
 70
   192
  0
VERTEX
  8
RK-LAVAT
 10
22.09592199999999
 20
-14.258819
 30
5.997878
 70
   192
  0
VERTEX
  8
RK-LAVAT
 10
0.0
 20
0.0
 30
0.0
 70
   128
 71
     1
 72
    -2
 73
     3
  0
VERTEX
  8
RK-LAVAT
 10
0.0
 20
0.0
 30
0.0
 70
   128
 71
     2
 72
     4
 73
    -3
  0
VERTEX
  8
RK-LAVAT
 10
0.0
 20
0.0
 30
0.0
 70
   128
 71
     5
 72
    -1
 73
     6
  0
VERTEX
  8
RK-LAVAT
 10
0.0
 20
0.0
 30
0.0
 70
   128
 71
     1
 72
     3
 73
    -6
  0
VERTEX
  8
RK-LAVAT
 10
0.0
 20
0.0
 30
0.0
 70
   128
 71
     7
 72
    -5
 73
     8
  0
VERTEX
  8
RK-LAVAT
 10
0.0
 20
0.0
 30
0.0
 70
   128
 71
     5
 72
     6
 73
    -8
  0
VERTEX
  8
RK-LAVAT
 10
0.0
 20
0.0
 30
0.0
 70
   128
 71
     9
 72
    -7
 73
    10
  0
VERTEX
  8
RK-LAVAT
 10
0.0
 20
0.0
 30
0.0
 70
   128
 71
     7
 72
     8
 73
   -10
  0
VERTEX
  8
RK-LAVAT
 10
0.0
 20
0.0
 30
0.0
 70
   128
 71
    11
 72
    -9
 73
    12
  0
VERTEX
  8
RK-LAVAT
 10
0.0
 20
0.0
 30
0.0
 70
   128
 71
     9
 72
    10
 73
   -12
  0
VERTEX
  8
RK-LAVAT
 10
0.0
 20
0.0
 30
0.0
 70
   128
 71
    13
 72
   -11
 73
    14
  0
VERTEX
  8
RK-LAVAT
 10
0.0
 20
0.0
 30
0.0
 70
   128
 71
    11
 72
    12
 73
   -14
  0
VERTEX
  8
RK-LAVAT
 10
0.0
 20
0.0
 30
0.0
 70
   128
 71
    15
 72
   -13
 73
    16
  0
VERTEX
  8
RK-LAVAT
 10
0.0
 20
0.0
 30
0.0
 70
   128
 71
    13
 72
    14
 73
   -16
  0
VERTEX
  8
RK-LAVAT
 10
0.0
 20
0.0
 30
0.0
 70
   128
 71
    17
 72
   -15
 73
    18
  0
VERTEX
  8
RK-LAVAT
 10
0.0
 20
0.0
 30
0.0
 70
   128
 71
    15
 72
    16
 73
   -18
  0
VERTEX
  8
RK-LAVAT
 10
0.0
 20
0.0
 30
0.0
 70
   128
 71
    19
 72
   -17
 73
    20
  0
VERTEX
  8
RK-LAVAT
 10
0.0
 20
0.0
 30
0.0
 70
   128
 71
    17
 72
    18
 73
   -20
  0
VERTEX
  8
RK-LAVAT
 10
0.0
 20
0.0
 30
0.0
 70
   128
 71
    21
 72
   -19
 73
    22
  0
VERTEX
  8
RK-LAVAT
 10
0.0
 20
0.0
 30
0.0
 70
   128
 71
    19
 72
    20
 73
   -22
  0
VERTEX
  8
RK-LAVAT
 10
0.0
 20
0.0
 30
0.0
 70
   128
 71
    23
 72
   -21
 73
    24
  0
VERTEX
  8
RK-LAVAT
 10
0.0
 20
0.0
 30
0.0
 70
   128
 71
    21
 72
    22
 73
   -24
  0
VERTEX
  8
RK-LAVAT
 10
0.0
 20
0.0
 30
0.0
 70
   128
 71
    25
 72
   -23
 73
    26
  0
VERTEX
  8
RK-LAVAT
 10
0.0
 20
0.0
 30
0.0
 70
   128
 71
    23
 72
    24
 73
   -26
  0
VERTEX
  8
RK-LAVAT
 10
0.0
 20
0.0
 30
0.0
 70
   128
 71
    27
 72
   -25
 73
    28
  0
VERTEX
  8
RK-LAVAT
 10
0.0
 20
0.0
 30
0.0
 70
   128
 71
    25
 72
    26
 73
   -28
  0
VERTEX
  8
RK-LAVAT
 10
0.0
 20
0.0
 30
0.0
 70
   128
 71
    29
 72
   -27
 73
    30
  0
VERTEX
  8
RK-LAVAT
 10
0.0
 20
0.0
 30
0.0
 70
   128
 71
    27
 72
    28
 73
   -30
  0
VERTEX
  8
RK-LAVAT
 10
0.0
 20
0.0
 30
0.0
 70
   128
 71
    31
 72
   -29
 73
    32
  0
VERTEX
  8
RK-LAVAT
 10
0.0
 20
0.0
 30
0.0
 70
   128
 71
    29
 72
    30
 73
   -32
  0
VERTEX
  8
RK-LAVAT
 10
0.0
 20
0.0
 30
0.0
 70
   128
 71
    33
 72
   -31
 73
    34
  0
VERTEX
  8
RK-LAVAT
 10
0.0
 20
0.0
 30
0.0
 70
   128
 71
    31
 72
    32
 73
   -34
  0
VERTEX
  8
RK-LAVAT
 10
0.0
 20
0.0
 30
0.0
 70
   128
 71
    35
 72
   -33
 73
    36
  0
VERTEX
  8
RK-LAVAT
 10
0.0
 20
0.0
 30
0.0
 70
   128
 71
    33
 72
    34
 73
   -36
  0
VERTEX
  8
RK-LAVAT
 10
0.0
 20
0.0
 30
0.0
 70
   128
 71
    37
 72
   -35
 73
    38
  0
VERTEX
  8
RK-LAVAT
 10
0.0
 20
0.0
 30
0.0
 70
   128
 71
    35
 72
    36
 73
   -38
  0
VERTEX
  8
RK-LAVAT
 10
0.0
 20
0.0
 30
0.0
 70
   128
 71
    39
 72
   -37
 73
    40
  0
VERTEX
  8
RK-LAVAT
 10
0.0
 20
0.0
 30
0.0
 70
   128
 71
    37
 72
    38
 73
   -40
  0
VERTEX
  8
RK-LAVAT
 10
0.0
 20
0.0
 30
0.0
 70
   128
 71
    41
 72
   -39
 73
    42
  0
VERTEX
  8
RK-LAVAT
 10
0.0
 20
0.0
 30
0.0
 70
   128
 71
    39
 72
    40
 73
   -42
  0
VERTEX
  8
RK-LAVAT
 10
0.0
 20
0.0
 30
0.0
 70
   128
 71
    43
 72
   -41
 73
    44
  0
VERTEX
  8
RK-LAVAT
 10
0.0
 20
0.0
 30
0.0
 70
   128
 71
    41
 72
    42
 73
   -44
  0
VERTEX
  8
RK-LAVAT
 10
0.0
 20
0.0
 30
0.0
 70
   128
 71
    45
 72
   -43
 73
    46
  0
VERTEX
  8
RK-LAVAT
 10
0.0
 20
0.0
 30
0.0
 70
   128
 71
    43
 72
    44
 73
   -46
  0
VERTEX
  8
RK-LAVAT
 10
0.0
 20
0.0
 30
0.0
 70
   128
 71
    47
 72
   -45
 73
    48
  0
VERTEX
  8
RK-LAVAT
 10
0.0
 20
0.0
 30
0.0
 70
   128
 71
    45
 72
    46
 73
   -48
  0
VERTEX
  8
RK-LAVAT
 10
0.0
 20
0.0
 30
0.0
 70
   128
 71
    49
 72
   -47
 73
    50
  0
VERTEX
  8
RK-LAVAT
 10
0.0
 20
0.0
 30
0.0
 70
   128
 71
    47
 72
    48
 73
   -50
  0
VERTEX
  8
RK-LAVAT
 10
0.0
 20
0.0
 30
0.0
 70
   128
 71
    51
 72
   -49
 73
    52
  0
VERTEX
  8
RK-LAVAT
 10
0.0
 20
0.0
 30
0.0
 70
   128
 71
    49
 72
    50
 73
   -52
  0
VERTEX
  8
RK-LAVAT
 10
0.0
 20
0.0
 30
0.0
 70
   128
 71
    53
 72
   -51
 73
    54
  0
VERTEX
  8
RK-LAVAT
 10
0.0
 20
0.0
 30
0.0
 70
   128
 71
    51
 72
    52
 73
   -54
  0
VERTEX
  8
RK-LAVAT
 10
0.0
 20
0.0
 30
0.0
 70
   128
 71
    55
 72
   -53
 73
    56
  0
VERTEX
  8
RK-LAVAT
 10
0.0
 20
0.0
 30
0.0
 70
   128
 71
    53
 72
    54
 73
   -56
  0
VERTEX
  8
RK-LAVAT
 10
0.0
 20
0.0
 30
0.0
 70
   128
 71
     2
 72
   -55
 73
     4
  0
VERTEX
  8
RK-LAVAT
 10
0.0
 20
0.0
 30
0.0
 70
   128
 71
    55
 72
    56
 73
    -4
  0
VERTEX
  8
RK-LAVAT
 10
0.0
 20
0.0
 30
0.0
 70
   128
 71
     3
 72
    -4
 73
    57
  0
VERTEX
  8
RK-LAVAT
 10
0.0
 20
0.0
 30
0.0
 70
   128
 71
     4
 72
    58
 73
   -57
  0
VERTEX
  8
RK-LAVAT
 10
0.0
 20
0.0
 30
0.0
 70
   128
 71
     6
 72
    -3
 73
    59
  0
VERTEX
  8
RK-LAVAT
 10
0.0
 20
0.0
 30
0.0
 70
   128
 71
     3
 72
    57
 73
   -59
  0
VERTEX
  8
RK-LAVAT
 10
0.0
 20
0.0
 30
0.0
 70
   128
 71
     8
 72
    -6
 73
    60
  0
VERTEX
  8
RK-LAVAT
 10
0.0
 20
0.0
 30
0.0
 70
   128
 71
     6
 72
    59
 73
   -60
  0
VERTEX
  8
RK-LAVAT
 10
0.0
 20
0.0
 30
0.0
 70
   128
 71
    10
 72
    -8
 73
    61
  0
VERTEX
  8
RK-LAVAT
 10
0.0
 20
0.0
 30
0.0
 70
   128
 71
     8
 72
    60
 73
   -61
  0
VERTEX
  8
RK-LAVAT
 10
0.0
 20
0.0
 30
0.0
 70
   128
 71
    12
 72
   -10
 73
    62
  0
VERTEX
  8
RK-LAVAT
 10
0.0
 20
0.0
 30
0.0
 70
   128
 71
    10
 72
    61
 73
   -62
  0
VERTEX
  8
RK-LAVAT
 10
0.0
 20
0.0
 30
0.0
 70
   128
 71
    14
 72
   -12
 73
    63
  0
VERTEX
  8
RK-LAVAT
 10
0.0
 20
0.0
 30
0.0
 70
   128
 71
    12
 72
    62
 73
   -63
  0
VERTEX
  8
RK-LAVAT
 10
0.0
 20
0.0
 30
0.0
 70
   128
 71
    16
 72
   -14
 73
    64
  0
VERTEX
  8
RK-LAVAT
 10
0.0
 20
0.0
 30
0.0
 70
   128
 71
    14
 72
    63
 73
   -64
  0
VERTEX
  8
RK-LAVAT
 10
0.0
 20
0.0
 30
0.0
 70
   128
 71
    18
 72
   -16
 73
    65
  0
VERTEX
  8
RK-LAVAT
 10
0.0
 20
0.0
 30
0.0
 70
   128
 71
    16
 72
    64
 73
   -65
  0
VERTEX
  8
RK-LAVAT
 10
0.0
 20
0.0
 30
0.0
 70
   128
 71
    20
 72
   -18
 73
    66
  0
VERTEX
  8
RK-LAVAT
 10
0.0
 20
0.0
 30
0.0
 70
   128
 71
    18
 72
    65
 73
   -66
  0
VERTEX
  8
RK-LAVAT
 10
0.0
 20
0.0
 30
0.0
 70
   128
 71
    22
 72
   -20
 73
    67
  0
VERTEX
  8
RK-LAVAT
 10
0.0
 20
0.0
 30
0.0
 70
   128
 71
    20
 72
    66
 73
   -67
  0
VERTEX
  8
RK-LAVAT
 10
0.0
 20
0.0
 30
0.0
 70
   128
 71
    24
 72
   -22
 73
    68
  0
VERTEX
  8
RK-LAVAT
 10
0.0
 20
0.0
 30
0.0
 70
   128
 71
    22
 72
    67
 73
   -68
  0
VERTEX
  8
RK-LAVAT
 10
0.0
 20
0.0
 30
0.0
 70
   128
 71
    26
 72
   -24
 73
    69
  0
VERTEX
  8
RK-LAVAT
 10
0.0
 20
0.0
 30
0.0
 70
   128
 71
    24
 72
    68
 73
   -69
  0
VERTEX
  8
RK-LAVAT
 10
0.0
 20
0.0
 30
0.0
 70
   128
 71
    28
 72
   -26
 73
    70
  0
VERTEX
  8
RK-LAVAT
 10
0.0
 20
0.0
 30
0.0
 70
   128
 71
    26
 72
    69
 73
   -70
  0
VERTEX
  8
RK-LAVAT
 10
0.0
 20
0.0
 30
0.0
 70
   128
 71
    30
 72
   -28
 73
    71
  0
VERTEX
  8
RK-LAVAT
 10
0.0
 20
0.0
 30
0.0
 70
   128
 71
    28
 72
    70
 73
   -71
  0
VERTEX
  8
RK-LAVAT
 10
0.0
 20
0.0
 30
0.0
 70
   128
 71
    32
 72
   -30
 73
    72
  0
VERTEX
  8
RK-LAVAT
 10
0.0
 20
0.0
 30
0.0
 70
   128
 71
    30
 72
    71
 73
   -72
  0
VERTEX
  8
RK-LAVAT
 10
0.0
 20
0.0
 30
0.0
 70
   128
 71
    34
 72
   -32
 73
    73
  0
VERTEX
  8
RK-LAVAT
 10
0.0
 20
0.0
 30
0.0
 70
   128
 71
    32
 72
    72
 73
   -73
  0
VERTEX
  8
RK-LAVAT
 10
0.0
 20
0.0
 30
0.0
 70
   128
 71
    36
 72
   -34
 73
    74
  0
VERTEX
  8
RK-LAVAT
 10
0.0
 20
0.0
 30
0.0
 70
   128
 71
    34
 72
    73
 73
   -74
  0
VERTEX
  8
RK-LAVAT
 10
0.0
 20
0.0
 30
0.0
 70
   128
 71
    38
 72
   -36
 73
    75
  0
VERTEX
  8
RK-LAVAT
 10
0.0
 20
0.0
 30
0.0
 70
   128
 71
    36
 72
    74
 73
   -75
  0
VERTEX
  8
RK-LAVAT
 10
0.0
 20
0.0
 30
0.0
 70
   128
 71
    40
 72
   -38
 73
    76
  0
VERTEX
  8
RK-LAVAT
 10
0.0
 20
0.0
 30
0.0
 70
   128
 71
    38
 72
    75
 73
   -76
  0
VERTEX
  8
RK-LAVAT
 10
0.0
 20
0.0
 30
0.0
 70
   128
 71
    42
 72
   -40
 73
    77
  0
VERTEX
  8
RK-LAVAT
 10
0.0
 20
0.0
 30
0.0
 70
   128
 71
    40
 72
    76
 73
   -77
  0
VERTEX
  8
RK-LAVAT
 10
0.0
 20
0.0
 30
0.0
 70
   128
 71
    44
 72
   -42
 73
    78
  0
VERTEX
  8
RK-LAVAT
 10
0.0
 20
0.0
 30
0.0
 70
   128
 71
    42
 72
    77
 73
   -78
  0
VERTEX
  8
RK-LAVAT
 10
0.0
 20
0.0
 30
0.0
 70
   128
 71
    46
 72
   -44
 73
    79
  0
VERTEX
  8
RK-LAVAT
 10
0.0
 20
0.0
 30
0.0
 70
   128
 71
    44
 72
    78
 73
   -79
  0
VERTEX
  8
RK-LAVAT
 10
0.0
 20
0.0
 30
0.0
 70
   128
 71
    48
 72
   -46
 73
    80
  0
VERTEX
  8
RK-LAVAT
 10
0.0
 20
0.0
 30
0.0
 70
   128
 71
    46
 72
    79
 73
   -80
  0
VERTEX
  8
RK-LAVAT
 10
0.0
 20
0.0
 30
0.0
 70
   128
 71
    50
 72
   -48
 73
    81
  0
VERTEX
  8
RK-LAVAT
 10
0.0
 20
0.0
 30
0.0
 70
   128
 71
    48
 72
    80
 73
   -81
  0
VERTEX
  8
RK-LAVAT
 10
0.0
 20
0.0
 30
0.0
 70
   128
 71
    52
 72
   -50
 73
    82
  0
VERTEX
  8
RK-LAVAT
 10
0.0
 20
0.0
 30
0.0
 70
   128
 71
    50
 72
    81
 73
   -82
  0
VERTEX
  8
RK-LAVAT
 10
0.0
 20
0.0
 30
0.0
 70
   128
 71
    54
 72
   -52
 73
    83
  0
VERTEX
  8
RK-LAVAT
 10
0.0
 20
0.0
 30
0.0
 70
   128
 71
    52
 72
    82
 73
   -83
  0
VERTEX
  8
RK-LAVAT
 10
0.0
 20
0.0
 30
0.0
 70
   128
 71
    56
 72
   -54
 73
    84
  0
VERTEX
  8
RK-LAVAT
 10
0.0
 20
0.0
 30
0.0
 70
   128
 71
    54
 72
    83
 73
   -84
  0
VERTEX
  8
RK-LAVAT
 10
0.0
 20
0.0
 30
0.0
 70
   128
 71
     4
 72
   -56
 73
    58
  0
VERTEX
  8
RK-LAVAT
 10
0.0
 20
0.0
 30
0.0
 70
   128
 71
    56
 72
    84
 73
   -58
  0
VERTEX
  8
RK-LAVAT
 10
0.0
 20
0.0
 30
0.0
 70
   128
 71
    57
 72
   -58
 73
    85
  0
VERTEX
  8
RK-LAVAT
 10
0.0
 20
0.0
 30
0.0
 70
   128
 71
    58
 72
    86
 73
   -85
  0
VERTEX
  8
RK-LAVAT
 10
0.0
 20
0.0
 30
0.0
 70
   128
 71
    59
 72
   -57
 73
    87
  0
VERTEX
  8
RK-LAVAT
 10
0.0
 20
0.0
 30
0.0
 70
   128
 71
    57
 72
    85
 73
   -87
  0
VERTEX
  8
RK-LAVAT
 10
0.0
 20
0.0
 30
0.0
 70
   128
 71
    60
 72
   -59
 73
    88
  0
VERTEX
  8
RK-LAVAT
 10
0.0
 20
0.0
 30
0.0
 70
   128
 71
    59
 72
    87
 73
   -88
  0
VERTEX
  8
RK-LAVAT
 10
0.0
 20
0.0
 30
0.0
 70
   128
 71
    61
 72
   -60
 73
    89
  0
VERTEX
  8
RK-LAVAT
 10
0.0
 20
0.0
 30
0.0
 70
   128
 71
    60
 72
    88
 73
   -89
  0
VERTEX
  8
RK-LAVAT
 10
0.0
 20
0.0
 30
0.0
 70
   128
 71
    62
 72
   -61
 73
    90
  0
VERTEX
  8
RK-LAVAT
 10
0.0
 20
0.0
 30
0.0
 70
   128
 71
    61
 72
    89
 73
   -90
  0
VERTEX
  8
RK-LAVAT
 10
0.0
 20
0.0
 30
0.0
 70
   128
 71
    63
 72
   -62
 73
    91
  0
VERTEX
  8
RK-LAVAT
 10
0.0
 20
0.0
 30
0.0
 70
   128
 71
    62
 72
    90
 73
   -91
  0
VERTEX
  8
RK-LAVAT
 10
0.0
 20
0.0
 30
0.0
 70
   128
 71
    64
 72
   -63
 73
    92
  0
VERTEX
  8
RK-LAVAT
 10
0.0
 20
0.0
 30
0.0
 70
   128
 71
    63
 72
    91
 73
   -92
  0
VERTEX
  8
RK-LAVAT
 10
0.0
 20
0.0
 30
0.0
 70
   128
 71
    65
 72
   -64
 73
    93
  0
VERTEX
  8
RK-LAVAT
 10
0.0
 20
0.0
 30
0.0
 70
   128
 71
    64
 72
    92
 73
   -93
  0
VERTEX
  8
RK-LAVAT
 10
0.0
 20
0.0
 30
0.0
 70
   128
 71
    66
 72
   -65
 73
    94
  0
VERTEX
  8
RK-LAVAT
 10
0.0
 20
0.0
 30
0.0
 70
   128
 71
    65
 72
    93
 73
   -94
  0
VERTEX
  8
RK-LAVAT
 10
0.0
 20
0.0
 30
0.0
 70
   128
 71
    67
 72
   -66
 73
    95
  0
VERTEX
  8
RK-LAVAT
 10
0.0
 20
0.0
 30
0.0
 70
   128
 71
    66
 72
    94
 73
   -95
  0
VERTEX
  8
RK-LAVAT
 10
0.0
 20
0.0
 30
0.0
 70
   128
 71
    68
 72
   -67
 73
    96
  0
VERTEX
  8
RK-LAVAT
 10
0.0
 20
0.0
 30
0.0
 70
   128
 71
    67
 72
    95
 73
   -96
  0
VERTEX
  8
RK-LAVAT
 10
0.0
 20
0.0
 30
0.0
 70
   128
 71
    69
 72
   -68
 73
    97
  0
VERTEX
  8
RK-LAVAT
 10
0.0
 20
0.0
 30
0.0
 70
   128
 71
    68
 72
    96
 73
   -97
  0
VERTEX
  8
RK-LAVAT
 10
0.0
 20
0.0
 30
0.0
 70
   128
 71
    70
 72
   -69
 73
    98
  0
VERTEX
  8
RK-LAVAT
 10
0.0
 20
0.0
 30
0.0
 70
   128
 71
    69
 72
    97
 73
   -98
  0
VERTEX
  8
RK-LAVAT
 10
0.0
 20
0.0
 30
0.0
 70
   128
 71
    71
 72
   -70
 73
    99
  0
VERTEX
  8
RK-LAVAT
 10
0.0
 20
0.0
 30
0.0
 70
   128
 71
    70
 72
    98
 73
   -99
  0
VERTEX
  8
RK-LAVAT
 10
0.0
 20
0.0
 30
0.0
 70
   128
 71
    72
 72
   -71
 73
   100
  0
VERTEX
  8
RK-LAVAT
 10
0.0
 20
0.0
 30
0.0
 70
   128
 71
    71
 72
    99
 73
  -100
  0
VERTEX
  8
RK-LAVAT
 10
0.0
 20
0.0
 30
0.0
 70
   128
 71
    73
 72
   -72
 73
   101
  0
VERTEX
  8
RK-LAVAT
 10
0.0
 20
0.0
 30
0.0
 70
   128
 71
    72
 72
   100
 73
  -101
  0
VERTEX
  8
RK-LAVAT
 10
0.0
 20
0.0
 30
0.0
 70
   128
 71
    74
 72
   -73
 73
   102
  0
VERTEX
  8
RK-LAVAT
 10
0.0
 20
0.0
 30
0.0
 70
   128
 71
    73
 72
   101
 73
  -102
  0
VERTEX
  8
RK-LAVAT
 10
0.0
 20
0.0
 30
0.0
 70
   128
 71
    75
 72
   -74
 73
   103
  0
VERTEX
  8
RK-LAVAT
 10
0.0
 20
0.0
 30
0.0
 70
   128
 71
    74
 72
   102
 73
  -103
  0
VERTEX
  8
RK-LAVAT
 10
0.0
 20
0.0
 30
0.0
 70
   128
 71
    76
 72
   -75
 73
   104
  0
VERTEX
  8
RK-LAVAT
 10
0.0
 20
0.0
 30
0.0
 70
   128
 71
    75
 72
   103
 73
  -104
  0
VERTEX
  8
RK-LAVAT
 10
0.0
 20
0.0
 30
0.0
 70
   128
 71
    77
 72
   -76
 73
   105
  0
VERTEX
  8
RK-LAVAT
 10
0.0
 20
0.0
 30
0.0
 70
   128
 71
    76
 72
   104
 73
  -105
  0
VERTEX
  8
RK-LAVAT
 10
0.0
 20
0.0
 30
0.0
 70
   128
 71
    78
 72
   -77
 73
   106
  0
VERTEX
  8
RK-LAVAT
 10
0.0
 20
0.0
 30
0.0
 70
   128
 71
    77
 72
   105
 73
  -106
  0
VERTEX
  8
RK-LAVAT
 10
0.0
 20
0.0
 30
0.0
 70
   128
 71
    79
 72
   -78
 73
   107
  0
VERTEX
  8
RK-LAVAT
 10
0.0
 20
0.0
 30
0.0
 70
   128
 71
    78
 72
   106
 73
  -107
  0
VERTEX
  8
RK-LAVAT
 10
0.0
 20
0.0
 30
0.0
 70
   128
 71
    80
 72
   -79
 73
   108
  0
VERTEX
  8
RK-LAVAT
 10
0.0
 20
0.0
 30
0.0
 70
   128
 71
    79
 72
   107
 73
  -108
  0
VERTEX
  8
RK-LAVAT
 10
0.0
 20
0.0
 30
0.0
 70
   128
 71
    81
 72
   -80
 73
   109
  0
VERTEX
  8
RK-LAVAT
 10
0.0
 20
0.0
 30
0.0
 70
   128
 71
    80
 72
   108
 73
  -109
  0
VERTEX
  8
RK-LAVAT
 10
0.0
 20
0.0
 30
0.0
 70
   128
 71
    82
 72
   -81
 73
   110
  0
VERTEX
  8
RK-LAVAT
 10
0.0
 20
0.0
 30
0.0
 70
   128
 71
    81
 72
   109
 73
  -110
  0
VERTEX
  8
RK-LAVAT
 10
0.0
 20
0.0
 30
0.0
 70
   128
 71
    83
 72
   -82
 73
   111
  0
VERTEX
  8
RK-LAVAT
 10
0.0
 20
0.0
 30
0.0
 70
   128
 71
    82
 72
   110
 73
  -111
  0
VERTEX
  8
RK-LAVAT
 10
0.0
 20
0.0
 30
0.0
 70
   128
 71
    84
 72
   -83
 73
   112
  0
VERTEX
  8
RK-LAVAT
 10
0.0
 20
0.0
 30
0.0
 70
   128
 71
    83
 72
   111
 73
  -112
  0
VERTEX
  8
RK-LAVAT
 10
0.0
 20
0.0
 30
0.0
 70
   128
 71
    58
 72
   -84
 73
    86
  0
VERTEX
  8
RK-LAVAT
 10
0.0
 20
0.0
 30
0.0
 70
   128
 71
    84
 72
   112
 73
   -86
  0
VERTEX
  8
RK-LAVAT
 10
0.0
 20
0.0
 30
0.0
 70
   128
 71
    85
 72
   -86
 73
   113
  0
VERTEX
  8
RK-LAVAT
 10
0.0
 20
0.0
 30
0.0
 70
   128
 71
    86
 72
   114
 73
  -113
  0
VERTEX
  8
RK-LAVAT
 10
0.0
 20
0.0
 30
0.0
 70
   128
 71
    87
 72
   -85
 73
   115
  0
VERTEX
  8
RK-LAVAT
 10
0.0
 20
0.0
 30
0.0
 70
   128
 71
    85
 72
   113
 73
  -115
  0
VERTEX
  8
RK-LAVAT
 10
0.0
 20
0.0
 30
0.0
 70
   128
 71
    88
 72
   -87
 73
   116
  0
VERTEX
  8
RK-LAVAT
 10
0.0
 20
0.0
 30
0.0
 70
   128
 71
    87
 72
   115
 73
  -116
  0
VERTEX
  8
RK-LAVAT
 10
0.0
 20
0.0
 30
0.0
 70
   128
 71
    89
 72
   -88
 73
   117
  0
VERTEX
  8
RK-LAVAT
 10
0.0
 20
0.0
 30
0.0
 70
   128
 71
    88
 72
   116
 73
  -117
  0
VERTEX
  8
RK-LAVAT
 10
0.0
 20
0.0
 30
0.0
 70
   128
 71
    90
 72
   -89
 73
   118
  0
VERTEX
  8
RK-LAVAT
 10
0.0
 20
0.0
 30
0.0
 70
   128
 71
    89
 72
   117
 73
  -118
  0
VERTEX
  8
RK-LAVAT
 10
0.0
 20
0.0
 30
0.0
 70
   128
 71
    91
 72
   -90
 73
   119
  0
VERTEX
  8
RK-LAVAT
 10
0.0
 20
0.0
 30
0.0
 70
   128
 71
    90
 72
   118
 73
  -119
  0
VERTEX
  8
RK-LAVAT
 10
0.0
 20
0.0
 30
0.0
 70
   128
 71
    92
 72
   -91
 73
   120
  0
VERTEX
  8
RK-LAVAT
 10
0.0
 20
0.0
 30
0.0
 70
   128
 71
    91
 72
   119
 73
  -120
  0
VERTEX
  8
RK-LAVAT
 10
0.0
 20
0.0
 30
0.0
 70
   128
 71
    93
 72
   -92
 73
   121
  0
VERTEX
  8
RK-LAVAT
 10
0.0
 20
0.0
 30
0.0
 70
   128
 71
    92
 72
   120
 73
  -121
  0
VERTEX
  8
RK-LAVAT
 10
0.0
 20
0.0
 30
0.0
 70
   128
 71
    94
 72
   -93
 73
   122
  0
VERTEX
  8
RK-LAVAT
 10
0.0
 20
0.0
 30
0.0
 70
   128
 71
    93
 72
   121
 73
  -122
  0
VERTEX
  8
RK-LAVAT
 10
0.0
 20
0.0
 30
0.0
 70
   128
 71
    95
 72
   -94
 73
   123
  0
VERTEX
  8
RK-LAVAT
 10
0.0
 20
0.0
 30
0.0
 70
   128
 71
    94
 72
   122
 73
  -123
  0
VERTEX
  8
RK-LAVAT
 10
0.0
 20
0.0
 30
0.0
 70
   128
 71
    96
 72
   -95
 73
   124
  0
VERTEX
  8
RK-LAVAT
 10
0.0
 20
0.0
 30
0.0
 70
   128
 71
    95
 72
   123
 73
  -124
  0
VERTEX
  8
RK-LAVAT
 10
0.0
 20
0.0
 30
0.0
 70
   128
 71
    97
 72
   -96
 73
   125
  0
VERTEX
  8
RK-LAVAT
 10
0.0
 20
0.0
 30
0.0
 70
   128
 71
    96
 72
   124
 73
  -125
  0
VERTEX
  8
RK-LAVAT
 10
0.0
 20
0.0
 30
0.0
 70
   128
 71
    98
 72
   -97
 73
   126
  0
VERTEX
  8
RK-LAVAT
 10
0.0
 20
0.0
 30
0.0
 70
   128
 71
    97
 72
   125
 73
  -126
  0
VERTEX
  8
RK-LAVAT
 10
0.0
 20
0.0
 30
0.0
 70
   128
 71
    99
 72
   -98
 73
   127
  0
VERTEX
  8
RK-LAVAT
 10
0.0
 20
0.0
 30
0.0
 70
   128
 71
    98
 72
   126
 73
  -127
  0
VERTEX
  8
RK-LAVAT
 10
0.0
 20
0.0
 30
0.0
 70
   128
 71
   100
 72
   -99
 73
   128
  0
VERTEX
  8
RK-LAVAT
 10
0.0
 20
0.0
 30
0.0
 70
   128
 71
    99
 72
   127
 73
  -128
  0
VERTEX
  8
RK-LAVAT
 10
0.0
 20
0.0
 30
0.0
 70
   128
 71
   101
 72
  -100
 73
   129
  0
VERTEX
  8
RK-LAVAT
 10
0.0
 20
0.0
 30
0.0
 70
   128
 71
   100
 72
   128
 73
  -129
  0
VERTEX
  8
RK-LAVAT
 10
0.0
 20
0.0
 30
0.0
 70
   128
 71
   102
 72
  -101
 73
   130
  0
VERTEX
  8
RK-LAVAT
 10
0.0
 20
0.0
 30
0.0
 70
   128
 71
   101
 72
   129
 73
  -130
  0
VERTEX
  8
RK-LAVAT
 10
0.0
 20
0.0
 30
0.0
 70
   128
 71
   103
 72
  -102
 73
   131
  0
VERTEX
  8
RK-LAVAT
 10
0.0
 20
0.0
 30
0.0
 70
   128
 71
   102
 72
   130
 73
  -131
  0
VERTEX
  8
RK-LAVAT
 10
0.0
 20
0.0
 30
0.0
 70
   128
 71
   104
 72
  -103
 73
   132
  0
VERTEX
  8
RK-LAVAT
 10
0.0
 20
0.0
 30
0.0
 70
   128
 71
   103
 72
   131
 73
  -132
  0
VERTEX
  8
RK-LAVAT
 10
0.0
 20
0.0
 30
0.0
 70
   128
 71
   105
 72
  -104
 73
   133
  0
VERTEX
  8
RK-LAVAT
 10
0.0
 20
0.0
 30
0.0
 70
   128
 71
   104
 72
   132
 73
  -133
  0
VERTEX
  8
RK-LAVAT
 10
0.0
 20
0.0
 30
0.0
 70
   128
 71
   106
 72
  -105
 73
   134
  0
VERTEX
  8
RK-LAVAT
 10
0.0
 20
0.0
 30
0.0
 70
   128
 71
   105
 72
   133
 73
  -134
  0
VERTEX
  8
RK-LAVAT
 10
0.0
 20
0.0
 30
0.0
 70
   128
 71
   107
 72
  -106
 73
   135
  0
VERTEX
  8
RK-LAVAT
 10
0.0
 20
0.0
 30
0.0
 70
   128
 71
   106
 72
   134
 73
  -135
  0
VERTEX
  8
RK-LAVAT
 10
0.0
 20
0.0
 30
0.0
 70
   128
 71
   108
 72
  -107
 73
   136
  0
VERTEX
  8
RK-LAVAT
 10
0.0
 20
0.0
 30
0.0
 70
   128
 71
   107
 72
   135
 73
  -136
  0
VERTEX
  8
RK-LAVAT
 10
0.0
 20
0.0
 30
0.0
 70
   128
 71
   109
 72
  -108
 73
   137
  0
VERTEX
  8
RK-LAVAT
 10
0.0
 20
0.0
 30
0.0
 70
   128
 71
   108
 72
   136
 73
  -137
  0
VERTEX
  8
RK-LAVAT
 10
0.0
 20
0.0
 30
0.0
 70
   128
 71
   110
 72
  -109
 73
   138
  0
VERTEX
  8
RK-LAVAT
 10
0.0
 20
0.0
 30
0.0
 70
   128
 71
   109
 72
   137
 73
  -138
  0
VERTEX
  8
RK-LAVAT
 10
0.0
 20
0.0
 30
0.0
 70
   128
 71
   111
 72
  -110
 73
   139
  0
VERTEX
  8
RK-LAVAT
 10
0.0
 20
0.0
 30
0.0
 70
   128
 71
   110
 72
   138
 73
  -139
  0
VERTEX
  8
RK-LAVAT
 10
0.0
 20
0.0
 30
0.0
 70
   128
 71
   112
 72
  -111
 73
   140
  0
VERTEX
  8
RK-LAVAT
 10
0.0
 20
0.0
 30
0.0
 70
   128
 71
   111
 72
   139
 73
  -140
  0
VERTEX
  8
RK-LAVAT
 10
0.0
 20
0.0
 30
0.0
 70
   128
 71
    86
 72
  -112
 73
   114
  0
VERTEX
  8
RK-LAVAT
 10
0.0
 20
0.0
 30
0.0
 70
   128
 71
   112
 72
   140
 73
  -114
  0
VERTEX
  8
RK-LAVAT
 10
0.0
 20
0.0
 30
0.0
 70
   128
 71
   113
 72
  -114
 73
   141
  0
VERTEX
  8
RK-LAVAT
 10
0.0
 20
0.0
 30
0.0
 70
   128
 71
   114
 72
   142
 73
  -141
  0
VERTEX
  8
RK-LAVAT
 10
0.0
 20
0.0
 30
0.0
 70
   128
 71
   115
 72
  -113
 73
   143
  0
VERTEX
  8
RK-LAVAT
 10
0.0
 20
0.0
 30
0.0
 70
   128
 71
   113
 72
   141
 73
  -143
  0
VERTEX
  8
RK-LAVAT
 10
0.0
 20
0.0
 30
0.0
 70
   128
 71
   116
 72
  -115
 73
   144
  0
VERTEX
  8
RK-LAVAT
 10
0.0
 20
0.0
 30
0.0
 70
   128
 71
   115
 72
   143
 73
  -144
  0
VERTEX
  8
RK-LAVAT
 10
0.0
 20
0.0
 30
0.0
 70
   128
 71
   117
 72
  -116
 73
   145
  0
VERTEX
  8
RK-LAVAT
 10
0.0
 20
0.0
 30
0.0
 70
   128
 71
   116
 72
   144
 73
  -145
  0
VERTEX
  8
RK-LAVAT
 10
0.0
 20
0.0
 30
0.0
 70
   128
 71
   118
 72
  -117
 73
   146
  0
VERTEX
  8
RK-LAVAT
 10
0.0
 20
0.0
 30
0.0
 70
   128
 71
   117
 72
   145
 73
  -146
  0
VERTEX
  8
RK-LAVAT
 10
0.0
 20
0.0
 30
0.0
 70
   128
 71
   119
 72
  -118
 73
   147
  0
VERTEX
  8
RK-LAVAT
 10
0.0
 20
0.0
 30
0.0
 70
   128
 71
   118
 72
   146
 73
  -147
  0
VERTEX
  8
RK-LAVAT
 10
0.0
 20
0.0
 30
0.0
 70
   128
 71
   120
 72
  -119
 73
   148
  0
VERTEX
  8
RK-LAVAT
 10
0.0
 20
0.0
 30
0.0
 70
   128
 71
   119
 72
   147
 73
  -148
  0
VERTEX
  8
RK-LAVAT
 10
0.0
 20
0.0
 30
0.0
 70
   128
 71
   121
 72
  -120
 73
   149
  0
VERTEX
  8
RK-LAVAT
 10
0.0
 20
0.0
 30
0.0
 70
   128
 71
   120
 72
   148
 73
  -149
  0
VERTEX
  8
RK-LAVAT
 10
0.0
 20
0.0
 30
0.0
 70
   128
 71
   122
 72
  -121
 73
   150
  0
VERTEX
  8
RK-LAVAT
 10
0.0
 20
0.0
 30
0.0
 70
   128
 71
   121
 72
   149
 73
  -150
  0
VERTEX
  8
RK-LAVAT
 10
0.0
 20
0.0
 30
0.0
 70
   128
 71
   123
 72
  -122
 73
   151
  0
VERTEX
  8
RK-LAVAT
 10
0.0
 20
0.0
 30
0.0
 70
   128
 71
   122
 72
   150
 73
  -151
  0
VERTEX
  8
RK-LAVAT
 10
0.0
 20
0.0
 30
0.0
 70
   128
 71
   124
 72
  -123
 73
   152
  0
VERTEX
  8
RK-LAVAT
 10
0.0
 20
0.0
 30
0.0
 70
   128
 71
   123
 72
   151
 73
  -152
  0
VERTEX
  8
RK-LAVAT
 10
0.0
 20
0.0
 30
0.0
 70
   128
 71
   125
 72
  -124
 73
   153
  0
VERTEX
  8
RK-LAVAT
 10
0.0
 20
0.0
 30
0.0
 70
   128
 71
   124
 72
   152
 73
  -153
  0
VERTEX
  8
RK-LAVAT
 10
0.0
 20
0.0
 30
0.0
 70
   128
 71
   126
 72
  -125
 73
   154
  0
VERTEX
  8
RK-LAVAT
 10
0.0
 20
0.0
 30
0.0
 70
   128
 71
   125
 72
   153
 73
  -154
  0
VERTEX
  8
RK-LAVAT
 10
0.0
 20
0.0
 30
0.0
 70
   128
 71
   127
 72
  -126
 73
   155
  0
VERTEX
  8
RK-LAVAT
 10
0.0
 20
0.0
 30
0.0
 70
   128
 71
   126
 72
   154
 73
  -155
  0
VERTEX
  8
RK-LAVAT
 10
0.0
 20
0.0
 30
0.0
 70
   128
 71
   128
 72
  -127
 73
   156
  0
VERTEX
  8
RK-LAVAT
 10
0.0
 20
0.0
 30
0.0
 70
   128
 71
   127
 72
   155
 73
  -156
  0
VERTEX
  8
RK-LAVAT
 10
0.0
 20
0.0
 30
0.0
 70
   128
 71
   129
 72
  -128
 73
   157
  0
VERTEX
  8
RK-LAVAT
 10
0.0
 20
0.0
 30
0.0
 70
   128
 71
   128
 72
   156
 73
  -157
  0
VERTEX
  8
RK-LAVAT
 10
0.0
 20
0.0
 30
0.0
 70
   128
 71
   130
 72
  -129
 73
   158
  0
VERTEX
  8
RK-LAVAT
 10
0.0
 20
0.0
 30
0.0
 70
   128
 71
   129
 72
   157
 73
  -158
  0
VERTEX
  8
RK-LAVAT
 10
0.0
 20
0.0
 30
0.0
 70
   128
 71
   131
 72
  -130
 73
   159
  0
VERTEX
  8
RK-LAVAT
 10
0.0
 20
0.0
 30
0.0
 70
   128
 71
   130
 72
   158
 73
  -159
  0
VERTEX
  8
RK-LAVAT
 10
0.0
 20
0.0
 30
0.0
 70
   128
 71
   132
 72
  -131
 73
   160
  0
VERTEX
  8
RK-LAVAT
 10
0.0
 20
0.0
 30
0.0
 70
   128
 71
   131
 72
   159
 73
  -160
  0
VERTEX
  8
RK-LAVAT
 10
0.0
 20
0.0
 30
0.0
 70
   128
 71
   133
 72
  -132
 73
   161
  0
VERTEX
  8
RK-LAVAT
 10
0.0
 20
0.0
 30
0.0
 70
   128
 71
   132
 72
   160
 73
  -161
  0
VERTEX
  8
RK-LAVAT
 10
0.0
 20
0.0
 30
0.0
 70
   128
 71
   134
 72
  -133
 73
   162
  0
VERTEX
  8
RK-LAVAT
 10
0.0
 20
0.0
 30
0.0
 70
   128
 71
   133
 72
   161
 73
  -162
  0
VERTEX
  8
RK-LAVAT
 10
0.0
 20
0.0
 30
0.0
 70
   128
 71
   135
 72
  -134
 73
   163
  0
VERTEX
  8
RK-LAVAT
 10
0.0
 20
0.0
 30
0.0
 70
   128
 71
   134
 72
   162
 73
  -163
  0
VERTEX
  8
RK-LAVAT
 10
0.0
 20
0.0
 30
0.0
 70
   128
 71
   136
 72
  -135
 73
   164
  0
VERTEX
  8
RK-LAVAT
 10
0.0
 20
0.0
 30
0.0
 70
   128
 71
   135
 72
   163
 73
  -164
  0
VERTEX
  8
RK-LAVAT
 10
0.0
 20
0.0
 30
0.0
 70
   128
 71
   137
 72
  -136
 73
   165
  0
VERTEX
  8
RK-LAVAT
 10
0.0
 20
0.0
 30
0.0
 70
   128
 71
   136
 72
   164
 73
  -165
  0
VERTEX
  8
RK-LAVAT
 10
0.0
 20
0.0
 30
0.0
 70
   128
 71
   138
 72
  -137
 73
   166
  0
VERTEX
  8
RK-LAVAT
 10
0.0
 20
0.0
 30
0.0
 70
   128
 71
   137
 72
   165
 73
  -166
  0
VERTEX
  8
RK-LAVAT
 10
0.0
 20
0.0
 30
0.0
 70
   128
 71
   139
 72
  -138
 73
   167
  0
VERTEX
  8
RK-LAVAT
 10
0.0
 20
0.0
 30
0.0
 70
   128
 71
   138
 72
   166
 73
  -167
  0
VERTEX
  8
RK-LAVAT
 10
0.0
 20
0.0
 30
0.0
 70
   128
 71
   140
 72
  -139
 73
   168
  0
VERTEX
  8
RK-LAVAT
 10
0.0
 20
0.0
 30
0.0
 70
   128
 71
   139
 72
   167
 73
  -168
  0
VERTEX
  8
RK-LAVAT
 10
0.0
 20
0.0
 30
0.0
 70
   128
 71
   114
 72
  -140
 73
   142
  0
VERTEX
  8
RK-LAVAT
 10
0.0
 20
0.0
 30
0.0
 70
   128
 71
   140
 72
   168
 73
  -142
  0
VERTEX
  8
RK-LAVAT
 10
0.0
 20
0.0
 30
0.0
 70
   128
 71
   141
 72
  -142
 73
   169
  0
VERTEX
  8
RK-LAVAT
 10
0.0
 20
0.0
 30
0.0
 70
   128
 71
   142
 72
   170
 73
  -169
  0
VERTEX
  8
RK-LAVAT
 10
0.0
 20
0.0
 30
0.0
 70
   128
 71
   143
 72
  -141
 73
   171
  0
VERTEX
  8
RK-LAVAT
 10
0.0
 20
0.0
 30
0.0
 70
   128
 71
   141
 72
   169
 73
  -171
  0
VERTEX
  8
RK-LAVAT
 10
0.0
 20
0.0
 30
0.0
 70
   128
 71
   144
 72
  -143
 73
   172
  0
VERTEX
  8
RK-LAVAT
 10
0.0
 20
0.0
 30
0.0
 70
   128
 71
   143
 72
   171
 73
  -172
  0
VERTEX
  8
RK-LAVAT
 10
0.0
 20
0.0
 30
0.0
 70
   128
 71
   145
 72
  -144
 73
   173
  0
VERTEX
  8
RK-LAVAT
 10
0.0
 20
0.0
 30
0.0
 70
   128
 71
   144
 72
   172
 73
  -173
  0
VERTEX
  8
RK-LAVAT
 10
0.0
 20
0.0
 30
0.0
 70
   128
 71
   146
 72
  -145
 73
   174
  0
VERTEX
  8
RK-LAVAT
 10
0.0
 20
0.0
 30
0.0
 70
   128
 71
   145
 72
   173
 73
  -174
  0
VERTEX
  8
RK-LAVAT
 10
0.0
 20
0.0
 30
0.0
 70
   128
 71
   147
 72
  -146
 73
   175
  0
VERTEX
  8
RK-LAVAT
 10
0.0
 20
0.0
 30
0.0
 70
   128
 71
   146
 72
   174
 73
  -175
  0
VERTEX
  8
RK-LAVAT
 10
0.0
 20
0.0
 30
0.0
 70
   128
 71
   148
 72
  -147
 73
   176
  0
VERTEX
  8
RK-LAVAT
 10
0.0
 20
0.0
 30
0.0
 70
   128
 71
   147
 72
   175
 73
  -176
  0
VERTEX
  8
RK-LAVAT
 10
0.0
 20
0.0
 30
0.0
 70
   128
 71
   149
 72
  -148
 73
   177
  0
VERTEX
  8
RK-LAVAT
 10
0.0
 20
0.0
 30
0.0
 70
   128
 71
   148
 72
   176
 73
  -177
  0
VERTEX
  8
RK-LAVAT
 10
0.0
 20
0.0
 30
0.0
 70
   128
 71
   150
 72
  -149
 73
   178
  0
VERTEX
  8
RK-LAVAT
 10
0.0
 20
0.0
 30
0.0
 70
   128
 71
   149
 72
   177
 73
  -178
  0
VERTEX
  8
RK-LAVAT
 10
0.0
 20
0.0
 30
0.0
 70
   128
 71
   151
 72
  -150
 73
   179
  0
VERTEX
  8
RK-LAVAT
 10
0.0
 20
0.0
 30
0.0
 70
   128
 71
   150
 72
   178
 73
  -179
  0
VERTEX
  8
RK-LAVAT
 10
0.0
 20
0.0
 30
0.0
 70
   128
 71
   152
 72
  -151
 73
   180
  0
VERTEX
  8
RK-LAVAT
 10
0.0
 20
0.0
 30
0.0
 70
   128
 71
   151
 72
   179
 73
  -180
  0
VERTEX
  8
RK-LAVAT
 10
0.0
 20
0.0
 30
0.0
 70
   128
 71
   153
 72
  -152
 73
   181
  0
VERTEX
  8
RK-LAVAT
 10
0.0
 20
0.0
 30
0.0
 70
   128
 71
   152
 72
   180
 73
  -181
  0
VERTEX
  8
RK-LAVAT
 10
0.0
 20
0.0
 30
0.0
 70
   128
 71
   154
 72
  -153
 73
   182
  0
VERTEX
  8
RK-LAVAT
 10
0.0
 20
0.0
 30
0.0
 70
   128
 71
   153
 72
   181
 73
  -182
  0
VERTEX
  8
RK-LAVAT
 10
0.0
 20
0.0
 30
0.0
 70
   128
 71
   155
 72
  -154
 73
   183
  0
VERTEX
  8
RK-LAVAT
 10
0.0
 20
0.0
 30
0.0
 70
   128
 71
   154
 72
   182
 73
  -183
  0
VERTEX
  8
RK-LAVAT
 10
0.0
 20
0.0
 30
0.0
 70
   128
 71
   156
 72
  -155
 73
   184
  0
VERTEX
  8
RK-LAVAT
 10
0.0
 20
0.0
 30
0.0
 70
   128
 71
   155
 72
   183
 73
  -184
  0
VERTEX
  8
RK-LAVAT
 10
0.0
 20
0.0
 30
0.0
 70
   128
 71
   157
 72
  -156
 73
   185
  0
VERTEX
  8
RK-LAVAT
 10
0.0
 20
0.0
 30
0.0
 70
   128
 71
   156
 72
   184
 73
  -185
  0
VERTEX
  8
RK-LAVAT
 10
0.0
 20
0.0
 30
0.0
 70
   128
 71
   158
 72
  -157
 73
   186
  0
VERTEX
  8
RK-LAVAT
 10
0.0
 20
0.0
 30
0.0
 70
   128
 71
   157
 72
   185
 73
  -186
  0
VERTEX
  8
RK-LAVAT
 10
0.0
 20
0.0
 30
0.0
 70
   128
 71
   159
 72
  -158
 73
   187
  0
VERTEX
  8
RK-LAVAT
 10
0.0
 20
0.0
 30
0.0
 70
   128
 71
   158
 72
   186
 73
  -187
  0
VERTEX
  8
RK-LAVAT
 10
0.0
 20
0.0
 30
0.0
 70
   128
 71
   160
 72
  -159
 73
   188
  0
VERTEX
  8
RK-LAVAT
 10
0.0
 20
0.0
 30
0.0
 70
   128
 71
   159
 72
   187
 73
  -188
  0
VERTEX
  8
RK-LAVAT
 10
0.0
 20
0.0
 30
0.0
 70
   128
 71
   161
 72
  -160
 73
   189
  0
VERTEX
  8
RK-LAVAT
 10
0.0
 20
0.0
 30
0.0
 70
   128
 71
   160
 72
   188
 73
  -189
  0
VERTEX
  8
RK-LAVAT
 10
0.0
 20
0.0
 30
0.0
 70
   128
 71
   162
 72
  -161
 73
   190
  0
VERTEX
  8
RK-LAVAT
 10
0.0
 20
0.0
 30
0.0
 70
   128
 71
   161
 72
   189
 73
  -190
  0
VERTEX
  8
RK-LAVAT
 10
0.0
 20
0.0
 30
0.0
 70
   128
 71
   163
 72
  -162
 73
   191
  0
VERTEX
  8
RK-LAVAT
 10
0.0
 20
0.0
 30
0.0
 70
   128
 71
   162
 72
   190
 73
  -191
  0
VERTEX
  8
RK-LAVAT
 10
0.0
 20
0.0
 30
0.0
 70
   128
 71
   164
 72
  -163
 73
   192
  0
VERTEX
  8
RK-LAVAT
 10
0.0
 20
0.0
 30
0.0
 70
   128
 71
   163
 72
   191
 73
  -192
  0
VERTEX
  8
RK-LAVAT
 10
0.0
 20
0.0
 30
0.0
 70
   128
 71
   165
 72
  -164
 73
   193
  0
VERTEX
  8
RK-LAVAT
 10
0.0
 20
0.0
 30
0.0
 70
   128
 71
   164
 72
   192
 73
  -193
  0
VERTEX
  8
RK-LAVAT
 10
0.0
 20
0.0
 30
0.0
 70
   128
 71
   166
 72
  -165
 73
   194
  0
VERTEX
  8
RK-LAVAT
 10
0.0
 20
0.0
 30
0.0
 70
   128
 71
   165
 72
   193
 73
  -194
  0
VERTEX
  8
RK-LAVAT
 10
0.0
 20
0.0
 30
0.0
 70
   128
 71
   167
 72
  -166
 73
   195
  0
VERTEX
  8
RK-LAVAT
 10
0.0
 20
0.0
 30
0.0
 70
   128
 71
   166
 72
   194
 73
  -195
  0
VERTEX
  8
RK-LAVAT
 10
0.0
 20
0.0
 30
0.0
 70
   128
 71
   168
 72
  -167
 73
   196
  0
VERTEX
  8
RK-LAVAT
 10
0.0
 20
0.0
 30
0.0
 70
   128
 71
   167
 72
   195
 73
  -196
  0
VERTEX
  8
RK-LAVAT
 10
0.0
 20
0.0
 30
0.0
 70
   128
 71
   142
 72
  -168
 73
   170
  0
VERTEX
  8
RK-LAVAT
 10
0.0
 20
0.0
 30
0.0
 70
   128
 71
   168
 72
   196
 73
  -170
  0
VERTEX
  8
RK-LAVAT
 10
0.0
 20
0.0
 30
0.0
 70
   128
 71
   169
 72
  -170
 73
   197
  0
VERTEX
  8
RK-LAVAT
 10
0.0
 20
0.0
 30
0.0
 70
   128
 71
   170
 72
   198
 73
  -197
  0
VERTEX
  8
RK-LAVAT
 10
0.0
 20
0.0
 30
0.0
 70
   128
 71
   171
 72
  -169
 73
   199
  0
VERTEX
  8
RK-LAVAT
 10
0.0
 20
0.0
 30
0.0
 70
   128
 71
   169
 72
   197
 73
  -199
  0
VERTEX
  8
RK-LAVAT
 10
0.0
 20
0.0
 30
0.0
 70
   128
 71
   172
 72
  -171
 73
   200
  0
VERTEX
  8
RK-LAVAT
 10
0.0
 20
0.0
 30
0.0
 70
   128
 71
   171
 72
   199
 73
  -200
  0
VERTEX
  8
RK-LAVAT
 10
0.0
 20
0.0
 30
0.0
 70
   128
 71
   173
 72
  -172
 73
   201
  0
VERTEX
  8
RK-LAVAT
 10
0.0
 20
0.0
 30
0.0
 70
   128
 71
   172
 72
   200
 73
  -201
  0
VERTEX
  8
RK-LAVAT
 10
0.0
 20
0.0
 30
0.0
 70
   128
 71
   174
 72
  -173
 73
   202
  0
VERTEX
  8
RK-LAVAT
 10
0.0
 20
0.0
 30
0.0
 70
   128
 71
   173
 72
   201
 73
  -202
  0
VERTEX
  8
RK-LAVAT
 10
0.0
 20
0.0
 30
0.0
 70
   128
 71
   175
 72
  -174
 73
   203
  0
VERTEX
  8
RK-LAVAT
 10
0.0
 20
0.0
 30
0.0
 70
   128
 71
   174
 72
   202
 73
  -203
  0
VERTEX
  8
RK-LAVAT
 10
0.0
 20
0.0
 30
0.0
 70
   128
 71
   176
 72
  -175
 73
   204
  0
VERTEX
  8
RK-LAVAT
 10
0.0
 20
0.0
 30
0.0
 70
   128
 71
   175
 72
   203
 73
  -204
  0
VERTEX
  8
RK-LAVAT
 10
0.0
 20
0.0
 30
0.0
 70
   128
 71
   177
 72
  -176
 73
   205
  0
VERTEX
  8
RK-LAVAT
 10
0.0
 20
0.0
 30
0.0
 70
   128
 71
   176
 72
   204
 73
  -205
  0
VERTEX
  8
RK-LAVAT
 10
0.0
 20
0.0
 30
0.0
 70
   128
 71
   178
 72
  -177
 73
   206
  0
VERTEX
  8
RK-LAVAT
 10
0.0
 20
0.0
 30
0.0
 70
   128
 71
   177
 72
   205
 73
  -206
  0
VERTEX
  8
RK-LAVAT
 10
0.0
 20
0.0
 30
0.0
 70
   128
 71
   179
 72
  -178
 73
   207
  0
VERTEX
  8
RK-LAVAT
 10
0.0
 20
0.0
 30
0.0
 70
   128
 71
   178
 72
   206
 73
  -207
  0
VERTEX
  8
RK-LAVAT
 10
0.0
 20
0.0
 30
0.0
 70
   128
 71
   180
 72
  -179
 73
   208
  0
VERTEX
  8
RK-LAVAT
 10
0.0
 20
0.0
 30
0.0
 70
   128
 71
   179
 72
   207
 73
  -208
  0
VERTEX
  8
RK-LAVAT
 10
0.0
 20
0.0
 30
0.0
 70
   128
 71
   181
 72
  -180
 73
   209
  0
VERTEX
  8
RK-LAVAT
 10
0.0
 20
0.0
 30
0.0
 70
   128
 71
   180
 72
   208
 73
  -209
  0
VERTEX
  8
RK-LAVAT
 10
0.0
 20
0.0
 30
0.0
 70
   128
 71
   182
 72
  -181
 73
   210
  0
VERTEX
  8
RK-LAVAT
 10
0.0
 20
0.0
 30
0.0
 70
   128
 71
   181
 72
   209
 73
  -210
  0
VERTEX
  8
RK-LAVAT
 10
0.0
 20
0.0
 30
0.0
 70
   128
 71
   183
 72
  -182
 73
   211
  0
VERTEX
  8
RK-LAVAT
 10
0.0
 20
0.0
 30
0.0
 70
   128
 71
   182
 72
   210
 73
  -211
  0
VERTEX
  8
RK-LAVAT
 10
0.0
 20
0.0
 30
0.0
 70
   128
 71
   184
 72
  -183
 73
   212
  0
VERTEX
  8
RK-LAVAT
 10
0.0
 20
0.0
 30
0.0
 70
   128
 71
   183
 72
   211
 73
  -212
  0
VERTEX
  8
RK-LAVAT
 10
0.0
 20
0.0
 30
0.0
 70
   128
 71
   185
 72
  -184
 73
   213
  0
VERTEX
  8
RK-LAVAT
 10
0.0
 20
0.0
 30
0.0
 70
   128
 71
   184
 72
   212
 73
  -213
  0
VERTEX
  8
RK-LAVAT
 10
0.0
 20
0.0
 30
0.0
 70
   128
 71
   186
 72
  -185
 73
   214
  0
VERTEX
  8
RK-LAVAT
 10
0.0
 20
0.0
 30
0.0
 70
   128
 71
   185
 72
   213
 73
  -214
  0
VERTEX
  8
RK-LAVAT
 10
0.0
 20
0.0
 30
0.0
 70
   128
 71
   187
 72
  -186
 73
   215
  0
VERTEX
  8
RK-LAVAT
 10
0.0
 20
0.0
 30
0.0
 70
   128
 71
   186
 72
   214
 73
  -215
  0
VERTEX
  8
RK-LAVAT
 10
0.0
 20
0.0
 30
0.0
 70
   128
 71
   188
 72
  -187
 73
   216
  0
VERTEX
  8
RK-LAVAT
 10
0.0
 20
0.0
 30
0.0
 70
   128
 71
   187
 72
   215
 73
  -216
  0
VERTEX
  8
RK-LAVAT
 10
0.0
 20
0.0
 30
0.0
 70
   128
 71
   189
 72
  -188
 73
   217
  0
VERTEX
  8
RK-LAVAT
 10
0.0
 20
0.0
 30
0.0
 70
   128
 71
   188
 72
   216
 73
  -217
  0
VERTEX
  8
RK-LAVAT
 10
0.0
 20
0.0
 30
0.0
 70
   128
 71
   190
 72
  -189
 73
   218
  0
VERTEX
  8
RK-LAVAT
 10
0.0
 20
0.0
 30
0.0
 70
   128
 71
   189
 72
   217
 73
  -218
  0
VERTEX
  8
RK-LAVAT
 10
0.0
 20
0.0
 30
0.0
 70
   128
 71
   191
 72
  -190
 73
   219
  0
VERTEX
  8
RK-LAVAT
 10
0.0
 20
0.0
 30
0.0
 70
   128
 71
   190
 72
   218
 73
  -219
  0
VERTEX
  8
RK-LAVAT
 10
0.0
 20
0.0
 30
0.0
 70
   128
 71
   192
 72
  -191
 73
   220
  0
VERTEX
  8
RK-LAVAT
 10
0.0
 20
0.0
 30
0.0
 70
   128
 71
   191
 72
   219
 73
  -220
  0
VERTEX
  8
RK-LAVAT
 10
0.0
 20
0.0
 30
0.0
 70
   128
 71
   193
 72
  -192
 73
   221
  0
VERTEX
  8
RK-LAVAT
 10
0.0
 20
0.0
 30
0.0
 70
   128
 71
   192
 72
   220
 73
  -221
  0
VERTEX
  8
RK-LAVAT
 10
0.0
 20
0.0
 30
0.0
 70
   128
 71
   194
 72
  -193
 73
   222
  0
VERTEX
  8
RK-LAVAT
 10
0.0
 20
0.0
 30
0.0
 70
   128
 71
   193
 72
   221
 73
  -222
  0
VERTEX
  8
RK-LAVAT
 10
0.0
 20
0.0
 30
0.0
 70
   128
 71
   195
 72
  -194
 73
   223
  0
VERTEX
  8
RK-LAVAT
 10
0.0
 20
0.0
 30
0.0
 70
   128
 71
   194
 72
   222
 73
  -223
  0
VERTEX
  8
RK-LAVAT
 10
0.0
 20
0.0
 30
0.0
 70
   128
 71
   196
 72
  -195
 73
   224
  0
VERTEX
  8
RK-LAVAT
 10
0.0
 20
0.0
 30
0.0
 70
   128
 71
   195
 72
   223
 73
  -224
  0
VERTEX
  8
RK-LAVAT
 10
0.0
 20
0.0
 30
0.0
 70
   128
 71
   170
 72
  -196
 73
   198
  0
VERTEX
  8
RK-LAVAT
 10
0.0
 20
0.0
 30
0.0
 70
   128
 71
   196
 72
   224
 73
  -198
  0
VERTEX
  8
RK-LAVAT
 10
0.0
 20
0.0
 30
0.0
 70
   128
 71
   197
 72
  -198
 73
   225
  0
VERTEX
  8
RK-LAVAT
 10
0.0
 20
0.0
 30
0.0
 70
   128
 71
   198
 72
   226
 73
  -225
  0
VERTEX
  8
RK-LAVAT
 10
0.0
 20
0.0
 30
0.0
 70
   128
 71
   199
 72
  -197
 73
   227
  0
VERTEX
  8
RK-LAVAT
 10
0.0
 20
0.0
 30
0.0
 70
   128
 71
   197
 72
   225
 73
  -227
  0
VERTEX
  8
RK-LAVAT
 10
0.0
 20
0.0
 30
0.0
 70
   128
 71
   200
 72
  -199
 73
   228
  0
VERTEX
  8
RK-LAVAT
 10
0.0
 20
0.0
 30
0.0
 70
   128
 71
   199
 72
   227
 73
  -228
  0
VERTEX
  8
RK-LAVAT
 10
0.0
 20
0.0
 30
0.0
 70
   128
 71
   201
 72
  -200
 73
   229
  0
VERTEX
  8
RK-LAVAT
 10
0.0
 20
0.0
 30
0.0
 70
   128
 71
   200
 72
   228
 73
  -229
  0
VERTEX
  8
RK-LAVAT
 10
0.0
 20
0.0
 30
0.0
 70
   128
 71
   202
 72
  -201
 73
   230
  0
VERTEX
  8
RK-LAVAT
 10
0.0
 20
0.0
 30
0.0
 70
   128
 71
   201
 72
   229
 73
  -230
  0
VERTEX
  8
RK-LAVAT
 10
0.0
 20
0.0
 30
0.0
 70
   128
 71
   203
 72
  -202
 73
   231
  0
VERTEX
  8
RK-LAVAT
 10
0.0
 20
0.0
 30
0.0
 70
   128
 71
   202
 72
   230
 73
  -231
  0
VERTEX
  8
RK-LAVAT
 10
0.0
 20
0.0
 30
0.0
 70
   128
 71
   204
 72
  -203
 73
   232
  0
VERTEX
  8
RK-LAVAT
 10
0.0
 20
0.0
 30
0.0
 70
   128
 71
   203
 72
   231
 73
  -232
  0
VERTEX
  8
RK-LAVAT
 10
0.0
 20
0.0
 30
0.0
 70
   128
 71
   205
 72
  -204
 73
   233
  0
VERTEX
  8
RK-LAVAT
 10
0.0
 20
0.0
 30
0.0
 70
   128
 71
   204
 72
   232
 73
  -233
  0
VERTEX
  8
RK-LAVAT
 10
0.0
 20
0.0
 30
0.0
 70
   128
 71
   206
 72
  -205
 73
   234
  0
VERTEX
  8
RK-LAVAT
 10
0.0
 20
0.0
 30
0.0
 70
   128
 71
   205
 72
   233
 73
  -234
  0
VERTEX
  8
RK-LAVAT
 10
0.0
 20
0.0
 30
0.0
 70
   128
 71
   207
 72
  -206
 73
   235
  0
VERTEX
  8
RK-LAVAT
 10
0.0
 20
0.0
 30
0.0
 70
   128
 71
   206
 72
   234
 73
  -235
  0
VERTEX
  8
RK-LAVAT
 10
0.0
 20
0.0
 30
0.0
 70
   128
 71
   208
 72
  -207
 73
   236
  0
VERTEX
  8
RK-LAVAT
 10
0.0
 20
0.0
 30
0.0
 70
   128
 71
   207
 72
   235
 73
  -236
  0
VERTEX
  8
RK-LAVAT
 10
0.0
 20
0.0
 30
0.0
 70
   128
 71
   209
 72
  -208
 73
   237
  0
VERTEX
  8
RK-LAVAT
 10
0.0
 20
0.0
 30
0.0
 70
   128
 71
   208
 72
   236
 73
  -237
  0
VERTEX
  8
RK-LAVAT
 10
0.0
 20
0.0
 30
0.0
 70
   128
 71
   210
 72
  -209
 73
   238
  0
VERTEX
  8
RK-LAVAT
 10
0.0
 20
0.0
 30
0.0
 70
   128
 71
   209
 72
   237
 73
  -238
  0
VERTEX
  8
RK-LAVAT
 10
0.0
 20
0.0
 30
0.0
 70
   128
 71
   211
 72
  -210
 73
   239
  0
VERTEX
  8
RK-LAVAT
 10
0.0
 20
0.0
 30
0.0
 70
   128
 71
   210
 72
   238
 73
  -239
  0
VERTEX
  8
RK-LAVAT
 10
0.0
 20
0.0
 30
0.0
 70
   128
 71
   212
 72
  -211
 73
   240
  0
VERTEX
  8
RK-LAVAT
 10
0.0
 20
0.0
 30
0.0
 70
   128
 71
   211
 72
   239
 73
  -240
  0
VERTEX
  8
RK-LAVAT
 10
0.0
 20
0.0
 30
0.0
 70
   128
 71
   213
 72
  -212
 73
   241
  0
VERTEX
  8
RK-LAVAT
 10
0.0
 20
0.0
 30
0.0
 70
   128
 71
   212
 72
   240
 73
  -241
  0
VERTEX
  8
RK-LAVAT
 10
0.0
 20
0.0
 30
0.0
 70
   128
 71
   214
 72
  -213
 73
   242
  0
VERTEX
  8
RK-LAVAT
 10
0.0
 20
0.0
 30
0.0
 70
   128
 71
   213
 72
   241
 73
  -242
  0
VERTEX
  8
RK-LAVAT
 10
0.0
 20
0.0
 30
0.0
 70
   128
 71
   215
 72
  -214
 73
   243
  0
VERTEX
  8
RK-LAVAT
 10
0.0
 20
0.0
 30
0.0
 70
   128
 71
   214
 72
   242
 73
  -243
  0
VERTEX
  8
RK-LAVAT
 10
0.0
 20
0.0
 30
0.0
 70
   128
 71
   216
 72
  -215
 73
   244
  0
VERTEX
  8
RK-LAVAT
 10
0.0
 20
0.0
 30
0.0
 70
   128
 71
   215
 72
   243
 73
  -244
  0
VERTEX
  8
RK-LAVAT
 10
0.0
 20
0.0
 30
0.0
 70
   128
 71
   217
 72
  -216
 73
   245
  0
VERTEX
  8
RK-LAVAT
 10
0.0
 20
0.0
 30
0.0
 70
   128
 71
   216
 72
   244
 73
  -245
  0
VERTEX
  8
RK-LAVAT
 10
0.0
 20
0.0
 30
0.0
 70
   128
 71
   218
 72
  -217
 73
   246
  0
VERTEX
  8
RK-LAVAT
 10
0.0
 20
0.0
 30
0.0
 70
   128
 71
   217
 72
   245
 73
  -246
  0
VERTEX
  8
RK-LAVAT
 10
0.0
 20
0.0
 30
0.0
 70
   128
 71
   219
 72
  -218
 73
   247
  0
VERTEX
  8
RK-LAVAT
 10
0.0
 20
0.0
 30
0.0
 70
   128
 71
   218
 72
   246
 73
  -247
  0
VERTEX
  8
RK-LAVAT
 10
0.0
 20
0.0
 30
0.0
 70
   128
 71
   220
 72
  -219
 73
   248
  0
VERTEX
  8
RK-LAVAT
 10
0.0
 20
0.0
 30
0.0
 70
   128
 71
   219
 72
   247
 73
  -248
  0
VERTEX
  8
RK-LAVAT
 10
0.0
 20
0.0
 30
0.0
 70
   128
 71
   221
 72
  -220
 73
   249
  0
VERTEX
  8
RK-LAVAT
 10
0.0
 20
0.0
 30
0.0
 70
   128
 71
   220
 72
   248
 73
  -249
  0
VERTEX
  8
RK-LAVAT
 10
0.0
 20
0.0
 30
0.0
 70
   128
 71
   222
 72
  -221
 73
   250
  0
VERTEX
  8
RK-LAVAT
 10
0.0
 20
0.0
 30
0.0
 70
   128
 71
   221
 72
   249
 73
  -250
  0
VERTEX
  8
RK-LAVAT
 10
0.0
 20
0.0
 30
0.0
 70
   128
 71
   223
 72
  -222
 73
   251
  0
VERTEX
  8
RK-LAVAT
 10
0.0
 20
0.0
 30
0.0
 70
   128
 71
   222
 72
   250
 73
  -251
  0
VERTEX
  8
RK-LAVAT
 10
0.0
 20
0.0
 30
0.0
 70
   128
 71
   224
 72
  -223
 73
   252
  0
VERTEX
  8
RK-LAVAT
 10
0.0
 20
0.0
 30
0.0
 70
   128
 71
   223
 72
   251
 73
  -252
  0
VERTEX
  8
RK-LAVAT
 10
0.0
 20
0.0
 30
0.0
 70
   128
 71
   198
 72
  -224
 73
   226
  0
VERTEX
  8
RK-LAVAT
 10
0.0
 20
0.0
 30
0.0
 70
   128
 71
   224
 72
   252
 73
  -226
  0
VERTEX
  8
RK-LAVAT
 10
0.0
 20
0.0
 30
0.0
 70
   128
 71
   225
 72
  -226
 73
   253
  0
VERTEX
  8
RK-LAVAT
 10
0.0
 20
0.0
 30
0.0
 70
   128
 71
   226
 72
   254
 73
  -253
  0
VERTEX
  8
RK-LAVAT
 10
0.0
 20
0.0
 30
0.0
 70
   128
 71
   227
 72
  -225
 73
   255
  0
VERTEX
  8
RK-LAVAT
 10
0.0
 20
0.0
 30
0.0
 70
   128
 71
   225
 72
   253
 73
  -255
  0
VERTEX
  8
RK-LAVAT
 10
0.0
 20
0.0
 30
0.0
 70
   128
 71
   228
 72
  -227
 73
   256
  0
VERTEX
  8
RK-LAVAT
 10
0.0
 20
0.0
 30
0.0
 70
   128
 71
   227
 72
   255
 73
  -256
  0
VERTEX
  8
RK-LAVAT
 10
0.0
 20
0.0
 30
0.0
 70
   128
 71
   229
 72
  -228
 73
   257
  0
VERTEX
  8
RK-LAVAT
 10
0.0
 20
0.0
 30
0.0
 70
   128
 71
   228
 72
   256
 73
  -257
  0
VERTEX
  8
RK-LAVAT
 10
0.0
 20
0.0
 30
0.0
 70
   128
 71
   230
 72
  -229
 73
   258
  0
VERTEX
  8
RK-LAVAT
 10
0.0
 20
0.0
 30
0.0
 70
   128
 71
   229
 72
   257
 73
  -258
  0
VERTEX
  8
RK-LAVAT
 10
0.0
 20
0.0
 30
0.0
 70
   128
 71
   231
 72
  -230
 73
   259
  0
VERTEX
  8
RK-LAVAT
 10
0.0
 20
0.0
 30
0.0
 70
   128
 71
   230
 72
   258
 73
  -259
  0
VERTEX
  8
RK-LAVAT
 10
0.0
 20
0.0
 30
0.0
 70
   128
 71
   232
 72
  -231
 73
   260
  0
VERTEX
  8
RK-LAVAT
 10
0.0
 20
0.0
 30
0.0
 70
   128
 71
   231
 72
   259
 73
  -260
  0
VERTEX
  8
RK-LAVAT
 10
0.0
 20
0.0
 30
0.0
 70
   128
 71
   233
 72
  -232
 73
   261
  0
VERTEX
  8
RK-LAVAT
 10
0.0
 20
0.0
 30
0.0
 70
   128
 71
   232
 72
   260
 73
  -261
  0
VERTEX
  8
RK-LAVAT
 10
0.0
 20
0.0
 30
0.0
 70
   128
 71
   234
 72
  -233
 73
   262
  0
VERTEX
  8
RK-LAVAT
 10
0.0
 20
0.0
 30
0.0
 70
   128
 71
   233
 72
   261
 73
  -262
  0
VERTEX
  8
RK-LAVAT
 10
0.0
 20
0.0
 30
0.0
 70
   128
 71
   235
 72
  -234
 73
   263
  0
VERTEX
  8
RK-LAVAT
 10
0.0
 20
0.0
 30
0.0
 70
   128
 71
   234
 72
   262
 73
  -263
  0
VERTEX
  8
RK-LAVAT
 10
0.0
 20
0.0
 30
0.0
 70
   128
 71
   236
 72
  -235
 73
   264
  0
VERTEX
  8
RK-LAVAT
 10
0.0
 20
0.0
 30
0.0
 70
   128
 71
   235
 72
   263
 73
  -264
  0
VERTEX
  8
RK-LAVAT
 10
0.0
 20
0.0
 30
0.0
 70
   128
 71
   237
 72
  -236
 73
   265
  0
VERTEX
  8
RK-LAVAT
 10
0.0
 20
0.0
 30
0.0
 70
   128
 71
   236
 72
   264
 73
  -265
  0
VERTEX
  8
RK-LAVAT
 10
0.0
 20
0.0
 30
0.0
 70
   128
 71
   238
 72
  -237
 73
   266
  0
VERTEX
  8
RK-LAVAT
 10
0.0
 20
0.0
 30
0.0
 70
   128
 71
   237
 72
   265
 73
  -266
  0
VERTEX
  8
RK-LAVAT
 10
0.0
 20
0.0
 30
0.0
 70
   128
 71
   239
 72
  -238
 73
   267
  0
VERTEX
  8
RK-LAVAT
 10
0.0
 20
0.0
 30
0.0
 70
   128
 71
   238
 72
   266
 73
  -267
  0
VERTEX
  8
RK-LAVAT
 10
0.0
 20
0.0
 30
0.0
 70
   128
 71
   240
 72
  -239
 73
   268
  0
VERTEX
  8
RK-LAVAT
 10
0.0
 20
0.0
 30
0.0
 70
   128
 71
   239
 72
   267
 73
  -268
  0
VERTEX
  8
RK-LAVAT
 10
0.0
 20
0.0
 30
0.0
 70
   128
 71
   241
 72
  -240
 73
   269
  0
VERTEX
  8
RK-LAVAT
 10
0.0
 20
0.0
 30
0.0
 70
   128
 71
   240
 72
   268
 73
  -269
  0
VERTEX
  8
RK-LAVAT
 10
0.0
 20
0.0
 30
0.0
 70
   128
 71
   242
 72
  -241
 73
   270
  0
VERTEX
  8
RK-LAVAT
 10
0.0
 20
0.0
 30
0.0
 70
   128
 71
   241
 72
   269
 73
  -270
  0
VERTEX
  8
RK-LAVAT
 10
0.0
 20
0.0
 30
0.0
 70
   128
 71
   243
 72
  -242
 73
   271
  0
VERTEX
  8
RK-LAVAT
 10
0.0
 20
0.0
 30
0.0
 70
   128
 71
   242
 72
   270
 73
  -271
  0
VERTEX
  8
RK-LAVAT
 10
0.0
 20
0.0
 30
0.0
 70
   128
 71
   244
 72
  -243
 73
   272
  0
VERTEX
  8
RK-LAVAT
 10
0.0
 20
0.0
 30
0.0
 70
   128
 71
   243
 72
   271
 73
  -272
  0
VERTEX
  8
RK-LAVAT
 10
0.0
 20
0.0
 30
0.0
 70
   128
 71
   245
 72
  -244
 73
   273
  0
VERTEX
  8
RK-LAVAT
 10
0.0
 20
0.0
 30
0.0
 70
   128
 71
   244
 72
   272
 73
  -273
  0
VERTEX
  8
RK-LAVAT
 10
0.0
 20
0.0
 30
0.0
 70
   128
 71
   246
 72
  -245
 73
   274
  0
VERTEX
  8
RK-LAVAT
 10
0.0
 20
0.0
 30
0.0
 70
   128
 71
   245
 72
   273
 73
  -274
  0
VERTEX
  8
RK-LAVAT
 10
0.0
 20
0.0
 30
0.0
 70
   128
 71
   247
 72
  -246
 73
   275
  0
VERTEX
  8
RK-LAVAT
 10
0.0
 20
0.0
 30
0.0
 70
   128
 71
   246
 72
   274
 73
  -275
  0
VERTEX
  8
RK-LAVAT
 10
0.0
 20
0.0
 30
0.0
 70
   128
 71
   248
 72
  -247
 73
   276
  0
VERTEX
  8
RK-LAVAT
 10
0.0
 20
0.0
 30
0.0
 70
   128
 71
   247
 72
   275
 73
  -276
  0
VERTEX
  8
RK-LAVAT
 10
0.0
 20
0.0
 30
0.0
 70
   128
 71
   249
 72
  -248
 73
   277
  0
VERTEX
  8
RK-LAVAT
 10
0.0
 20
0.0
 30
0.0
 70
   128
 71
   248
 72
   276
 73
  -277
  0
VERTEX
  8
RK-LAVAT
 10
0.0
 20
0.0
 30
0.0
 70
   128
 71
   250
 72
  -249
 73
   278
  0
VERTEX
  8
RK-LAVAT
 10
0.0
 20
0.0
 30
0.0
 70
   128
 71
   249
 72
   277
 73
  -278
  0
VERTEX
  8
RK-LAVAT
 10
0.0
 20
0.0
 30
0.0
 70
   128
 71
   251
 72
  -250
 73
   279
  0
VERTEX
  8
RK-LAVAT
 10
0.0
 20
0.0
 30
0.0
 70
   128
 71
   250
 72
   278
 73
  -279
  0
VERTEX
  8
RK-LAVAT
 10
0.0
 20
0.0
 30
0.0
 70
   128
 71
   252
 72
  -251
 73
   280
  0
VERTEX
  8
RK-LAVAT
 10
0.0
 20
0.0
 30
0.0
 70
   128
 71
   251
 72
   279
 73
  -280
  0
VERTEX
  8
RK-LAVAT
 10
0.0
 20
0.0
 30
0.0
 70
   128
 71
   226
 72
  -252
 73
   254
  0
VERTEX
  8
RK-LAVAT
 10
0.0
 20
0.0
 30
0.0
 70
   128
 71
   252
 72
   280
 73
  -254
  0
VERTEX
  8
RK-LAVAT
 10
0.0
 20
0.0
 30
0.0
 70
   128
 71
   253
 72
  -254
 73
   281
  0
VERTEX
  8
RK-LAVAT
 10
0.0
 20
0.0
 30
0.0
 70
   128
 71
   254
 72
   282
 73
  -281
  0
VERTEX
  8
RK-LAVAT
 10
0.0
 20
0.0
 30
0.0
 70
   128
 71
   255
 72
  -253
 73
   283
  0
VERTEX
  8
RK-LAVAT
 10
0.0
 20
0.0
 30
0.0
 70
   128
 71
   253
 72
   281
 73
  -283
  0
VERTEX
  8
RK-LAVAT
 10
0.0
 20
0.0
 30
0.0
 70
   128
 71
   256
 72
  -255
 73
   284
  0
VERTEX
  8
RK-LAVAT
 10
0.0
 20
0.0
 30
0.0
 70
   128
 71
   255
 72
   283
 73
  -284
  0
VERTEX
  8
RK-LAVAT
 10
0.0
 20
0.0
 30
0.0
 70
   128
 71
   257
 72
  -256
 73
   285
  0
VERTEX
  8
RK-LAVAT
 10
0.0
 20
0.0
 30
0.0
 70
   128
 71
   256
 72
   284
 73
  -285
  0
VERTEX
  8
RK-LAVAT
 10
0.0
 20
0.0
 30
0.0
 70
   128
 71
   258
 72
  -257
 73
   286
  0
VERTEX
  8
RK-LAVAT
 10
0.0
 20
0.0
 30
0.0
 70
   128
 71
   257
 72
   285
 73
  -286
  0
VERTEX
  8
RK-LAVAT
 10
0.0
 20
0.0
 30
0.0
 70
   128
 71
   259
 72
  -258
 73
   287
  0
VERTEX
  8
RK-LAVAT
 10
0.0
 20
0.0
 30
0.0
 70
   128
 71
   258
 72
   286
 73
  -287
  0
VERTEX
  8
RK-LAVAT
 10
0.0
 20
0.0
 30
0.0
 70
   128
 71
   260
 72
  -259
 73
   288
  0
VERTEX
  8
RK-LAVAT
 10
0.0
 20
0.0
 30
0.0
 70
   128
 71
   259
 72
   287
 73
  -288
  0
VERTEX
  8
RK-LAVAT
 10
0.0
 20
0.0
 30
0.0
 70
   128
 71
   261
 72
  -260
 73
   289
  0
VERTEX
  8
RK-LAVAT
 10
0.0
 20
0.0
 30
0.0
 70
   128
 71
   260
 72
   288
 73
  -289
  0
VERTEX
  8
RK-LAVAT
 10
0.0
 20
0.0
 30
0.0
 70
   128
 71
   262
 72
  -261
 73
   290
  0
VERTEX
  8
RK-LAVAT
 10
0.0
 20
0.0
 30
0.0
 70
   128
 71
   261
 72
   289
 73
  -290
  0
VERTEX
  8
RK-LAVAT
 10
0.0
 20
0.0
 30
0.0
 70
   128
 71
   263
 72
  -262
 73
   291
  0
VERTEX
  8
RK-LAVAT
 10
0.0
 20
0.0
 30
0.0
 70
   128
 71
   262
 72
   290
 73
  -291
  0
VERTEX
  8
RK-LAVAT
 10
0.0
 20
0.0
 30
0.0
 70
   128
 71
   264
 72
  -263
 73
   292
  0
VERTEX
  8
RK-LAVAT
 10
0.0
 20
0.0
 30
0.0
 70
   128
 71
   263
 72
   291
 73
  -292
  0
VERTEX
  8
RK-LAVAT
 10
0.0
 20
0.0
 30
0.0
 70
   128
 71
   265
 72
  -264
 73
   293
  0
VERTEX
  8
RK-LAVAT
 10
0.0
 20
0.0
 30
0.0
 70
   128
 71
   264
 72
   292
 73
  -293
  0
VERTEX
  8
RK-LAVAT
 10
0.0
 20
0.0
 30
0.0
 70
   128
 71
   266
 72
  -265
 73
   294
  0
VERTEX
  8
RK-LAVAT
 10
0.0
 20
0.0
 30
0.0
 70
   128
 71
   265
 72
   293
 73
  -294
  0
VERTEX
  8
RK-LAVAT
 10
0.0
 20
0.0
 30
0.0
 70
   128
 71
   267
 72
  -266
 73
   295
  0
VERTEX
  8
RK-LAVAT
 10
0.0
 20
0.0
 30
0.0
 70
   128
 71
   266
 72
   294
 73
  -295
  0
VERTEX
  8
RK-LAVAT
 10
0.0
 20
0.0
 30
0.0
 70
   128
 71
   268
 72
  -267
 73
   296
  0
VERTEX
  8
RK-LAVAT
 10
0.0
 20
0.0
 30
0.0
 70
   128
 71
   267
 72
   295
 73
  -296
  0
VERTEX
  8
RK-LAVAT
 10
0.0
 20
0.0
 30
0.0
 70
   128
 71
   269
 72
  -268
 73
   297
  0
VERTEX
  8
RK-LAVAT
 10
0.0
 20
0.0
 30
0.0
 70
   128
 71
   268
 72
   296
 73
  -297
  0
VERTEX
  8
RK-LAVAT
 10
0.0
 20
0.0
 30
0.0
 70
   128
 71
   270
 72
  -269
 73
   298
  0
VERTEX
  8
RK-LAVAT
 10
0.0
 20
0.0
 30
0.0
 70
   128
 71
   269
 72
   297
 73
  -298
  0
VERTEX
  8
RK-LAVAT
 10
0.0
 20
0.0
 30
0.0
 70
   128
 71
   271
 72
  -270
 73
   299
  0
VERTEX
  8
RK-LAVAT
 10
0.0
 20
0.0
 30
0.0
 70
   128
 71
   270
 72
   298
 73
  -299
  0
VERTEX
  8
RK-LAVAT
 10
0.0
 20
0.0
 30
0.0
 70
   128
 71
   272
 72
  -271
 73
   300
  0
VERTEX
  8
RK-LAVAT
 10
0.0
 20
0.0
 30
0.0
 70
   128
 71
   271
 72
   299
 73
  -300
  0
VERTEX
  8
RK-LAVAT
 10
0.0
 20
0.0
 30
0.0
 70
   128
 71
   273
 72
  -272
 73
   301
  0
VERTEX
  8
RK-LAVAT
 10
0.0
 20
0.0
 30
0.0
 70
   128
 71
   272
 72
   300
 73
  -301
  0
VERTEX
  8
RK-LAVAT
 10
0.0
 20
0.0
 30
0.0
 70
   128
 71
   274
 72
  -273
 73
   302
  0
VERTEX
  8
RK-LAVAT
 10
0.0
 20
0.0
 30
0.0
 70
   128
 71
   273
 72
   301
 73
  -302
  0
VERTEX
  8
RK-LAVAT
 10
0.0
 20
0.0
 30
0.0
 70
   128
 71
   275
 72
  -274
 73
   303
  0
VERTEX
  8
RK-LAVAT
 10
0.0
 20
0.0
 30
0.0
 70
   128
 71
   274
 72
   302
 73
  -303
  0
VERTEX
  8
RK-LAVAT
 10
0.0
 20
0.0
 30
0.0
 70
   128
 71
   276
 72
  -275
 73
   304
  0
VERTEX
  8
RK-LAVAT
 10
0.0
 20
0.0
 30
0.0
 70
   128
 71
   275
 72
   303
 73
  -304
  0
VERTEX
  8
RK-LAVAT
 10
0.0
 20
0.0
 30
0.0
 70
   128
 71
   277
 72
  -276
 73
   305
  0
VERTEX
  8
RK-LAVAT
 10
0.0
 20
0.0
 30
0.0
 70
   128
 71
   276
 72
   304
 73
  -305
  0
VERTEX
  8
RK-LAVAT
 10
0.0
 20
0.0
 30
0.0
 70
   128
 71
   278
 72
  -277
 73
   306
  0
VERTEX
  8
RK-LAVAT
 10
0.0
 20
0.0
 30
0.0
 70
   128
 71
   277
 72
   305
 73
  -306
  0
VERTEX
  8
RK-LAVAT
 10
0.0
 20
0.0
 30
0.0
 70
   128
 71
   279
 72
  -278
 73
   307
  0
VERTEX
  8
RK-LAVAT
 10
0.0
 20
0.0
 30
0.0
 70
   128
 71
   278
 72
   306
 73
  -307
  0
VERTEX
  8
RK-LAVAT
 10
0.0
 20
0.0
 30
0.0
 70
   128
 71
   280
 72
  -279
 73
   308
  0
VERTEX
  8
RK-LAVAT
 10
0.0
 20
0.0
 30
0.0
 70
   128
 71
   279
 72
   307
 73
  -308
  0
VERTEX
  8
RK-LAVAT
 10
0.0
 20
0.0
 30
0.0
 70
   128
 71
   254
 72
  -280
 73
   282
  0
VERTEX
  8
RK-LAVAT
 10
0.0
 20
0.0
 30
0.0
 70
   128
 71
   280
 72
   308
 73
  -282
  0
VERTEX
  8
RK-LAVAT
 10
0.0
 20
0.0
 30
0.0
 70
   128
 71
   281
 72
  -282
 73
   309
  0
VERTEX
  8
RK-LAVAT
 10
0.0
 20
0.0
 30
0.0
 70
   128
 71
   282
 72
   310
 73
  -309
  0
VERTEX
  8
RK-LAVAT
 10
0.0
 20
0.0
 30
0.0
 70
   128
 71
   283
 72
  -281
 73
   311
  0
VERTEX
  8
RK-LAVAT
 10
0.0
 20
0.0
 30
0.0
 70
   128
 71
   281
 72
   309
 73
  -311
  0
VERTEX
  8
RK-LAVAT
 10
0.0
 20
0.0
 30
0.0
 70
   128
 71
   284
 72
  -283
 73
   312
  0
VERTEX
  8
RK-LAVAT
 10
0.0
 20
0.0
 30
0.0
 70
   128
 71
   283
 72
   311
 73
  -312
  0
VERTEX
  8
RK-LAVAT
 10
0.0
 20
0.0
 30
0.0
 70
   128
 71
   285
 72
  -284
 73
   313
  0
VERTEX
  8
RK-LAVAT
 10
0.0
 20
0.0
 30
0.0
 70
   128
 71
   284
 72
   312
 73
  -313
  0
VERTEX
  8
RK-LAVAT
 10
0.0
 20
0.0
 30
0.0
 70
   128
 71
   286
 72
  -285
 73
   314
  0
VERTEX
  8
RK-LAVAT
 10
0.0
 20
0.0
 30
0.0
 70
   128
 71
   285
 72
   313
 73
  -314
  0
VERTEX
  8
RK-LAVAT
 10
0.0
 20
0.0
 30
0.0
 70
   128
 71
   287
 72
  -286
 73
   315
  0
VERTEX
  8
RK-LAVAT
 10
0.0
 20
0.0
 30
0.0
 70
   128
 71
   286
 72
   314
 73
  -315
  0
VERTEX
  8
RK-LAVAT
 10
0.0
 20
0.0
 30
0.0
 70
   128
 71
   288
 72
  -287
 73
   316
  0
VERTEX
  8
RK-LAVAT
 10
0.0
 20
0.0
 30
0.0
 70
   128
 71
   287
 72
   315
 73
  -316
  0
VERTEX
  8
RK-LAVAT
 10
0.0
 20
0.0
 30
0.0
 70
   128
 71
   289
 72
  -288
 73
   317
  0
VERTEX
  8
RK-LAVAT
 10
0.0
 20
0.0
 30
0.0
 70
   128
 71
   288
 72
   316
 73
  -317
  0
VERTEX
  8
RK-LAVAT
 10
0.0
 20
0.0
 30
0.0
 70
   128
 71
   290
 72
  -289
 73
   318
  0
VERTEX
  8
RK-LAVAT
 10
0.0
 20
0.0
 30
0.0
 70
   128
 71
   289
 72
   317
 73
  -318
  0
VERTEX
  8
RK-LAVAT
 10
0.0
 20
0.0
 30
0.0
 70
   128
 71
   291
 72
  -290
 73
   319
  0
VERTEX
  8
RK-LAVAT
 10
0.0
 20
0.0
 30
0.0
 70
   128
 71
   290
 72
   318
 73
  -319
  0
VERTEX
  8
RK-LAVAT
 10
0.0
 20
0.0
 30
0.0
 70
   128
 71
   292
 72
  -291
 73
   320
  0
VERTEX
  8
RK-LAVAT
 10
0.0
 20
0.0
 30
0.0
 70
   128
 71
   291
 72
   319
 73
  -320
  0
VERTEX
  8
RK-LAVAT
 10
0.0
 20
0.0
 30
0.0
 70
   128
 71
   293
 72
  -292
 73
   321
  0
VERTEX
  8
RK-LAVAT
 10
0.0
 20
0.0
 30
0.0
 70
   128
 71
   292
 72
   320
 73
  -321
  0
VERTEX
  8
RK-LAVAT
 10
0.0
 20
0.0
 30
0.0
 70
   128
 71
   294
 72
  -293
 73
   322
  0
VERTEX
  8
RK-LAVAT
 10
0.0
 20
0.0
 30
0.0
 70
   128
 71
   293
 72
   321
 73
  -322
  0
VERTEX
  8
RK-LAVAT
 10
0.0
 20
0.0
 30
0.0
 70
   128
 71
   295
 72
  -294
 73
   323
  0
VERTEX
  8
RK-LAVAT
 10
0.0
 20
0.0
 30
0.0
 70
   128
 71
   294
 72
   322
 73
  -323
  0
VERTEX
  8
RK-LAVAT
 10
0.0
 20
0.0
 30
0.0
 70
   128
 71
   296
 72
  -295
 73
   324
  0
VERTEX
  8
RK-LAVAT
 10
0.0
 20
0.0
 30
0.0
 70
   128
 71
   295
 72
   323
 73
  -324
  0
VERTEX
  8
RK-LAVAT
 10
0.0
 20
0.0
 30
0.0
 70
   128
 71
   297
 72
  -296
 73
   325
  0
VERTEX
  8
RK-LAVAT
 10
0.0
 20
0.0
 30
0.0
 70
   128
 71
   296
 72
   324
 73
  -325
  0
VERTEX
  8
RK-LAVAT
 10
0.0
 20
0.0
 30
0.0
 70
   128
 71
   298
 72
  -297
 73
   326
  0
VERTEX
  8
RK-LAVAT
 10
0.0
 20
0.0
 30
0.0
 70
   128
 71
   297
 72
   325
 73
  -326
  0
VERTEX
  8
RK-LAVAT
 10
0.0
 20
0.0
 30
0.0
 70
   128
 71
   299
 72
  -298
 73
   327
  0
VERTEX
  8
RK-LAVAT
 10
0.0
 20
0.0
 30
0.0
 70
   128
 71
   298
 72
   326
 73
  -327
  0
VERTEX
  8
RK-LAVAT
 10
0.0
 20
0.0
 30
0.0
 70
   128
 71
   300
 72
  -299
 73
   328
  0
VERTEX
  8
RK-LAVAT
 10
0.0
 20
0.0
 30
0.0
 70
   128
 71
   299
 72
   327
 73
  -328
  0
VERTEX
  8
RK-LAVAT
 10
0.0
 20
0.0
 30
0.0
 70
   128
 71
   301
 72
  -300
 73
   329
  0
VERTEX
  8
RK-LAVAT
 10
0.0
 20
0.0
 30
0.0
 70
   128
 71
   300
 72
   328
 73
  -329
  0
VERTEX
  8
RK-LAVAT
 10
0.0
 20
0.0
 30
0.0
 70
   128
 71
   302
 72
  -301
 73
   330
  0
VERTEX
  8
RK-LAVAT
 10
0.0
 20
0.0
 30
0.0
 70
   128
 71
   301
 72
   329
 73
  -330
  0
VERTEX
  8
RK-LAVAT
 10
0.0
 20
0.0
 30
0.0
 70
   128
 71
   303
 72
  -302
 73
   331
  0
VERTEX
  8
RK-LAVAT
 10
0.0
 20
0.0
 30
0.0
 70
   128
 71
   302
 72
   330
 73
  -331
  0
VERTEX
  8
RK-LAVAT
 10
0.0
 20
0.0
 30
0.0
 70
   128
 71
   304
 72
  -303
 73
   332
  0
VERTEX
  8
RK-LAVAT
 10
0.0
 20
0.0
 30
0.0
 70
   128
 71
   303
 72
   331
 73
  -332
  0
VERTEX
  8
RK-LAVAT
 10
0.0
 20
0.0
 30
0.0
 70
   128
 71
   305
 72
  -304
 73
   333
  0
VERTEX
  8
RK-LAVAT
 10
0.0
 20
0.0
 30
0.0
 70
   128
 71
   304
 72
   332
 73
  -333
  0
VERTEX
  8
RK-LAVAT
 10
0.0
 20
0.0
 30
0.0
 70
   128
 71
   306
 72
  -305
 73
   334
  0
VERTEX
  8
RK-LAVAT
 10
0.0
 20
0.0
 30
0.0
 70
   128
 71
   305
 72
   333
 73
  -334
  0
VERTEX
  8
RK-LAVAT
 10
0.0
 20
0.0
 30
0.0
 70
   128
 71
   307
 72
  -306
 73
   335
  0
VERTEX
  8
RK-LAVAT
 10
0.0
 20
0.0
 30
0.0
 70
   128
 71
   306
 72
   334
 73
  -335
  0
VERTEX
  8
RK-LAVAT
 10
0.0
 20
0.0
 30
0.0
 70
   128
 71
   308
 72
  -307
 73
   336
  0
VERTEX
  8
RK-LAVAT
 10
0.0
 20
0.0
 30
0.0
 70
   128
 71
   307
 72
   335
 73
  -336
  0
VERTEX
  8
RK-LAVAT
 10
0.0
 20
0.0
 30
0.0
 70
   128
 71
   282
 72
  -308
 73
   310
  0
VERTEX
  8
RK-LAVAT
 10
0.0
 20
0.0
 30
0.0
 70
   128
 71
   308
 72
   336
 73
  -310
  0
VERTEX
  8
RK-LAVAT
 10
0.0
 20
0.0
 30
0.0
 70
   128
 71
   309
 72
  -310
 73
   337
  0
VERTEX
  8
RK-LAVAT
 10
0.0
 20
0.0
 30
0.0
 70
   128
 71
   310
 72
   338
 73
  -337
  0
VERTEX
  8
RK-LAVAT
 10
0.0
 20
0.0
 30
0.0
 70
   128
 71
   311
 72
  -309
 73
   339
  0
VERTEX
  8
RK-LAVAT
 10
0.0
 20
0.0
 30
0.0
 70
   128
 71
   309
 72
   337
 73
  -339
  0
VERTEX
  8
RK-LAVAT
 10
0.0
 20
0.0
 30
0.0
 70
   128
 71
   312
 72
  -311
 73
   340
  0
VERTEX
  8
RK-LAVAT
 10
0.0
 20
0.0
 30
0.0
 70
   128
 71
   311
 72
   339
 73
  -340
  0
VERTEX
  8
RK-LAVAT
 10
0.0
 20
0.0
 30
0.0
 70
   128
 71
   313
 72
  -312
 73
   341
  0
VERTEX
  8
RK-LAVAT
 10
0.0
 20
0.0
 30
0.0
 70
   128
 71
   312
 72
   340
 73
  -341
  0
VERTEX
  8
RK-LAVAT
 10
0.0
 20
0.0
 30
0.0
 70
   128
 71
   314
 72
  -313
 73
   342
  0
VERTEX
  8
RK-LAVAT
 10
0.0
 20
0.0
 30
0.0
 70
   128
 71
   313
 72
   341
 73
  -342
  0
VERTEX
  8
RK-LAVAT
 10
0.0
 20
0.0
 30
0.0
 70
   128
 71
   315
 72
  -314
 73
   343
  0
VERTEX
  8
RK-LAVAT
 10
0.0
 20
0.0
 30
0.0
 70
   128
 71
   314
 72
   342
 73
  -343
  0
VERTEX
  8
RK-LAVAT
 10
0.0
 20
0.0
 30
0.0
 70
   128
 71
   316
 72
  -315
 73
   344
  0
VERTEX
  8
RK-LAVAT
 10
0.0
 20
0.0
 30
0.0
 70
   128
 71
   315
 72
   343
 73
  -344
  0
VERTEX
  8
RK-LAVAT
 10
0.0
 20
0.0
 30
0.0
 70
   128
 71
   317
 72
  -316
 73
   345
  0
VERTEX
  8
RK-LAVAT
 10
0.0
 20
0.0
 30
0.0
 70
   128
 71
   316
 72
   344
 73
  -345
  0
VERTEX
  8
RK-LAVAT
 10
0.0
 20
0.0
 30
0.0
 70
   128
 71
   318
 72
  -317
 73
   346
  0
VERTEX
  8
RK-LAVAT
 10
0.0
 20
0.0
 30
0.0
 70
   128
 71
   317
 72
   345
 73
  -346
  0
VERTEX
  8
RK-LAVAT
 10
0.0
 20
0.0
 30
0.0
 70
   128
 71
   319
 72
  -318
 73
   347
  0
VERTEX
  8
RK-LAVAT
 10
0.0
 20
0.0
 30
0.0
 70
   128
 71
   318
 72
   346
 73
  -347
  0
VERTEX
  8
RK-LAVAT
 10
0.0
 20
0.0
 30
0.0
 70
   128
 71
   320
 72
  -319
 73
   348
  0
VERTEX
  8
RK-LAVAT
 10
0.0
 20
0.0
 30
0.0
 70
   128
 71
   319
 72
   347
 73
  -348
  0
VERTEX
  8
RK-LAVAT
 10
0.0
 20
0.0
 30
0.0
 70
   128
 71
   321
 72
  -320
 73
   349
  0
VERTEX
  8
RK-LAVAT
 10
0.0
 20
0.0
 30
0.0
 70
   128
 71
   320
 72
   348
 73
  -349
  0
VERTEX
  8
RK-LAVAT
 10
0.0
 20
0.0
 30
0.0
 70
   128
 71
   322
 72
  -321
 73
   350
  0
VERTEX
  8
RK-LAVAT
 10
0.0
 20
0.0
 30
0.0
 70
   128
 71
   321
 72
   349
 73
  -350
  0
VERTEX
  8
RK-LAVAT
 10
0.0
 20
0.0
 30
0.0
 70
   128
 71
   323
 72
  -322
 73
   351
  0
VERTEX
  8
RK-LAVAT
 10
0.0
 20
0.0
 30
0.0
 70
   128
 71
   322
 72
   350
 73
  -351
  0
VERTEX
  8
RK-LAVAT
 10
0.0
 20
0.0
 30
0.0
 70
   128
 71
   324
 72
  -323
 73
   352
  0
VERTEX
  8
RK-LAVAT
 10
0.0
 20
0.0
 30
0.0
 70
   128
 71
   323
 72
   351
 73
  -352
  0
VERTEX
  8
RK-LAVAT
 10
0.0
 20
0.0
 30
0.0
 70
   128
 71
   325
 72
  -324
 73
   353
  0
VERTEX
  8
RK-LAVAT
 10
0.0
 20
0.0
 30
0.0
 70
   128
 71
   324
 72
   352
 73
  -353
  0
VERTEX
  8
RK-LAVAT
 10
0.0
 20
0.0
 30
0.0
 70
   128
 71
   326
 72
  -325
 73
   354
  0
VERTEX
  8
RK-LAVAT
 10
0.0
 20
0.0
 30
0.0
 70
   128
 71
   325
 72
   353
 73
  -354
  0
VERTEX
  8
RK-LAVAT
 10
0.0
 20
0.0
 30
0.0
 70
   128
 71
   327
 72
  -326
 73
   355
  0
VERTEX
  8
RK-LAVAT
 10
0.0
 20
0.0
 30
0.0
 70
   128
 71
   326
 72
   354
 73
  -355
  0
VERTEX
  8
RK-LAVAT
 10
0.0
 20
0.0
 30
0.0
 70
   128
 71
   328
 72
  -327
 73
   356
  0
VERTEX
  8
RK-LAVAT
 10
0.0
 20
0.0
 30
0.0
 70
   128
 71
   327
 72
   355
 73
  -356
  0
VERTEX
  8
RK-LAVAT
 10
0.0
 20
0.0
 30
0.0
 70
   128
 71
   329
 72
  -328
 73
   357
  0
VERTEX
  8
RK-LAVAT
 10
0.0
 20
0.0
 30
0.0
 70
   128
 71
   328
 72
   356
 73
  -357
  0
VERTEX
  8
RK-LAVAT
 10
0.0
 20
0.0
 30
0.0
 70
   128
 71
   330
 72
  -329
 73
   358
  0
VERTEX
  8
RK-LAVAT
 10
0.0
 20
0.0
 30
0.0
 70
   128
 71
   329
 72
   357
 73
  -358
  0
VERTEX
  8
RK-LAVAT
 10
0.0
 20
0.0
 30
0.0
 70
   128
 71
   331
 72
  -330
 73
   359
  0
VERTEX
  8
RK-LAVAT
 10
0.0
 20
0.0
 30
0.0
 70
   128
 71
   330
 72
   358
 73
  -359
  0
VERTEX
  8
RK-LAVAT
 10
0.0
 20
0.0
 30
0.0
 70
   128
 71
   332
 72
  -331
 73
   360
  0
VERTEX
  8
RK-LAVAT
 10
0.0
 20
0.0
 30
0.0
 70
   128
 71
   331
 72
   359
 73
  -360
  0
VERTEX
  8
RK-LAVAT
 10
0.0
 20
0.0
 30
0.0
 70
   128
 71
   333
 72
  -332
 73
   361
  0
VERTEX
  8
RK-LAVAT
 10
0.0
 20
0.0
 30
0.0
 70
   128
 71
   332
 72
   360
 73
  -361
  0
VERTEX
  8
RK-LAVAT
 10
0.0
 20
0.0
 30
0.0
 70
   128
 71
   334
 72
  -333
 73
   362
  0
VERTEX
  8
RK-LAVAT
 10
0.0
 20
0.0
 30
0.0
 70
   128
 71
   333
 72
   361
 73
  -362
  0
VERTEX
  8
RK-LAVAT
 10
0.0
 20
0.0
 30
0.0
 70
   128
 71
   335
 72
  -334
 73
   363
  0
VERTEX
  8
RK-LAVAT
 10
0.0
 20
0.0
 30
0.0
 70
   128
 71
   334
 72
   362
 73
  -363
  0
VERTEX
  8
RK-LAVAT
 10
0.0
 20
0.0
 30
0.0
 70
   128
 71
   336
 72
  -335
 73
   364
  0
VERTEX
  8
RK-LAVAT
 10
0.0
 20
0.0
 30
0.0
 70
   128
 71
   335
 72
   363
 73
  -364
  0
VERTEX
  8
RK-LAVAT
 10
0.0
 20
0.0
 30
0.0
 70
   128
 71
   310
 72
  -336
 73
   338
  0
VERTEX
  8
RK-LAVAT
 10
0.0
 20
0.0
 30
0.0
 70
   128
 71
   336
 72
   364
 73
  -338
  0
VERTEX
  8
RK-LAVAT
 10
0.0
 20
0.0
 30
0.0
 70
   128
 71
   337
 72
  -338
 73
   365
  0
VERTEX
  8
RK-LAVAT
 10
0.0
 20
0.0
 30
0.0
 70
   128
 71
   338
 72
   366
 73
  -365
  0
VERTEX
  8
RK-LAVAT
 10
0.0
 20
0.0
 30
0.0
 70
   128
 71
   339
 72
  -337
 73
   367
  0
VERTEX
  8
RK-LAVAT
 10
0.0
 20
0.0
 30
0.0
 70
   128
 71
   337
 72
   365
 73
  -367
  0
VERTEX
  8
RK-LAVAT
 10
0.0
 20
0.0
 30
0.0
 70
   128
 71
   340
 72
  -339
 73
   368
  0
VERTEX
  8
RK-LAVAT
 10
0.0
 20
0.0
 30
0.0
 70
   128
 71
   339
 72
   367
 73
  -368
  0
VERTEX
  8
RK-LAVAT
 10
0.0
 20
0.0
 30
0.0
 70
   128
 71
   341
 72
  -340
 73
   369
  0
VERTEX
  8
RK-LAVAT
 10
0.0
 20
0.0
 30
0.0
 70
   128
 71
   340
 72
   368
 73
  -369
  0
VERTEX
  8
RK-LAVAT
 10
0.0
 20
0.0
 30
0.0
 70
   128
 71
   342
 72
  -341
 73
   370
  0
VERTEX
  8
RK-LAVAT
 10
0.0
 20
0.0
 30
0.0
 70
   128
 71
   341
 72
   369
 73
  -370
  0
VERTEX
  8
RK-LAVAT
 10
0.0
 20
0.0
 30
0.0
 70
   128
 71
   343
 72
  -342
 73
   371
  0
VERTEX
  8
RK-LAVAT
 10
0.0
 20
0.0
 30
0.0
 70
   128
 71
   342
 72
   370
 73
  -371
  0
VERTEX
  8
RK-LAVAT
 10
0.0
 20
0.0
 30
0.0
 70
   128
 71
   344
 72
  -343
 73
   372
  0
VERTEX
  8
RK-LAVAT
 10
0.0
 20
0.0
 30
0.0
 70
   128
 71
   343
 72
   371
 73
  -372
  0
VERTEX
  8
RK-LAVAT
 10
0.0
 20
0.0
 30
0.0
 70
   128
 71
   345
 72
  -344
 73
   373
  0
VERTEX
  8
RK-LAVAT
 10
0.0
 20
0.0
 30
0.0
 70
   128
 71
   344
 72
   372
 73
  -373
  0
VERTEX
  8
RK-LAVAT
 10
0.0
 20
0.0
 30
0.0
 70
   128
 71
   346
 72
  -345
 73
   374
  0
VERTEX
  8
RK-LAVAT
 10
0.0
 20
0.0
 30
0.0
 70
   128
 71
   345
 72
   373
 73
  -374
  0
VERTEX
  8
RK-LAVAT
 10
0.0
 20
0.0
 30
0.0
 70
   128
 71
   347
 72
  -346
 73
   375
  0
VERTEX
  8
RK-LAVAT
 10
0.0
 20
0.0
 30
0.0
 70
   128
 71
   346
 72
   374
 73
  -375
  0
VERTEX
  8
RK-LAVAT
 10
0.0
 20
0.0
 30
0.0
 70
   128
 71
   348
 72
  -347
 73
   376
  0
VERTEX
  8
RK-LAVAT
 10
0.0
 20
0.0
 30
0.0
 70
   128
 71
   347
 72
   375
 73
  -376
  0
VERTEX
  8
RK-LAVAT
 10
0.0
 20
0.0
 30
0.0
 70
   128
 71
   349
 72
  -348
 73
   377
  0
VERTEX
  8
RK-LAVAT
 10
0.0
 20
0.0
 30
0.0
 70
   128
 71
   348
 72
   376
 73
  -377
  0
VERTEX
  8
RK-LAVAT
 10
0.0
 20
0.0
 30
0.0
 70
   128
 71
   350
 72
  -349
 73
   378
  0
VERTEX
  8
RK-LAVAT
 10
0.0
 20
0.0
 30
0.0
 70
   128
 71
   349
 72
   377
 73
  -378
  0
VERTEX
  8
RK-LAVAT
 10
0.0
 20
0.0
 30
0.0
 70
   128
 71
   351
 72
  -350
 73
   379
  0
VERTEX
  8
RK-LAVAT
 10
0.0
 20
0.0
 30
0.0
 70
   128
 71
   350
 72
   378
 73
  -379
  0
VERTEX
  8
RK-LAVAT
 10
0.0
 20
0.0
 30
0.0
 70
   128
 71
   352
 72
  -351
 73
   380
  0
VERTEX
  8
RK-LAVAT
 10
0.0
 20
0.0
 30
0.0
 70
   128
 71
   351
 72
   379
 73
  -380
  0
VERTEX
  8
RK-LAVAT
 10
0.0
 20
0.0
 30
0.0
 70
   128
 71
   353
 72
  -352
 73
   381
  0
VERTEX
  8
RK-LAVAT
 10
0.0
 20
0.0
 30
0.0
 70
   128
 71
   352
 72
   380
 73
  -381
  0
VERTEX
  8
RK-LAVAT
 10
0.0
 20
0.0
 30
0.0
 70
   128
 71
   354
 72
  -353
 73
   382
  0
VERTEX
  8
RK-LAVAT
 10
0.0
 20
0.0
 30
0.0
 70
   128
 71
   353
 72
   381
 73
  -382
  0
VERTEX
  8
RK-LAVAT
 10
0.0
 20
0.0
 30
0.0
 70
   128
 71
   355
 72
  -354
 73
   383
  0
VERTEX
  8
RK-LAVAT
 10
0.0
 20
0.0
 30
0.0
 70
   128
 71
   354
 72
   382
 73
  -383
  0
VERTEX
  8
RK-LAVAT
 10
0.0
 20
0.0
 30
0.0
 70
   128
 71
   356
 72
  -355
 73
   384
  0
VERTEX
  8
RK-LAVAT
 10
0.0
 20
0.0
 30
0.0
 70
   128
 71
   355
 72
   383
 73
  -384
  0
VERTEX
  8
RK-LAVAT
 10
0.0
 20
0.0
 30
0.0
 70
   128
 71
   357
 72
  -356
 73
   385
  0
VERTEX
  8
RK-LAVAT
 10
0.0
 20
0.0
 30
0.0
 70
   128
 71
   356
 72
   384
 73
  -385
  0
VERTEX
  8
RK-LAVAT
 10
0.0
 20
0.0
 30
0.0
 70
   128
 71
   358
 72
  -357
 73
   386
  0
VERTEX
  8
RK-LAVAT
 10
0.0
 20
0.0
 30
0.0
 70
   128
 71
   357
 72
   385
 73
  -386
  0
VERTEX
  8
RK-LAVAT
 10
0.0
 20
0.0
 30
0.0
 70
   128
 71
   359
 72
  -358
 73
   387
  0
VERTEX
  8
RK-LAVAT
 10
0.0
 20
0.0
 30
0.0
 70
   128
 71
   358
 72
   386
 73
  -387
  0
VERTEX
  8
RK-LAVAT
 10
0.0
 20
0.0
 30
0.0
 70
   128
 71
   360
 72
  -359
 73
   388
  0
VERTEX
  8
RK-LAVAT
 10
0.0
 20
0.0
 30
0.0
 70
   128
 71
   359
 72
   387
 73
  -388
  0
VERTEX
  8
RK-LAVAT
 10
0.0
 20
0.0
 30
0.0
 70
   128
 71
   361
 72
  -360
 73
   389
  0
VERTEX
  8
RK-LAVAT
 10
0.0
 20
0.0
 30
0.0
 70
   128
 71
   360
 72
   388
 73
  -389
  0
VERTEX
  8
RK-LAVAT
 10
0.0
 20
0.0
 30
0.0
 70
   128
 71
   362
 72
  -361
 73
   390
  0
VERTEX
  8
RK-LAVAT
 10
0.0
 20
0.0
 30
0.0
 70
   128
 71
   361
 72
   389
 73
  -390
  0
VERTEX
  8
RK-LAVAT
 10
0.0
 20
0.0
 30
0.0
 70
   128
 71
   363
 72
  -362
 73
   391
  0
VERTEX
  8
RK-LAVAT
 10
0.0
 20
0.0
 30
0.0
 70
   128
 71
   362
 72
   390
 73
  -391
  0
VERTEX
  8
RK-LAVAT
 10
0.0
 20
0.0
 30
0.0
 70
   128
 71
   364
 72
  -363
 73
   392
  0
VERTEX
  8
RK-LAVAT
 10
0.0
 20
0.0
 30
0.0
 70
   128
 71
   363
 72
   391
 73
  -392
  0
VERTEX
  8
RK-LAVAT
 10
0.0
 20
0.0
 30
0.0
 70
   128
 71
   338
 72
  -364
 73
   366
  0
VERTEX
  8
RK-LAVAT
 10
0.0
 20
0.0
 30
0.0
 70
   128
 71
   364
 72
   392
 73
  -366
  0
VERTEX
  8
RK-LAVAT
 10
0.0
 20
0.0
 30
0.0
 70
   128
 71
   365
 72
  -366
 73
   393
  0
VERTEX
  8
RK-LAVAT
 10
0.0
 20
0.0
 30
0.0
 70
   128
 71
   366
 72
   394
 73
  -393
  0
VERTEX
  8
RK-LAVAT
 10
0.0
 20
0.0
 30
0.0
 70
   128
 71
   367
 72
  -365
 73
   395
  0
VERTEX
  8
RK-LAVAT
 10
0.0
 20
0.0
 30
0.0
 70
   128
 71
   365
 72
   393
 73
  -395
  0
VERTEX
  8
RK-LAVAT
 10
0.0
 20
0.0
 30
0.0
 70
   128
 71
   368
 72
  -367
 73
   396
  0
VERTEX
  8
RK-LAVAT
 10
0.0
 20
0.0
 30
0.0
 70
   128
 71
   367
 72
   395
 73
  -396
  0
VERTEX
  8
RK-LAVAT
 10
0.0
 20
0.0
 30
0.0
 70
   128
 71
   369
 72
  -368
 73
   397
  0
VERTEX
  8
RK-LAVAT
 10
0.0
 20
0.0
 30
0.0
 70
   128
 71
   368
 72
   396
 73
  -397
  0
VERTEX
  8
RK-LAVAT
 10
0.0
 20
0.0
 30
0.0
 70
   128
 71
   370
 72
  -369
 73
   398
  0
VERTEX
  8
RK-LAVAT
 10
0.0
 20
0.0
 30
0.0
 70
   128
 71
   369
 72
   397
 73
  -398
  0
VERTEX
  8
RK-LAVAT
 10
0.0
 20
0.0
 30
0.0
 70
   128
 71
   371
 72
  -370
 73
   399
  0
VERTEX
  8
RK-LAVAT
 10
0.0
 20
0.0
 30
0.0
 70
   128
 71
   370
 72
   398
 73
  -399
  0
VERTEX
  8
RK-LAVAT
 10
0.0
 20
0.0
 30
0.0
 70
   128
 71
   372
 72
  -371
 73
   400
  0
VERTEX
  8
RK-LAVAT
 10
0.0
 20
0.0
 30
0.0
 70
   128
 71
   371
 72
   399
 73
  -400
  0
VERTEX
  8
RK-LAVAT
 10
0.0
 20
0.0
 30
0.0
 70
   128
 71
   373
 72
  -372
 73
   401
  0
VERTEX
  8
RK-LAVAT
 10
0.0
 20
0.0
 30
0.0
 70
   128
 71
   372
 72
   400
 73
  -401
  0
VERTEX
  8
RK-LAVAT
 10
0.0
 20
0.0
 30
0.0
 70
   128
 71
   374
 72
  -373
 73
   402
  0
VERTEX
  8
RK-LAVAT
 10
0.0
 20
0.0
 30
0.0
 70
   128
 71
   373
 72
   401
 73
  -402
  0
VERTEX
  8
RK-LAVAT
 10
0.0
 20
0.0
 30
0.0
 70
   128
 71
   375
 72
  -374
 73
   403
  0
VERTEX
  8
RK-LAVAT
 10
0.0
 20
0.0
 30
0.0
 70
   128
 71
   374
 72
   402
 73
  -403
  0
VERTEX
  8
RK-LAVAT
 10
0.0
 20
0.0
 30
0.0
 70
   128
 71
   376
 72
  -375
 73
   404
  0
VERTEX
  8
RK-LAVAT
 10
0.0
 20
0.0
 30
0.0
 70
   128
 71
   375
 72
   403
 73
  -404
  0
VERTEX
  8
RK-LAVAT
 10
0.0
 20
0.0
 30
0.0
 70
   128
 71
   377
 72
  -376
 73
   405
  0
VERTEX
  8
RK-LAVAT
 10
0.0
 20
0.0
 30
0.0
 70
   128
 71
   376
 72
   404
 73
  -405
  0
VERTEX
  8
RK-LAVAT
 10
0.0
 20
0.0
 30
0.0
 70
   128
 71
   378
 72
  -377
 73
   406
  0
VERTEX
  8
RK-LAVAT
 10
0.0
 20
0.0
 30
0.0
 70
   128
 71
   377
 72
   405
 73
  -406
  0
VERTEX
  8
RK-LAVAT
 10
0.0
 20
0.0
 30
0.0
 70
   128
 71
   379
 72
  -378
 73
   407
  0
VERTEX
  8
RK-LAVAT
 10
0.0
 20
0.0
 30
0.0
 70
   128
 71
   378
 72
   406
 73
  -407
  0
VERTEX
  8
RK-LAVAT
 10
0.0
 20
0.0
 30
0.0
 70
   128
 71
   380
 72
  -379
 73
   408
  0
VERTEX
  8
RK-LAVAT
 10
0.0
 20
0.0
 30
0.0
 70
   128
 71
   379
 72
   407
 73
  -408
  0
VERTEX
  8
RK-LAVAT
 10
0.0
 20
0.0
 30
0.0
 70
   128
 71
   381
 72
  -380
 73
   409
  0
VERTEX
  8
RK-LAVAT
 10
0.0
 20
0.0
 30
0.0
 70
   128
 71
   380
 72
   408
 73
  -409
  0
VERTEX
  8
RK-LAVAT
 10
0.0
 20
0.0
 30
0.0
 70
   128
 71
   382
 72
  -381
 73
   410
  0
VERTEX
  8
RK-LAVAT
 10
0.0
 20
0.0
 30
0.0
 70
   128
 71
   381
 72
   409
 73
  -410
  0
VERTEX
  8
RK-LAVAT
 10
0.0
 20
0.0
 30
0.0
 70
   128
 71
   383
 72
  -382
 73
   411
  0
VERTEX
  8
RK-LAVAT
 10
0.0
 20
0.0
 30
0.0
 70
   128
 71
   382
 72
   410
 73
  -411
  0
VERTEX
  8
RK-LAVAT
 10
0.0
 20
0.0
 30
0.0
 70
   128
 71
   384
 72
  -383
 73
   412
  0
VERTEX
  8
RK-LAVAT
 10
0.0
 20
0.0
 30
0.0
 70
   128
 71
   383
 72
   411
 73
  -412
  0
VERTEX
  8
RK-LAVAT
 10
0.0
 20
0.0
 30
0.0
 70
   128
 71
   385
 72
  -384
 73
   413
  0
VERTEX
  8
RK-LAVAT
 10
0.0
 20
0.0
 30
0.0
 70
   128
 71
   384
 72
   412
 73
  -413
  0
VERTEX
  8
RK-LAVAT
 10
0.0
 20
0.0
 30
0.0
 70
   128
 71
   386
 72
  -385
 73
   414
  0
VERTEX
  8
RK-LAVAT
 10
0.0
 20
0.0
 30
0.0
 70
   128
 71
   385
 72
   413
 73
  -414
  0
VERTEX
  8
RK-LAVAT
 10
0.0
 20
0.0
 30
0.0
 70
   128
 71
   387
 72
  -386
 73
   415
  0
VERTEX
  8
RK-LAVAT
 10
0.0
 20
0.0
 30
0.0
 70
   128
 71
   386
 72
   414
 73
  -415
  0
VERTEX
  8
RK-LAVAT
 10
0.0
 20
0.0
 30
0.0
 70
   128
 71
   388
 72
  -387
 73
   416
  0
VERTEX
  8
RK-LAVAT
 10
0.0
 20
0.0
 30
0.0
 70
   128
 71
   387
 72
   415
 73
  -416
  0
VERTEX
  8
RK-LAVAT
 10
0.0
 20
0.0
 30
0.0
 70
   128
 71
   389
 72
  -388
 73
   417
  0
VERTEX
  8
RK-LAVAT
 10
0.0
 20
0.0
 30
0.0
 70
   128
 71
   388
 72
   416
 73
  -417
  0
VERTEX
  8
RK-LAVAT
 10
0.0
 20
0.0
 30
0.0
 70
   128
 71
   390
 72
  -389
 73
   418
  0
VERTEX
  8
RK-LAVAT
 10
0.0
 20
0.0
 30
0.0
 70
   128
 71
   389
 72
   417
 73
  -418
  0
VERTEX
  8
RK-LAVAT
 10
0.0
 20
0.0
 30
0.0
 70
   128
 71
   391
 72
  -390
 73
   419
  0
VERTEX
  8
RK-LAVAT
 10
0.0
 20
0.0
 30
0.0
 70
   128
 71
   390
 72
   418
 73
  -419
  0
VERTEX
  8
RK-LAVAT
 10
0.0
 20
0.0
 30
0.0
 70
   128
 71
   392
 72
  -391
 73
   420
  0
VERTEX
  8
RK-LAVAT
 10
0.0
 20
0.0
 30
0.0
 70
   128
 71
   391
 72
   419
 73
  -420
  0
VERTEX
  8
RK-LAVAT
 10
0.0
 20
0.0
 30
0.0
 70
   128
 71
   366
 72
  -392
 73
   394
  0
VERTEX
  8
RK-LAVAT
 10
0.0
 20
0.0
 30
0.0
 70
   128
 71
   392
 72
   420
 73
  -394
  0
VERTEX
  8
RK-LAVAT
 10
0.0
 20
0.0
 30
0.0
 70
   128
 71
   393
 72
  -394
 73
   421
  0
VERTEX
  8
RK-LAVAT
 10
0.0
 20
0.0
 30
0.0
 70
   128
 71
   394
 72
   422
 73
  -421
  0
VERTEX
  8
RK-LAVAT
 10
0.0
 20
0.0
 30
0.0
 70
   128
 71
   395
 72
  -393
 73
   423
  0
VERTEX
  8
RK-LAVAT
 10
0.0
 20
0.0
 30
0.0
 70
   128
 71
   393
 72
   421
 73
  -423
  0
VERTEX
  8
RK-LAVAT
 10
0.0
 20
0.0
 30
0.0
 70
   128
 71
   396
 72
  -395
 73
   424
  0
VERTEX
  8
RK-LAVAT
 10
0.0
 20
0.0
 30
0.0
 70
   128
 71
   395
 72
   423
 73
  -424
  0
VERTEX
  8
RK-LAVAT
 10
0.0
 20
0.0
 30
0.0
 70
   128
 71
   397
 72
  -396
 73
   425
  0
VERTEX
  8
RK-LAVAT
 10
0.0
 20
0.0
 30
0.0
 70
   128
 71
   396
 72
   424
 73
  -425
  0
VERTEX
  8
RK-LAVAT
 10
0.0
 20
0.0
 30
0.0
 70
   128
 71
   398
 72
  -397
 73
   426
  0
VERTEX
  8
RK-LAVAT
 10
0.0
 20
0.0
 30
0.0
 70
   128
 71
   397
 72
   425
 73
  -426
  0
VERTEX
  8
RK-LAVAT
 10
0.0
 20
0.0
 30
0.0
 70
   128
 71
   399
 72
  -398
 73
   427
  0
VERTEX
  8
RK-LAVAT
 10
0.0
 20
0.0
 30
0.0
 70
   128
 71
   398
 72
   426
 73
  -427
  0
VERTEX
  8
RK-LAVAT
 10
0.0
 20
0.0
 30
0.0
 70
   128
 71
   400
 72
  -399
 73
   428
  0
VERTEX
  8
RK-LAVAT
 10
0.0
 20
0.0
 30
0.0
 70
   128
 71
   399
 72
   427
 73
  -428
  0
VERTEX
  8
RK-LAVAT
 10
0.0
 20
0.0
 30
0.0
 70
   128
 71
   401
 72
  -400
 73
   429
  0
VERTEX
  8
RK-LAVAT
 10
0.0
 20
0.0
 30
0.0
 70
   128
 71
   400
 72
   428
 73
  -429
  0
VERTEX
  8
RK-LAVAT
 10
0.0
 20
0.0
 30
0.0
 70
   128
 71
   402
 72
  -401
 73
   430
  0
VERTEX
  8
RK-LAVAT
 10
0.0
 20
0.0
 30
0.0
 70
   128
 71
   401
 72
   429
 73
  -430
  0
VERTEX
  8
RK-LAVAT
 10
0.0
 20
0.0
 30
0.0
 70
   128
 71
   403
 72
  -402
 73
   431
  0
VERTEX
  8
RK-LAVAT
 10
0.0
 20
0.0
 30
0.0
 70
   128
 71
   402
 72
   430
 73
  -431
  0
VERTEX
  8
RK-LAVAT
 10
0.0
 20
0.0
 30
0.0
 70
   128
 71
   404
 72
  -403
 73
   432
  0
VERTEX
  8
RK-LAVAT
 10
0.0
 20
0.0
 30
0.0
 70
   128
 71
   403
 72
   431
 73
  -432
  0
VERTEX
  8
RK-LAVAT
 10
0.0
 20
0.0
 30
0.0
 70
   128
 71
   405
 72
  -404
 73
   433
  0
VERTEX
  8
RK-LAVAT
 10
0.0
 20
0.0
 30
0.0
 70
   128
 71
   404
 72
   432
 73
  -433
  0
VERTEX
  8
RK-LAVAT
 10
0.0
 20
0.0
 30
0.0
 70
   128
 71
   406
 72
  -405
 73
   434
  0
VERTEX
  8
RK-LAVAT
 10
0.0
 20
0.0
 30
0.0
 70
   128
 71
   405
 72
   433
 73
  -434
  0
VERTEX
  8
RK-LAVAT
 10
0.0
 20
0.0
 30
0.0
 70
   128
 71
   407
 72
  -406
 73
   435
  0
VERTEX
  8
RK-LAVAT
 10
0.0
 20
0.0
 30
0.0
 70
   128
 71
   406
 72
   434
 73
  -435
  0
VERTEX
  8
RK-LAVAT
 10
0.0
 20
0.0
 30
0.0
 70
   128
 71
   408
 72
  -407
 73
   436
  0
VERTEX
  8
RK-LAVAT
 10
0.0
 20
0.0
 30
0.0
 70
   128
 71
   407
 72
   435
 73
  -436
  0
VERTEX
  8
RK-LAVAT
 10
0.0
 20
0.0
 30
0.0
 70
   128
 71
   409
 72
  -408
 73
   437
  0
VERTEX
  8
RK-LAVAT
 10
0.0
 20
0.0
 30
0.0
 70
   128
 71
   408
 72
   436
 73
  -437
  0
VERTEX
  8
RK-LAVAT
 10
0.0
 20
0.0
 30
0.0
 70
   128
 71
   410
 72
  -409
 73
   438
  0
VERTEX
  8
RK-LAVAT
 10
0.0
 20
0.0
 30
0.0
 70
   128
 71
   409
 72
   437
 73
  -438
  0
VERTEX
  8
RK-LAVAT
 10
0.0
 20
0.0
 30
0.0
 70
   128
 71
   411
 72
  -410
 73
   439
  0
VERTEX
  8
RK-LAVAT
 10
0.0
 20
0.0
 30
0.0
 70
   128
 71
   410
 72
   438
 73
  -439
  0
VERTEX
  8
RK-LAVAT
 10
0.0
 20
0.0
 30
0.0
 70
   128
 71
   412
 72
  -411
 73
   440
  0
VERTEX
  8
RK-LAVAT
 10
0.0
 20
0.0
 30
0.0
 70
   128
 71
   411
 72
   439
 73
  -440
  0
VERTEX
  8
RK-LAVAT
 10
0.0
 20
0.0
 30
0.0
 70
   128
 71
   413
 72
  -412
 73
   441
  0
VERTEX
  8
RK-LAVAT
 10
0.0
 20
0.0
 30
0.0
 70
   128
 71
   412
 72
   440
 73
  -441
  0
VERTEX
  8
RK-LAVAT
 10
0.0
 20
0.0
 30
0.0
 70
   128
 71
   414
 72
  -413
 73
   442
  0
VERTEX
  8
RK-LAVAT
 10
0.0
 20
0.0
 30
0.0
 70
   128
 71
   413
 72
   441
 73
  -442
  0
VERTEX
  8
RK-LAVAT
 10
0.0
 20
0.0
 30
0.0
 70
   128
 71
   415
 72
  -414
 73
   443
  0
VERTEX
  8
RK-LAVAT
 10
0.0
 20
0.0
 30
0.0
 70
   128
 71
   414
 72
   442
 73
  -443
  0
VERTEX
  8
RK-LAVAT
 10
0.0
 20
0.0
 30
0.0
 70
   128
 71
   416
 72
  -415
 73
   444
  0
VERTEX
  8
RK-LAVAT
 10
0.0
 20
0.0
 30
0.0
 70
   128
 71
   415
 72
   443
 73
  -444
  0
VERTEX
  8
RK-LAVAT
 10
0.0
 20
0.0
 30
0.0
 70
   128
 71
   417
 72
  -416
 73
   445
  0
VERTEX
  8
RK-LAVAT
 10
0.0
 20
0.0
 30
0.0
 70
   128
 71
   416
 72
   444
 73
  -445
  0
VERTEX
  8
RK-LAVAT
 10
0.0
 20
0.0
 30
0.0
 70
   128
 71
   418
 72
  -417
 73
   446
  0
VERTEX
  8
RK-LAVAT
 10
0.0
 20
0.0
 30
0.0
 70
   128
 71
   417
 72
   445
 73
  -446
  0
VERTEX
  8
RK-LAVAT
 10
0.0
 20
0.0
 30
0.0
 70
   128
 71
   419
 72
  -418
 73
   447
  0
VERTEX
  8
RK-LAVAT
 10
0.0
 20
0.0
 30
0.0
 70
   128
 71
   418
 72
   446
 73
  -447
  0
VERTEX
  8
RK-LAVAT
 10
0.0
 20
0.0
 30
0.0
 70
   128
 71
   420
 72
  -419
 73
   448
  0
VERTEX
  8
RK-LAVAT
 10
0.0
 20
0.0
 30
0.0
 70
   128
 71
   419
 72
   447
 73
  -448
  0
VERTEX
  8
RK-LAVAT
 10
0.0
 20
0.0
 30
0.0
 70
   128
 71
   394
 72
  -420
 73
   422
  0
VERTEX
  8
RK-LAVAT
 10
0.0
 20
0.0
 30
0.0
 70
   128
 71
   420
 72
   448
 73
  -422
  0
VERTEX
  8
RK-LAVAT
 10
0.0
 20
0.0
 30
0.0
 70
   128
 71
   421
 72
  -422
 73
   449
  0
VERTEX
  8
RK-LAVAT
 10
0.0
 20
0.0
 30
0.0
 70
   128
 71
   422
 72
   450
 73
  -449
  0
VERTEX
  8
RK-LAVAT
 10
0.0
 20
0.0
 30
0.0
 70
   128
 71
   423
 72
  -421
 73
   451
  0
VERTEX
  8
RK-LAVAT
 10
0.0
 20
0.0
 30
0.0
 70
   128
 71
   421
 72
   449
 73
  -451
  0
VERTEX
  8
RK-LAVAT
 10
0.0
 20
0.0
 30
0.0
 70
   128
 71
   424
 72
  -423
 73
   452
  0
VERTEX
  8
RK-LAVAT
 10
0.0
 20
0.0
 30
0.0
 70
   128
 71
   423
 72
   451
 73
  -452
  0
VERTEX
  8
RK-LAVAT
 10
0.0
 20
0.0
 30
0.0
 70
   128
 71
   425
 72
  -424
 73
   453
  0
VERTEX
  8
RK-LAVAT
 10
0.0
 20
0.0
 30
0.0
 70
   128
 71
   424
 72
   452
 73
  -453
  0
VERTEX
  8
RK-LAVAT
 10
0.0
 20
0.0
 30
0.0
 70
   128
 71
   426
 72
  -425
 73
   454
  0
VERTEX
  8
RK-LAVAT
 10
0.0
 20
0.0
 30
0.0
 70
   128
 71
   425
 72
   453
 73
  -454
  0
VERTEX
  8
RK-LAVAT
 10
0.0
 20
0.0
 30
0.0
 70
   128
 71
   427
 72
  -426
 73
   455
  0
VERTEX
  8
RK-LAVAT
 10
0.0
 20
0.0
 30
0.0
 70
   128
 71
   426
 72
   454
 73
  -455
  0
VERTEX
  8
RK-LAVAT
 10
0.0
 20
0.0
 30
0.0
 70
   128
 71
   428
 72
  -427
 73
   456
  0
VERTEX
  8
RK-LAVAT
 10
0.0
 20
0.0
 30
0.0
 70
   128
 71
   427
 72
   455
 73
  -456
  0
VERTEX
  8
RK-LAVAT
 10
0.0
 20
0.0
 30
0.0
 70
   128
 71
   429
 72
  -428
 73
   457
  0
VERTEX
  8
RK-LAVAT
 10
0.0
 20
0.0
 30
0.0
 70
   128
 71
   428
 72
   456
 73
  -457
  0
VERTEX
  8
RK-LAVAT
 10
0.0
 20
0.0
 30
0.0
 70
   128
 71
   430
 72
  -429
 73
   458
  0
VERTEX
  8
RK-LAVAT
 10
0.0
 20
0.0
 30
0.0
 70
   128
 71
   429
 72
   457
 73
  -458
  0
VERTEX
  8
RK-LAVAT
 10
0.0
 20
0.0
 30
0.0
 70
   128
 71
   431
 72
  -430
 73
   459
  0
VERTEX
  8
RK-LAVAT
 10
0.0
 20
0.0
 30
0.0
 70
   128
 71
   430
 72
   458
 73
  -459
  0
VERTEX
  8
RK-LAVAT
 10
0.0
 20
0.0
 30
0.0
 70
   128
 71
   432
 72
  -431
 73
   460
  0
VERTEX
  8
RK-LAVAT
 10
0.0
 20
0.0
 30
0.0
 70
   128
 71
   431
 72
   459
 73
  -460
  0
VERTEX
  8
RK-LAVAT
 10
0.0
 20
0.0
 30
0.0
 70
   128
 71
   433
 72
  -432
 73
   461
  0
VERTEX
  8
RK-LAVAT
 10
0.0
 20
0.0
 30
0.0
 70
   128
 71
   432
 72
   460
 73
  -461
  0
VERTEX
  8
RK-LAVAT
 10
0.0
 20
0.0
 30
0.0
 70
   128
 71
   434
 72
  -433
 73
   462
  0
VERTEX
  8
RK-LAVAT
 10
0.0
 20
0.0
 30
0.0
 70
   128
 71
   433
 72
   461
 73
  -462
  0
VERTEX
  8
RK-LAVAT
 10
0.0
 20
0.0
 30
0.0
 70
   128
 71
   435
 72
  -434
 73
   463
  0
VERTEX
  8
RK-LAVAT
 10
0.0
 20
0.0
 30
0.0
 70
   128
 71
   434
 72
   462
 73
  -463
  0
VERTEX
  8
RK-LAVAT
 10
0.0
 20
0.0
 30
0.0
 70
   128
 71
   436
 72
  -435
 73
   464
  0
VERTEX
  8
RK-LAVAT
 10
0.0
 20
0.0
 30
0.0
 70
   128
 71
   435
 72
   463
 73
  -464
  0
VERTEX
  8
RK-LAVAT
 10
0.0
 20
0.0
 30
0.0
 70
   128
 71
   437
 72
  -436
 73
   465
  0
VERTEX
  8
RK-LAVAT
 10
0.0
 20
0.0
 30
0.0
 70
   128
 71
   436
 72
   464
 73
  -465
  0
VERTEX
  8
RK-LAVAT
 10
0.0
 20
0.0
 30
0.0
 70
   128
 71
   438
 72
  -437
 73
   466
  0
VERTEX
  8
RK-LAVAT
 10
0.0
 20
0.0
 30
0.0
 70
   128
 71
   437
 72
   465
 73
  -466
  0
VERTEX
  8
RK-LAVAT
 10
0.0
 20
0.0
 30
0.0
 70
   128
 71
   439
 72
  -438
 73
   467
  0
VERTEX
  8
RK-LAVAT
 10
0.0
 20
0.0
 30
0.0
 70
   128
 71
   438
 72
   466
 73
  -467
  0
VERTEX
  8
RK-LAVAT
 10
0.0
 20
0.0
 30
0.0
 70
   128
 71
   440
 72
  -439
 73
   468
  0
VERTEX
  8
RK-LAVAT
 10
0.0
 20
0.0
 30
0.0
 70
   128
 71
   439
 72
   467
 73
  -468
  0
VERTEX
  8
RK-LAVAT
 10
0.0
 20
0.0
 30
0.0
 70
   128
 71
   441
 72
  -440
 73
   469
  0
VERTEX
  8
RK-LAVAT
 10
0.0
 20
0.0
 30
0.0
 70
   128
 71
   440
 72
   468
 73
  -469
  0
VERTEX
  8
RK-LAVAT
 10
0.0
 20
0.0
 30
0.0
 70
   128
 71
   442
 72
  -441
 73
   470
  0
VERTEX
  8
RK-LAVAT
 10
0.0
 20
0.0
 30
0.0
 70
   128
 71
   441
 72
   469
 73
  -470
  0
VERTEX
  8
RK-LAVAT
 10
0.0
 20
0.0
 30
0.0
 70
   128
 71
   443
 72
  -442
 73
   471
  0
VERTEX
  8
RK-LAVAT
 10
0.0
 20
0.0
 30
0.0
 70
   128
 71
   442
 72
   470
 73
  -471
  0
VERTEX
  8
RK-LAVAT
 10
0.0
 20
0.0
 30
0.0
 70
   128
 71
   444
 72
  -443
 73
   472
  0
VERTEX
  8
RK-LAVAT
 10
0.0
 20
0.0
 30
0.0
 70
   128
 71
   443
 72
   471
 73
  -472
  0
VERTEX
  8
RK-LAVAT
 10
0.0
 20
0.0
 30
0.0
 70
   128
 71
   445
 72
  -444
 73
   473
  0
VERTEX
  8
RK-LAVAT
 10
0.0
 20
0.0
 30
0.0
 70
   128
 71
   444
 72
   472
 73
  -473
  0
VERTEX
  8
RK-LAVAT
 10
0.0
 20
0.0
 30
0.0
 70
   128
 71
   446
 72
  -445
 73
   474
  0
VERTEX
  8
RK-LAVAT
 10
0.0
 20
0.0
 30
0.0
 70
   128
 71
   445
 72
   473
 73
  -474
  0
VERTEX
  8
RK-LAVAT
 10
0.0
 20
0.0
 30
0.0
 70
   128
 71
   447
 72
  -446
 73
   475
  0
VERTEX
  8
RK-LAVAT
 10
0.0
 20
0.0
 30
0.0
 70
   128
 71
   446
 72
   474
 73
  -475
  0
VERTEX
  8
RK-LAVAT
 10
0.0
 20
0.0
 30
0.0
 70
   128
 71
   448
 72
  -447
 73
   476
  0
VERTEX
  8
RK-LAVAT
 10
0.0
 20
0.0
 30
0.0
 70
   128
 71
   447
 72
   475
 73
  -476
  0
VERTEX
  8
RK-LAVAT
 10
0.0
 20
0.0
 30
0.0
 70
   128
 71
   422
 72
  -448
 73
   450
  0
VERTEX
  8
RK-LAVAT
 10
0.0
 20
0.0
 30
0.0
 70
   128
 71
   448
 72
   476
 73
  -450
  0
VERTEX
  8
RK-LAVAT
 10
0.0
 20
0.0
 30
0.0
 70
   128
 71
   449
 72
  -450
 73
   477
  0
VERTEX
  8
RK-LAVAT
 10
0.0
 20
0.0
 30
0.0
 70
   128
 71
   450
 72
   478
 73
  -477
  0
VERTEX
  8
RK-LAVAT
 10
0.0
 20
0.0
 30
0.0
 70
   128
 71
   451
 72
  -449
 73
   479
  0
VERTEX
  8
RK-LAVAT
 10
0.0
 20
0.0
 30
0.0
 70
   128
 71
   449
 72
   477
 73
  -479
  0
VERTEX
  8
RK-LAVAT
 10
0.0
 20
0.0
 30
0.0
 70
   128
 71
   452
 72
  -451
 73
   480
  0
VERTEX
  8
RK-LAVAT
 10
0.0
 20
0.0
 30
0.0
 70
   128
 71
   451
 72
   479
 73
  -480
  0
VERTEX
  8
RK-LAVAT
 10
0.0
 20
0.0
 30
0.0
 70
   128
 71
   453
 72
  -452
 73
   481
  0
VERTEX
  8
RK-LAVAT
 10
0.0
 20
0.0
 30
0.0
 70
   128
 71
   452
 72
   480
 73
  -481
  0
VERTEX
  8
RK-LAVAT
 10
0.0
 20
0.0
 30
0.0
 70
   128
 71
   454
 72
  -453
 73
   482
  0
VERTEX
  8
RK-LAVAT
 10
0.0
 20
0.0
 30
0.0
 70
   128
 71
   453
 72
   481
 73
  -482
  0
VERTEX
  8
RK-LAVAT
 10
0.0
 20
0.0
 30
0.0
 70
   128
 71
   455
 72
  -454
 73
   483
  0
VERTEX
  8
RK-LAVAT
 10
0.0
 20
0.0
 30
0.0
 70
   128
 71
   454
 72
   482
 73
  -483
  0
VERTEX
  8
RK-LAVAT
 10
0.0
 20
0.0
 30
0.0
 70
   128
 71
   456
 72
  -455
 73
   484
  0
VERTEX
  8
RK-LAVAT
 10
0.0
 20
0.0
 30
0.0
 70
   128
 71
   455
 72
   483
 73
  -484
  0
VERTEX
  8
RK-LAVAT
 10
0.0
 20
0.0
 30
0.0
 70
   128
 71
   457
 72
  -456
 73
   485
  0
VERTEX
  8
RK-LAVAT
 10
0.0
 20
0.0
 30
0.0
 70
   128
 71
   456
 72
   484
 73
  -485
  0
VERTEX
  8
RK-LAVAT
 10
0.0
 20
0.0
 30
0.0
 70
   128
 71
   458
 72
  -457
 73
   486
  0
VERTEX
  8
RK-LAVAT
 10
0.0
 20
0.0
 30
0.0
 70
   128
 71
   457
 72
   485
 73
  -486
  0
VERTEX
  8
RK-LAVAT
 10
0.0
 20
0.0
 30
0.0
 70
   128
 71
   459
 72
  -458
 73
   487
  0
VERTEX
  8
RK-LAVAT
 10
0.0
 20
0.0
 30
0.0
 70
   128
 71
   458
 72
   486
 73
  -487
  0
VERTEX
  8
RK-LAVAT
 10
0.0
 20
0.0
 30
0.0
 70
   128
 71
   460
 72
  -459
 73
   488
  0
VERTEX
  8
RK-LAVAT
 10
0.0
 20
0.0
 30
0.0
 70
   128
 71
   459
 72
   487
 73
  -488
  0
VERTEX
  8
RK-LAVAT
 10
0.0
 20
0.0
 30
0.0
 70
   128
 71
   461
 72
  -460
 73
   489
  0
VERTEX
  8
RK-LAVAT
 10
0.0
 20
0.0
 30
0.0
 70
   128
 71
   460
 72
   488
 73
  -489
  0
VERTEX
  8
RK-LAVAT
 10
0.0
 20
0.0
 30
0.0
 70
   128
 71
   462
 72
  -461
 73
   490
  0
VERTEX
  8
RK-LAVAT
 10
0.0
 20
0.0
 30
0.0
 70
   128
 71
   461
 72
   489
 73
  -490
  0
VERTEX
  8
RK-LAVAT
 10
0.0
 20
0.0
 30
0.0
 70
   128
 71
   463
 72
  -462
 73
   491
  0
VERTEX
  8
RK-LAVAT
 10
0.0
 20
0.0
 30
0.0
 70
   128
 71
   462
 72
   490
 73
  -491
  0
VERTEX
  8
RK-LAVAT
 10
0.0
 20
0.0
 30
0.0
 70
   128
 71
   464
 72
  -463
 73
   492
  0
VERTEX
  8
RK-LAVAT
 10
0.0
 20
0.0
 30
0.0
 70
   128
 71
   463
 72
   491
 73
  -492
  0
VERTEX
  8
RK-LAVAT
 10
0.0
 20
0.0
 30
0.0
 70
   128
 71
   465
 72
  -464
 73
   493
  0
VERTEX
  8
RK-LAVAT
 10
0.0
 20
0.0
 30
0.0
 70
   128
 71
   464
 72
   492
 73
  -493
  0
VERTEX
  8
RK-LAVAT
 10
0.0
 20
0.0
 30
0.0
 70
   128
 71
   466
 72
  -465
 73
   494
  0
VERTEX
  8
RK-LAVAT
 10
0.0
 20
0.0
 30
0.0
 70
   128
 71
   465
 72
   493
 73
  -494
  0
VERTEX
  8
RK-LAVAT
 10
0.0
 20
0.0
 30
0.0
 70
   128
 71
   467
 72
  -466
 73
   495
  0
VERTEX
  8
RK-LAVAT
 10
0.0
 20
0.0
 30
0.0
 70
   128
 71
   466
 72
   494
 73
  -495
  0
VERTEX
  8
RK-LAVAT
 10
0.0
 20
0.0
 30
0.0
 70
   128
 71
   468
 72
  -467
 73
   496
  0
VERTEX
  8
RK-LAVAT
 10
0.0
 20
0.0
 30
0.0
 70
   128
 71
   467
 72
   495
 73
  -496
  0
VERTEX
  8
RK-LAVAT
 10
0.0
 20
0.0
 30
0.0
 70
   128
 71
   469
 72
  -468
 73
   497
  0
VERTEX
  8
RK-LAVAT
 10
0.0
 20
0.0
 30
0.0
 70
   128
 71
   468
 72
   496
 73
  -497
  0
VERTEX
  8
RK-LAVAT
 10
0.0
 20
0.0
 30
0.0
 70
   128
 71
   470
 72
  -469
 73
   498
  0
VERTEX
  8
RK-LAVAT
 10
0.0
 20
0.0
 30
0.0
 70
   128
 71
   469
 72
   497
 73
  -498
  0
VERTEX
  8
RK-LAVAT
 10
0.0
 20
0.0
 30
0.0
 70
   128
 71
   471
 72
  -470
 73
   499
  0
VERTEX
  8
RK-LAVAT
 10
0.0
 20
0.0
 30
0.0
 70
   128
 71
   470
 72
   498
 73
  -499
  0
VERTEX
  8
RK-LAVAT
 10
0.0
 20
0.0
 30
0.0
 70
   128
 71
   472
 72
  -471
 73
   500
  0
VERTEX
  8
RK-LAVAT
 10
0.0
 20
0.0
 30
0.0
 70
   128
 71
   471
 72
   499
 73
  -500
  0
VERTEX
  8
RK-LAVAT
 10
0.0
 20
0.0
 30
0.0
 70
   128
 71
   473
 72
  -472
 73
   501
  0
VERTEX
  8
RK-LAVAT
 10
0.0
 20
0.0
 30
0.0
 70
   128
 71
   472
 72
   500
 73
  -501
  0
VERTEX
  8
RK-LAVAT
 10
0.0
 20
0.0
 30
0.0
 70
   128
 71
   474
 72
  -473
 73
   502
  0
VERTEX
  8
RK-LAVAT
 10
0.0
 20
0.0
 30
0.0
 70
   128
 71
   473
 72
   501
 73
  -502
  0
VERTEX
  8
RK-LAVAT
 10
0.0
 20
0.0
 30
0.0
 70
   128
 71
   475
 72
  -474
 73
   503
  0
VERTEX
  8
RK-LAVAT
 10
0.0
 20
0.0
 30
0.0
 70
   128
 71
   474
 72
   502
 73
  -503
  0
VERTEX
  8
RK-LAVAT
 10
0.0
 20
0.0
 30
0.0
 70
   128
 71
   476
 72
  -475
 73
   504
  0
VERTEX
  8
RK-LAVAT
 10
0.0
 20
0.0
 30
0.0
 70
   128
 71
   475
 72
   503
 73
  -504
  0
VERTEX
  8
RK-LAVAT
 10
0.0
 20
0.0
 30
0.0
 70
   128
 71
   450
 72
  -476
 73
   478
  0
VERTEX
  8
RK-LAVAT
 10
0.0
 20
0.0
 30
0.0
 70
   128
 71
   476
 72
   504
 73
  -478
  0
VERTEX
  8
RK-LAVAT
 10
0.0
 20
0.0
 30
0.0
 70
   128
 71
   477
 72
  -478
 73
   505
  0
VERTEX
  8
RK-LAVAT
 10
0.0
 20
0.0
 30
0.0
 70
   128
 71
   478
 72
   506
 73
  -505
  0
VERTEX
  8
RK-LAVAT
 10
0.0
 20
0.0
 30
0.0
 70
   128
 71
   479
 72
  -477
 73
   507
  0
VERTEX
  8
RK-LAVAT
 10
0.0
 20
0.0
 30
0.0
 70
   128
 71
   477
 72
   505
 73
  -507
  0
VERTEX
  8
RK-LAVAT
 10
0.0
 20
0.0
 30
0.0
 70
   128
 71
   480
 72
  -479
 73
   508
  0
VERTEX
  8
RK-LAVAT
 10
0.0
 20
0.0
 30
0.0
 70
   128
 71
   479
 72
   507
 73
  -508
  0
VERTEX
  8
RK-LAVAT
 10
0.0
 20
0.0
 30
0.0
 70
   128
 71
   481
 72
  -480
 73
   509
  0
VERTEX
  8
RK-LAVAT
 10
0.0
 20
0.0
 30
0.0
 70
   128
 71
   480
 72
   508
 73
  -509
  0
VERTEX
  8
RK-LAVAT
 10
0.0
 20
0.0
 30
0.0
 70
   128
 71
   482
 72
  -481
 73
   510
  0
VERTEX
  8
RK-LAVAT
 10
0.0
 20
0.0
 30
0.0
 70
   128
 71
   481
 72
   509
 73
  -510
  0
VERTEX
  8
RK-LAVAT
 10
0.0
 20
0.0
 30
0.0
 70
   128
 71
   483
 72
  -482
 73
   511
  0
VERTEX
  8
RK-LAVAT
 10
0.0
 20
0.0
 30
0.0
 70
   128
 71
   482
 72
   510
 73
  -511
  0
VERTEX
  8
RK-LAVAT
 10
0.0
 20
0.0
 30
0.0
 70
   128
 71
   484
 72
  -483
 73
   512
  0
VERTEX
  8
RK-LAVAT
 10
0.0
 20
0.0
 30
0.0
 70
   128
 71
   483
 72
   511
 73
  -512
  0
VERTEX
  8
RK-LAVAT
 10
0.0
 20
0.0
 30
0.0
 70
   128
 71
   485
 72
  -484
 73
   513
  0
VERTEX
  8
RK-LAVAT
 10
0.0
 20
0.0
 30
0.0
 70
   128
 71
   484
 72
   512
 73
  -513
  0
VERTEX
  8
RK-LAVAT
 10
0.0
 20
0.0
 30
0.0
 70
   128
 71
   486
 72
  -485
 73
   514
  0
VERTEX
  8
RK-LAVAT
 10
0.0
 20
0.0
 30
0.0
 70
   128
 71
   485
 72
   513
 73
  -514
  0
VERTEX
  8
RK-LAVAT
 10
0.0
 20
0.0
 30
0.0
 70
   128
 71
   487
 72
  -486
 73
   515
  0
VERTEX
  8
RK-LAVAT
 10
0.0
 20
0.0
 30
0.0
 70
   128
 71
   486
 72
   514
 73
  -515
  0
VERTEX
  8
RK-LAVAT
 10
0.0
 20
0.0
 30
0.0
 70
   128
 71
   488
 72
  -487
 73
   516
  0
VERTEX
  8
RK-LAVAT
 10
0.0
 20
0.0
 30
0.0
 70
   128
 71
   487
 72
   515
 73
  -516
  0
VERTEX
  8
RK-LAVAT
 10
0.0
 20
0.0
 30
0.0
 70
   128
 71
   489
 72
  -488
 73
   517
  0
VERTEX
  8
RK-LAVAT
 10
0.0
 20
0.0
 30
0.0
 70
   128
 71
   488
 72
   516
 73
  -517
  0
VERTEX
  8
RK-LAVAT
 10
0.0
 20
0.0
 30
0.0
 70
   128
 71
   490
 72
  -489
 73
   518
  0
VERTEX
  8
RK-LAVAT
 10
0.0
 20
0.0
 30
0.0
 70
   128
 71
   489
 72
   517
 73
  -518
  0
VERTEX
  8
RK-LAVAT
 10
0.0
 20
0.0
 30
0.0
 70
   128
 71
   491
 72
  -490
 73
   519
  0
VERTEX
  8
RK-LAVAT
 10
0.0
 20
0.0
 30
0.0
 70
   128
 71
   490
 72
   518
 73
  -519
  0
VERTEX
  8
RK-LAVAT
 10
0.0
 20
0.0
 30
0.0
 70
   128
 71
   492
 72
  -491
 73
   520
  0
VERTEX
  8
RK-LAVAT
 10
0.0
 20
0.0
 30
0.0
 70
   128
 71
   491
 72
   519
 73
  -520
  0
VERTEX
  8
RK-LAVAT
 10
0.0
 20
0.0
 30
0.0
 70
   128
 71
   493
 72
  -492
 73
   521
  0
VERTEX
  8
RK-LAVAT
 10
0.0
 20
0.0
 30
0.0
 70
   128
 71
   492
 72
   520
 73
  -521
  0
VERTEX
  8
RK-LAVAT
 10
0.0
 20
0.0
 30
0.0
 70
   128
 71
   494
 72
  -493
 73
   522
  0
VERTEX
  8
RK-LAVAT
 10
0.0
 20
0.0
 30
0.0
 70
   128
 71
   493
 72
   521
 73
  -522
  0
VERTEX
  8
RK-LAVAT
 10
0.0
 20
0.0
 30
0.0
 70
   128
 71
   495
 72
  -494
 73
   523
  0
VERTEX
  8
RK-LAVAT
 10
0.0
 20
0.0
 30
0.0
 70
   128
 71
   494
 72
   522
 73
  -523
  0
VERTEX
  8
RK-LAVAT
 10
0.0
 20
0.0
 30
0.0
 70
   128
 71
   496
 72
  -495
 73
   524
  0
VERTEX
  8
RK-LAVAT
 10
0.0
 20
0.0
 30
0.0
 70
   128
 71
   495
 72
   523
 73
  -524
  0
VERTEX
  8
RK-LAVAT
 10
0.0
 20
0.0
 30
0.0
 70
   128
 71
   497
 72
  -496
 73
   525
  0
VERTEX
  8
RK-LAVAT
 10
0.0
 20
0.0
 30
0.0
 70
   128
 71
   496
 72
   524
 73
  -525
  0
VERTEX
  8
RK-LAVAT
 10
0.0
 20
0.0
 30
0.0
 70
   128
 71
   498
 72
  -497
 73
   526
  0
VERTEX
  8
RK-LAVAT
 10
0.0
 20
0.0
 30
0.0
 70
   128
 71
   497
 72
   525
 73
  -526
  0
VERTEX
  8
RK-LAVAT
 10
0.0
 20
0.0
 30
0.0
 70
   128
 71
   499
 72
  -498
 73
   527
  0
VERTEX
  8
RK-LAVAT
 10
0.0
 20
0.0
 30
0.0
 70
   128
 71
   498
 72
   526
 73
  -527
  0
VERTEX
  8
RK-LAVAT
 10
0.0
 20
0.0
 30
0.0
 70
   128
 71
   500
 72
  -499
 73
   528
  0
VERTEX
  8
RK-LAVAT
 10
0.0
 20
0.0
 30
0.0
 70
   128
 71
   499
 72
   527
 73
  -528
  0
VERTEX
  8
RK-LAVAT
 10
0.0
 20
0.0
 30
0.0
 70
   128
 71
   501
 72
  -500
 73
   529
  0
VERTEX
  8
RK-LAVAT
 10
0.0
 20
0.0
 30
0.0
 70
   128
 71
   500
 72
   528
 73
  -529
  0
VERTEX
  8
RK-LAVAT
 10
0.0
 20
0.0
 30
0.0
 70
   128
 71
   502
 72
  -501
 73
   530
  0
VERTEX
  8
RK-LAVAT
 10
0.0
 20
0.0
 30
0.0
 70
   128
 71
   501
 72
   529
 73
  -530
  0
VERTEX
  8
RK-LAVAT
 10
0.0
 20
0.0
 30
0.0
 70
   128
 71
   503
 72
  -502
 73
   531
  0
VERTEX
  8
RK-LAVAT
 10
0.0
 20
0.0
 30
0.0
 70
   128
 71
   502
 72
   530
 73
  -531
  0
VERTEX
  8
RK-LAVAT
 10
0.0
 20
0.0
 30
0.0
 70
   128
 71
   504
 72
  -503
 73
   532
  0
VERTEX
  8
RK-LAVAT
 10
0.0
 20
0.0
 30
0.0
 70
   128
 71
   503
 72
   531
 73
  -532
  0
VERTEX
  8
RK-LAVAT
 10
0.0
 20
0.0
 30
0.0
 70
   128
 71
   478
 72
  -504
 73
   506
  0
VERTEX
  8
RK-LAVAT
 10
0.0
 20
0.0
 30
0.0
 70
   128
 71
   504
 72
   532
 73
  -506
  0
VERTEX
  8
RK-LAVAT
 10
0.0
 20
0.0
 30
0.0
 70
   128
 71
   505
 72
  -506
 73
   533
  0
VERTEX
  8
RK-LAVAT
 10
0.0
 20
0.0
 30
0.0
 70
   128
 71
   506
 72
   534
 73
  -533
  0
VERTEX
  8
RK-LAVAT
 10
0.0
 20
0.0
 30
0.0
 70
   128
 71
   507
 72
  -505
 73
   535
  0
VERTEX
  8
RK-LAVAT
 10
0.0
 20
0.0
 30
0.0
 70
   128
 71
   505
 72
   533
 73
  -535
  0
VERTEX
  8
RK-LAVAT
 10
0.0
 20
0.0
 30
0.0
 70
   128
 71
   508
 72
  -507
 73
   536
  0
VERTEX
  8
RK-LAVAT
 10
0.0
 20
0.0
 30
0.0
 70
   128
 71
   507
 72
   535
 73
  -536
  0
VERTEX
  8
RK-LAVAT
 10
0.0
 20
0.0
 30
0.0
 70
   128
 71
   509
 72
  -508
 73
   537
  0
VERTEX
  8
RK-LAVAT
 10
0.0
 20
0.0
 30
0.0
 70
   128
 71
   508
 72
   536
 73
  -537
  0
VERTEX
  8
RK-LAVAT
 10
0.0
 20
0.0
 30
0.0
 70
   128
 71
   510
 72
  -509
 73
   538
  0
VERTEX
  8
RK-LAVAT
 10
0.0
 20
0.0
 30
0.0
 70
   128
 71
   509
 72
   537
 73
  -538
  0
VERTEX
  8
RK-LAVAT
 10
0.0
 20
0.0
 30
0.0
 70
   128
 71
   511
 72
  -510
 73
   539
  0
VERTEX
  8
RK-LAVAT
 10
0.0
 20
0.0
 30
0.0
 70
   128
 71
   510
 72
   538
 73
  -539
  0
VERTEX
  8
RK-LAVAT
 10
0.0
 20
0.0
 30
0.0
 70
   128
 71
   512
 72
  -511
 73
   540
  0
VERTEX
  8
RK-LAVAT
 10
0.0
 20
0.0
 30
0.0
 70
   128
 71
   511
 72
   539
 73
  -540
  0
VERTEX
  8
RK-LAVAT
 10
0.0
 20
0.0
 30
0.0
 70
   128
 71
   513
 72
  -512
 73
   541
  0
VERTEX
  8
RK-LAVAT
 10
0.0
 20
0.0
 30
0.0
 70
   128
 71
   512
 72
   540
 73
  -541
  0
VERTEX
  8
RK-LAVAT
 10
0.0
 20
0.0
 30
0.0
 70
   128
 71
   514
 72
  -513
 73
   542
  0
VERTEX
  8
RK-LAVAT
 10
0.0
 20
0.0
 30
0.0
 70
   128
 71
   513
 72
   541
 73
  -542
  0
VERTEX
  8
RK-LAVAT
 10
0.0
 20
0.0
 30
0.0
 70
   128
 71
   515
 72
  -514
 73
   543
  0
VERTEX
  8
RK-LAVAT
 10
0.0
 20
0.0
 30
0.0
 70
   128
 71
   514
 72
   542
 73
  -543
  0
VERTEX
  8
RK-LAVAT
 10
0.0
 20
0.0
 30
0.0
 70
   128
 71
   516
 72
  -515
 73
   544
  0
VERTEX
  8
RK-LAVAT
 10
0.0
 20
0.0
 30
0.0
 70
   128
 71
   515
 72
   543
 73
  -544
  0
VERTEX
  8
RK-LAVAT
 10
0.0
 20
0.0
 30
0.0
 70
   128
 71
   517
 72
  -516
 73
   545
  0
VERTEX
  8
RK-LAVAT
 10
0.0
 20
0.0
 30
0.0
 70
   128
 71
   516
 72
   544
 73
  -545
  0
VERTEX
  8
RK-LAVAT
 10
0.0
 20
0.0
 30
0.0
 70
   128
 71
   518
 72
  -517
 73
   546
  0
VERTEX
  8
RK-LAVAT
 10
0.0
 20
0.0
 30
0.0
 70
   128
 71
   517
 72
   545
 73
  -546
  0
VERTEX
  8
RK-LAVAT
 10
0.0
 20
0.0
 30
0.0
 70
   128
 71
   519
 72
  -518
 73
   547
  0
VERTEX
  8
RK-LAVAT
 10
0.0
 20
0.0
 30
0.0
 70
   128
 71
   518
 72
   546
 73
  -547
  0
VERTEX
  8
RK-LAVAT
 10
0.0
 20
0.0
 30
0.0
 70
   128
 71
   520
 72
  -519
 73
   548
  0
VERTEX
  8
RK-LAVAT
 10
0.0
 20
0.0
 30
0.0
 70
   128
 71
   519
 72
   547
 73
  -548
  0
VERTEX
  8
RK-LAVAT
 10
0.0
 20
0.0
 30
0.0
 70
   128
 71
   521
 72
  -520
 73
   549
  0
VERTEX
  8
RK-LAVAT
 10
0.0
 20
0.0
 30
0.0
 70
   128
 71
   520
 72
   548
 73
  -549
  0
VERTEX
  8
RK-LAVAT
 10
0.0
 20
0.0
 30
0.0
 70
   128
 71
   522
 72
  -521
 73
   550
  0
VERTEX
  8
RK-LAVAT
 10
0.0
 20
0.0
 30
0.0
 70
   128
 71
   521
 72
   549
 73
  -550
  0
VERTEX
  8
RK-LAVAT
 10
0.0
 20
0.0
 30
0.0
 70
   128
 71
   523
 72
  -522
 73
   551
  0
VERTEX
  8
RK-LAVAT
 10
0.0
 20
0.0
 30
0.0
 70
   128
 71
   522
 72
   550
 73
  -551
  0
VERTEX
  8
RK-LAVAT
 10
0.0
 20
0.0
 30
0.0
 70
   128
 71
   524
 72
  -523
 73
   552
  0
VERTEX
  8
RK-LAVAT
 10
0.0
 20
0.0
 30
0.0
 70
   128
 71
   523
 72
   551
 73
  -552
  0
VERTEX
  8
RK-LAVAT
 10
0.0
 20
0.0
 30
0.0
 70
   128
 71
   525
 72
  -524
 73
   553
  0
VERTEX
  8
RK-LAVAT
 10
0.0
 20
0.0
 30
0.0
 70
   128
 71
   524
 72
   552
 73
  -553
  0
VERTEX
  8
RK-LAVAT
 10
0.0
 20
0.0
 30
0.0
 70
   128
 71
   526
 72
  -525
 73
   554
  0
VERTEX
  8
RK-LAVAT
 10
0.0
 20
0.0
 30
0.0
 70
   128
 71
   525
 72
   553
 73
  -554
  0
VERTEX
  8
RK-LAVAT
 10
0.0
 20
0.0
 30
0.0
 70
   128
 71
   527
 72
  -526
 73
   555
  0
VERTEX
  8
RK-LAVAT
 10
0.0
 20
0.0
 30
0.0
 70
   128
 71
   526
 72
   554
 73
  -555
  0
VERTEX
  8
RK-LAVAT
 10
0.0
 20
0.0
 30
0.0
 70
   128
 71
   528
 72
  -527
 73
   556
  0
VERTEX
  8
RK-LAVAT
 10
0.0
 20
0.0
 30
0.0
 70
   128
 71
   527
 72
   555
 73
  -556
  0
VERTEX
  8
RK-LAVAT
 10
0.0
 20
0.0
 30
0.0
 70
   128
 71
   529
 72
  -528
 73
   557
  0
VERTEX
  8
RK-LAVAT
 10
0.0
 20
0.0
 30
0.0
 70
   128
 71
   528
 72
   556
 73
  -557
  0
VERTEX
  8
RK-LAVAT
 10
0.0
 20
0.0
 30
0.0
 70
   128
 71
   530
 72
  -529
 73
   558
  0
VERTEX
  8
RK-LAVAT
 10
0.0
 20
0.0
 30
0.0
 70
   128
 71
   529
 72
   557
 73
  -558
  0
VERTEX
  8
RK-LAVAT
 10
0.0
 20
0.0
 30
0.0
 70
   128
 71
   531
 72
  -530
 73
   559
  0
VERTEX
  8
RK-LAVAT
 10
0.0
 20
0.0
 30
0.0
 70
   128
 71
   530
 72
   558
 73
  -559
  0
VERTEX
  8
RK-LAVAT
 10
0.0
 20
0.0
 30
0.0
 70
   128
 71
   532
 72
  -531
 73
   560
  0
VERTEX
  8
RK-LAVAT
 10
0.0
 20
0.0
 30
0.0
 70
   128
 71
   531
 72
   559
 73
  -560
  0
VERTEX
  8
RK-LAVAT
 10
0.0
 20
0.0
 30
0.0
 70
   128
 71
   506
 72
  -532
 73
   534
  0
VERTEX
  8
RK-LAVAT
 10
0.0
 20
0.0
 30
0.0
 70
   128
 71
   532
 72
   560
 73
  -534
  0
VERTEX
  8
RK-LAVAT
 10
0.0
 20
0.0
 30
0.0
 70
   128
 71
   533
 72
  -534
 73
   561
  0
VERTEX
  8
RK-LAVAT
 10
0.0
 20
0.0
 30
0.0
 70
   128
 71
   534
 72
   562
 73
  -561
  0
VERTEX
  8
RK-LAVAT
 10
0.0
 20
0.0
 30
0.0
 70
   128
 71
   535
 72
  -533
 73
   563
  0
VERTEX
  8
RK-LAVAT
 10
0.0
 20
0.0
 30
0.0
 70
   128
 71
   533
 72
   561
 73
  -563
  0
VERTEX
  8
RK-LAVAT
 10
0.0
 20
0.0
 30
0.0
 70
   128
 71
   536
 72
  -535
 73
   564
  0
VERTEX
  8
RK-LAVAT
 10
0.0
 20
0.0
 30
0.0
 70
   128
 71
   535
 72
   563
 73
  -564
  0
VERTEX
  8
RK-LAVAT
 10
0.0
 20
0.0
 30
0.0
 70
   128
 71
   537
 72
  -536
 73
   565
  0
VERTEX
  8
RK-LAVAT
 10
0.0
 20
0.0
 30
0.0
 70
   128
 71
   536
 72
   564
 73
  -565
  0
VERTEX
  8
RK-LAVAT
 10
0.0
 20
0.0
 30
0.0
 70
   128
 71
   538
 72
  -537
 73
   566
  0
VERTEX
  8
RK-LAVAT
 10
0.0
 20
0.0
 30
0.0
 70
   128
 71
   537
 72
   565
 73
  -566
  0
VERTEX
  8
RK-LAVAT
 10
0.0
 20
0.0
 30
0.0
 70
   128
 71
   539
 72
  -538
 73
   567
  0
VERTEX
  8
RK-LAVAT
 10
0.0
 20
0.0
 30
0.0
 70
   128
 71
   538
 72
   566
 73
  -567
  0
VERTEX
  8
RK-LAVAT
 10
0.0
 20
0.0
 30
0.0
 70
   128
 71
   540
 72
  -539
 73
   568
  0
VERTEX
  8
RK-LAVAT
 10
0.0
 20
0.0
 30
0.0
 70
   128
 71
   539
 72
   567
 73
  -568
  0
VERTEX
  8
RK-LAVAT
 10
0.0
 20
0.0
 30
0.0
 70
   128
 71
   541
 72
  -540
 73
   569
  0
VERTEX
  8
RK-LAVAT
 10
0.0
 20
0.0
 30
0.0
 70
   128
 71
   540
 72
   568
 73
  -569
  0
VERTEX
  8
RK-LAVAT
 10
0.0
 20
0.0
 30
0.0
 70
   128
 71
   542
 72
  -541
 73
   570
  0
VERTEX
  8
RK-LAVAT
 10
0.0
 20
0.0
 30
0.0
 70
   128
 71
   541
 72
   569
 73
  -570
  0
VERTEX
  8
RK-LAVAT
 10
0.0
 20
0.0
 30
0.0
 70
   128
 71
   543
 72
  -542
 73
   571
  0
VERTEX
  8
RK-LAVAT
 10
0.0
 20
0.0
 30
0.0
 70
   128
 71
   542
 72
   570
 73
  -571
  0
VERTEX
  8
RK-LAVAT
 10
0.0
 20
0.0
 30
0.0
 70
   128
 71
   544
 72
  -543
 73
   572
  0
VERTEX
  8
RK-LAVAT
 10
0.0
 20
0.0
 30
0.0
 70
   128
 71
   543
 72
   571
 73
  -572
  0
VERTEX
  8
RK-LAVAT
 10
0.0
 20
0.0
 30
0.0
 70
   128
 71
   545
 72
  -544
 73
   573
  0
VERTEX
  8
RK-LAVAT
 10
0.0
 20
0.0
 30
0.0
 70
   128
 71
   544
 72
   572
 73
  -573
  0
VERTEX
  8
RK-LAVAT
 10
0.0
 20
0.0
 30
0.0
 70
   128
 71
   546
 72
  -545
 73
   574
  0
VERTEX
  8
RK-LAVAT
 10
0.0
 20
0.0
 30
0.0
 70
   128
 71
   545
 72
   573
 73
  -574
  0
VERTEX
  8
RK-LAVAT
 10
0.0
 20
0.0
 30
0.0
 70
   128
 71
   547
 72
  -546
 73
   575
  0
VERTEX
  8
RK-LAVAT
 10
0.0
 20
0.0
 30
0.0
 70
   128
 71
   546
 72
   574
 73
  -575
  0
VERTEX
  8
RK-LAVAT
 10
0.0
 20
0.0
 30
0.0
 70
   128
 71
   548
 72
  -547
 73
   576
  0
VERTEX
  8
RK-LAVAT
 10
0.0
 20
0.0
 30
0.0
 70
   128
 71
   547
 72
   575
 73
  -576
  0
VERTEX
  8
RK-LAVAT
 10
0.0
 20
0.0
 30
0.0
 70
   128
 71
   549
 72
  -548
 73
   577
  0
VERTEX
  8
RK-LAVAT
 10
0.0
 20
0.0
 30
0.0
 70
   128
 71
   548
 72
   576
 73
  -577
  0
VERTEX
  8
RK-LAVAT
 10
0.0
 20
0.0
 30
0.0
 70
   128
 71
   550
 72
  -549
 73
   578
  0
VERTEX
  8
RK-LAVAT
 10
0.0
 20
0.0
 30
0.0
 70
   128
 71
   549
 72
   577
 73
  -578
  0
VERTEX
  8
RK-LAVAT
 10
0.0
 20
0.0
 30
0.0
 70
   128
 71
   551
 72
  -550
 73
   579
  0
VERTEX
  8
RK-LAVAT
 10
0.0
 20
0.0
 30
0.0
 70
   128
 71
   550
 72
   578
 73
  -579
  0
VERTEX
  8
RK-LAVAT
 10
0.0
 20
0.0
 30
0.0
 70
   128
 71
   552
 72
  -551
 73
   580
  0
VERTEX
  8
RK-LAVAT
 10
0.0
 20
0.0
 30
0.0
 70
   128
 71
   551
 72
   579
 73
  -580
  0
VERTEX
  8
RK-LAVAT
 10
0.0
 20
0.0
 30
0.0
 70
   128
 71
   553
 72
  -552
 73
   581
  0
VERTEX
  8
RK-LAVAT
 10
0.0
 20
0.0
 30
0.0
 70
   128
 71
   552
 72
   580
 73
  -581
  0
VERTEX
  8
RK-LAVAT
 10
0.0
 20
0.0
 30
0.0
 70
   128
 71
   554
 72
  -553
 73
   582
  0
VERTEX
  8
RK-LAVAT
 10
0.0
 20
0.0
 30
0.0
 70
   128
 71
   553
 72
   581
 73
  -582
  0
VERTEX
  8
RK-LAVAT
 10
0.0
 20
0.0
 30
0.0
 70
   128
 71
   555
 72
  -554
 73
   583
  0
VERTEX
  8
RK-LAVAT
 10
0.0
 20
0.0
 30
0.0
 70
   128
 71
   554
 72
   582
 73
  -583
  0
VERTEX
  8
RK-LAVAT
 10
0.0
 20
0.0
 30
0.0
 70
   128
 71
   556
 72
  -555
 73
   584
  0
VERTEX
  8
RK-LAVAT
 10
0.0
 20
0.0
 30
0.0
 70
   128
 71
   555
 72
   583
 73
  -584
  0
VERTEX
  8
RK-LAVAT
 10
0.0
 20
0.0
 30
0.0
 70
   128
 71
   557
 72
  -556
 73
   585
  0
VERTEX
  8
RK-LAVAT
 10
0.0
 20
0.0
 30
0.0
 70
   128
 71
   556
 72
   584
 73
  -585
  0
VERTEX
  8
RK-LAVAT
 10
0.0
 20
0.0
 30
0.0
 70
   128
 71
   558
 72
  -557
 73
   586
  0
VERTEX
  8
RK-LAVAT
 10
0.0
 20
0.0
 30
0.0
 70
   128
 71
   557
 72
   585
 73
  -586
  0
VERTEX
  8
RK-LAVAT
 10
0.0
 20
0.0
 30
0.0
 70
   128
 71
   559
 72
  -558
 73
   587
  0
VERTEX
  8
RK-LAVAT
 10
0.0
 20
0.0
 30
0.0
 70
   128
 71
   558
 72
   586
 73
  -587
  0
VERTEX
  8
RK-LAVAT
 10
0.0
 20
0.0
 30
0.0
 70
   128
 71
   560
 72
  -559
 73
   588
  0
VERTEX
  8
RK-LAVAT
 10
0.0
 20
0.0
 30
0.0
 70
   128
 71
   559
 72
   587
 73
  -588
  0
VERTEX
  8
RK-LAVAT
 10
0.0
 20
0.0
 30
0.0
 70
   128
 71
   534
 72
  -560
 73
   562
  0
VERTEX
  8
RK-LAVAT
 10
0.0
 20
0.0
 30
0.0
 70
   128
 71
   560
 72
   588
 73
  -562
  0
VERTEX
  8
RK-LAVAT
 10
0.0
 20
0.0
 30
0.0
 70
   128
 71
   561
 72
  -562
 73
   589
  0
VERTEX
  8
RK-LAVAT
 10
0.0
 20
0.0
 30
0.0
 70
   128
 71
   562
 72
   590
 73
  -589
  0
VERTEX
  8
RK-LAVAT
 10
0.0
 20
0.0
 30
0.0
 70
   128
 71
   563
 72
  -561
 73
   591
  0
VERTEX
  8
RK-LAVAT
 10
0.0
 20
0.0
 30
0.0
 70
   128
 71
   561
 72
   589
 73
  -591
  0
VERTEX
  8
RK-LAVAT
 10
0.0
 20
0.0
 30
0.0
 70
   128
 71
   564
 72
  -563
 73
   592
  0
VERTEX
  8
RK-LAVAT
 10
0.0
 20
0.0
 30
0.0
 70
   128
 71
   563
 72
   591
 73
  -592
  0
VERTEX
  8
RK-LAVAT
 10
0.0
 20
0.0
 30
0.0
 70
   128
 71
   565
 72
  -564
 73
   593
  0
VERTEX
  8
RK-LAVAT
 10
0.0
 20
0.0
 30
0.0
 70
   128
 71
   564
 72
   592
 73
  -593
  0
VERTEX
  8
RK-LAVAT
 10
0.0
 20
0.0
 30
0.0
 70
   128
 71
   566
 72
  -565
 73
   594
  0
VERTEX
  8
RK-LAVAT
 10
0.0
 20
0.0
 30
0.0
 70
   128
 71
   565
 72
   593
 73
  -594
  0
VERTEX
  8
RK-LAVAT
 10
0.0
 20
0.0
 30
0.0
 70
   128
 71
   567
 72
  -566
 73
   595
  0
VERTEX
  8
RK-LAVAT
 10
0.0
 20
0.0
 30
0.0
 70
   128
 71
   566
 72
   594
 73
  -595
  0
VERTEX
  8
RK-LAVAT
 10
0.0
 20
0.0
 30
0.0
 70
   128
 71
   568
 72
  -567
 73
   596
  0
VERTEX
  8
RK-LAVAT
 10
0.0
 20
0.0
 30
0.0
 70
   128
 71
   567
 72
   595
 73
  -596
  0
VERTEX
  8
RK-LAVAT
 10
0.0
 20
0.0
 30
0.0
 70
   128
 71
   569
 72
  -568
 73
   597
  0
VERTEX
  8
RK-LAVAT
 10
0.0
 20
0.0
 30
0.0
 70
   128
 71
   568
 72
   596
 73
  -597
  0
VERTEX
  8
RK-LAVAT
 10
0.0
 20
0.0
 30
0.0
 70
   128
 71
   570
 72
  -569
 73
   598
  0
VERTEX
  8
RK-LAVAT
 10
0.0
 20
0.0
 30
0.0
 70
   128
 71
   569
 72
   597
 73
  -598
  0
VERTEX
  8
RK-LAVAT
 10
0.0
 20
0.0
 30
0.0
 70
   128
 71
   571
 72
  -570
 73
   599
  0
VERTEX
  8
RK-LAVAT
 10
0.0
 20
0.0
 30
0.0
 70
   128
 71
   570
 72
   598
 73
  -599
  0
VERTEX
  8
RK-LAVAT
 10
0.0
 20
0.0
 30
0.0
 70
   128
 71
   572
 72
  -571
 73
   600
  0
VERTEX
  8
RK-LAVAT
 10
0.0
 20
0.0
 30
0.0
 70
   128
 71
   571
 72
   599
 73
  -600
  0
VERTEX
  8
RK-LAVAT
 10
0.0
 20
0.0
 30
0.0
 70
   128
 71
   573
 72
  -572
 73
   601
  0
VERTEX
  8
RK-LAVAT
 10
0.0
 20
0.0
 30
0.0
 70
   128
 71
   572
 72
   600
 73
  -601
  0
VERTEX
  8
RK-LAVAT
 10
0.0
 20
0.0
 30
0.0
 70
   128
 71
   574
 72
  -573
 73
   602
  0
VERTEX
  8
RK-LAVAT
 10
0.0
 20
0.0
 30
0.0
 70
   128
 71
   573
 72
   601
 73
  -602
  0
VERTEX
  8
RK-LAVAT
 10
0.0
 20
0.0
 30
0.0
 70
   128
 71
   575
 72
  -574
 73
   603
  0
VERTEX
  8
RK-LAVAT
 10
0.0
 20
0.0
 30
0.0
 70
   128
 71
   574
 72
   602
 73
  -603
  0
VERTEX
  8
RK-LAVAT
 10
0.0
 20
0.0
 30
0.0
 70
   128
 71
   576
 72
  -575
 73
   604
  0
VERTEX
  8
RK-LAVAT
 10
0.0
 20
0.0
 30
0.0
 70
   128
 71
   575
 72
   603
 73
  -604
  0
VERTEX
  8
RK-LAVAT
 10
0.0
 20
0.0
 30
0.0
 70
   128
 71
   577
 72
  -576
 73
   605
  0
VERTEX
  8
RK-LAVAT
 10
0.0
 20
0.0
 30
0.0
 70
   128
 71
   576
 72
   604
 73
  -605
  0
VERTEX
  8
RK-LAVAT
 10
0.0
 20
0.0
 30
0.0
 70
   128
 71
   578
 72
  -577
 73
   606
  0
VERTEX
  8
RK-LAVAT
 10
0.0
 20
0.0
 30
0.0
 70
   128
 71
   577
 72
   605
 73
  -606
  0
VERTEX
  8
RK-LAVAT
 10
0.0
 20
0.0
 30
0.0
 70
   128
 71
   579
 72
  -578
 73
   607
  0
VERTEX
  8
RK-LAVAT
 10
0.0
 20
0.0
 30
0.0
 70
   128
 71
   578
 72
   606
 73
  -607
  0
VERTEX
  8
RK-LAVAT
 10
0.0
 20
0.0
 30
0.0
 70
   128
 71
   580
 72
  -579
 73
   608
  0
VERTEX
  8
RK-LAVAT
 10
0.0
 20
0.0
 30
0.0
 70
   128
 71
   579
 72
   607
 73
  -608
  0
VERTEX
  8
RK-LAVAT
 10
0.0
 20
0.0
 30
0.0
 70
   128
 71
   581
 72
  -580
 73
   609
  0
VERTEX
  8
RK-LAVAT
 10
0.0
 20
0.0
 30
0.0
 70
   128
 71
   580
 72
   608
 73
  -609
  0
VERTEX
  8
RK-LAVAT
 10
0.0
 20
0.0
 30
0.0
 70
   128
 71
   582
 72
  -581
 73
   610
  0
VERTEX
  8
RK-LAVAT
 10
0.0
 20
0.0
 30
0.0
 70
   128
 71
   581
 72
   609
 73
  -610
  0
VERTEX
  8
RK-LAVAT
 10
0.0
 20
0.0
 30
0.0
 70
   128
 71
   583
 72
  -582
 73
   611
  0
VERTEX
  8
RK-LAVAT
 10
0.0
 20
0.0
 30
0.0
 70
   128
 71
   582
 72
   610
 73
  -611
  0
VERTEX
  8
RK-LAVAT
 10
0.0
 20
0.0
 30
0.0
 70
   128
 71
   584
 72
  -583
 73
   612
  0
VERTEX
  8
RK-LAVAT
 10
0.0
 20
0.0
 30
0.0
 70
   128
 71
   583
 72
   611
 73
  -612
  0
VERTEX
  8
RK-LAVAT
 10
0.0
 20
0.0
 30
0.0
 70
   128
 71
   585
 72
  -584
 73
   613
  0
VERTEX
  8
RK-LAVAT
 10
0.0
 20
0.0
 30
0.0
 70
   128
 71
   584
 72
   612
 73
  -613
  0
VERTEX
  8
RK-LAVAT
 10
0.0
 20
0.0
 30
0.0
 70
   128
 71
   586
 72
  -585
 73
   614
  0
VERTEX
  8
RK-LAVAT
 10
0.0
 20
0.0
 30
0.0
 70
   128
 71
   585
 72
   613
 73
  -614
  0
VERTEX
  8
RK-LAVAT
 10
0.0
 20
0.0
 30
0.0
 70
   128
 71
   587
 72
  -586
 73
   615
  0
VERTEX
  8
RK-LAVAT
 10
0.0
 20
0.0
 30
0.0
 70
   128
 71
   586
 72
   614
 73
  -615
  0
VERTEX
  8
RK-LAVAT
 10
0.0
 20
0.0
 30
0.0
 70
   128
 71
   588
 72
  -587
 73
   616
  0
VERTEX
  8
RK-LAVAT
 10
0.0
 20
0.0
 30
0.0
 70
   128
 71
   587
 72
   615
 73
  -616
  0
VERTEX
  8
RK-LAVAT
 10
0.0
 20
0.0
 30
0.0
 70
   128
 71
   562
 72
  -588
 73
   590
  0
VERTEX
  8
RK-LAVAT
 10
0.0
 20
0.0
 30
0.0
 70
   128
 71
   588
 72
   616
 73
  -590
  0
VERTEX
  8
RK-LAVAT
 10
0.0
 20
0.0
 30
0.0
 70
   128
 71
   589
 72
  -590
 73
   617
  0
VERTEX
  8
RK-LAVAT
 10
0.0
 20
0.0
 30
0.0
 70
   128
 71
   590
 72
   618
 73
  -617
  0
VERTEX
  8
RK-LAVAT
 10
0.0
 20
0.0
 30
0.0
 70
   128
 71
   591
 72
  -589
 73
   619
  0
VERTEX
  8
RK-LAVAT
 10
0.0
 20
0.0
 30
0.0
 70
   128
 71
   589
 72
   617
 73
  -619
  0
VERTEX
  8
RK-LAVAT
 10
0.0
 20
0.0
 30
0.0
 70
   128
 71
   592
 72
  -591
 73
   620
  0
VERTEX
  8
RK-LAVAT
 10
0.0
 20
0.0
 30
0.0
 70
   128
 71
   591
 72
   619
 73
  -620
  0
VERTEX
  8
RK-LAVAT
 10
0.0
 20
0.0
 30
0.0
 70
   128
 71
   593
 72
  -592
 73
   621
  0
VERTEX
  8
RK-LAVAT
 10
0.0
 20
0.0
 30
0.0
 70
   128
 71
   592
 72
   620
 73
  -621
  0
VERTEX
  8
RK-LAVAT
 10
0.0
 20
0.0
 30
0.0
 70
   128
 71
   594
 72
  -593
 73
   622
  0
VERTEX
  8
RK-LAVAT
 10
0.0
 20
0.0
 30
0.0
 70
   128
 71
   593
 72
   621
 73
  -622
  0
VERTEX
  8
RK-LAVAT
 10
0.0
 20
0.0
 30
0.0
 70
   128
 71
   595
 72
  -594
 73
   623
  0
VERTEX
  8
RK-LAVAT
 10
0.0
 20
0.0
 30
0.0
 70
   128
 71
   594
 72
   622
 73
  -623
  0
VERTEX
  8
RK-LAVAT
 10
0.0
 20
0.0
 30
0.0
 70
   128
 71
   596
 72
  -595
 73
   624
  0
VERTEX
  8
RK-LAVAT
 10
0.0
 20
0.0
 30
0.0
 70
   128
 71
   595
 72
   623
 73
  -624
  0
VERTEX
  8
RK-LAVAT
 10
0.0
 20
0.0
 30
0.0
 70
   128
 71
   597
 72
  -596
 73
   625
  0
VERTEX
  8
RK-LAVAT
 10
0.0
 20
0.0
 30
0.0
 70
   128
 71
   596
 72
   624
 73
  -625
  0
VERTEX
  8
RK-LAVAT
 10
0.0
 20
0.0
 30
0.0
 70
   128
 71
   598
 72
  -597
 73
   626
  0
VERTEX
  8
RK-LAVAT
 10
0.0
 20
0.0
 30
0.0
 70
   128
 71
   597
 72
   625
 73
  -626
  0
VERTEX
  8
RK-LAVAT
 10
0.0
 20
0.0
 30
0.0
 70
   128
 71
   599
 72
  -598
 73
   627
  0
VERTEX
  8
RK-LAVAT
 10
0.0
 20
0.0
 30
0.0
 70
   128
 71
   598
 72
   626
 73
  -627
  0
VERTEX
  8
RK-LAVAT
 10
0.0
 20
0.0
 30
0.0
 70
   128
 71
   600
 72
  -599
 73
   628
  0
VERTEX
  8
RK-LAVAT
 10
0.0
 20
0.0
 30
0.0
 70
   128
 71
   599
 72
   627
 73
  -628
  0
VERTEX
  8
RK-LAVAT
 10
0.0
 20
0.0
 30
0.0
 70
   128
 71
   601
 72
  -600
 73
   629
  0
VERTEX
  8
RK-LAVAT
 10
0.0
 20
0.0
 30
0.0
 70
   128
 71
   600
 72
   628
 73
  -629
  0
VERTEX
  8
RK-LAVAT
 10
0.0
 20
0.0
 30
0.0
 70
   128
 71
   602
 72
  -601
 73
   630
  0
VERTEX
  8
RK-LAVAT
 10
0.0
 20
0.0
 30
0.0
 70
   128
 71
   601
 72
   629
 73
  -630
  0
VERTEX
  8
RK-LAVAT
 10
0.0
 20
0.0
 30
0.0
 70
   128
 71
   603
 72
  -602
 73
   631
  0
VERTEX
  8
RK-LAVAT
 10
0.0
 20
0.0
 30
0.0
 70
   128
 71
   602
 72
   630
 73
  -631
  0
VERTEX
  8
RK-LAVAT
 10
0.0
 20
0.0
 30
0.0
 70
   128
 71
   604
 72
  -603
 73
   632
  0
VERTEX
  8
RK-LAVAT
 10
0.0
 20
0.0
 30
0.0
 70
   128
 71
   603
 72
   631
 73
  -632
  0
VERTEX
  8
RK-LAVAT
 10
0.0
 20
0.0
 30
0.0
 70
   128
 71
   605
 72
  -604
 73
   633
  0
VERTEX
  8
RK-LAVAT
 10
0.0
 20
0.0
 30
0.0
 70
   128
 71
   604
 72
   632
 73
  -633
  0
VERTEX
  8
RK-LAVAT
 10
0.0
 20
0.0
 30
0.0
 70
   128
 71
   606
 72
  -605
 73
   634
  0
VERTEX
  8
RK-LAVAT
 10
0.0
 20
0.0
 30
0.0
 70
   128
 71
   605
 72
   633
 73
  -634
  0
VERTEX
  8
RK-LAVAT
 10
0.0
 20
0.0
 30
0.0
 70
   128
 71
   607
 72
  -606
 73
   635
  0
VERTEX
  8
RK-LAVAT
 10
0.0
 20
0.0
 30
0.0
 70
   128
 71
   606
 72
   634
 73
  -635
  0
VERTEX
  8
RK-LAVAT
 10
0.0
 20
0.0
 30
0.0
 70
   128
 71
   608
 72
  -607
 73
   636
  0
VERTEX
  8
RK-LAVAT
 10
0.0
 20
0.0
 30
0.0
 70
   128
 71
   607
 72
   635
 73
  -636
  0
VERTEX
  8
RK-LAVAT
 10
0.0
 20
0.0
 30
0.0
 70
   128
 71
   609
 72
  -608
 73
   637
  0
VERTEX
  8
RK-LAVAT
 10
0.0
 20
0.0
 30
0.0
 70
   128
 71
   608
 72
   636
 73
  -637
  0
VERTEX
  8
RK-LAVAT
 10
0.0
 20
0.0
 30
0.0
 70
   128
 71
   610
 72
  -609
 73
   638
  0
VERTEX
  8
RK-LAVAT
 10
0.0
 20
0.0
 30
0.0
 70
   128
 71
   609
 72
   637
 73
  -638
  0
VERTEX
  8
RK-LAVAT
 10
0.0
 20
0.0
 30
0.0
 70
   128
 71
   611
 72
  -610
 73
   639
  0
VERTEX
  8
RK-LAVAT
 10
0.0
 20
0.0
 30
0.0
 70
   128
 71
   610
 72
   638
 73
  -639
  0
VERTEX
  8
RK-LAVAT
 10
0.0
 20
0.0
 30
0.0
 70
   128
 71
   612
 72
  -611
 73
   640
  0
VERTEX
  8
RK-LAVAT
 10
0.0
 20
0.0
 30
0.0
 70
   128
 71
   611
 72
   639
 73
  -640
  0
VERTEX
  8
RK-LAVAT
 10
0.0
 20
0.0
 30
0.0
 70
   128
 71
   613
 72
  -612
 73
   641
  0
VERTEX
  8
RK-LAVAT
 10
0.0
 20
0.0
 30
0.0
 70
   128
 71
   612
 72
   640
 73
  -641
  0
VERTEX
  8
RK-LAVAT
 10
0.0
 20
0.0
 30
0.0
 70
   128
 71
   614
 72
  -613
 73
   642
  0
VERTEX
  8
RK-LAVAT
 10
0.0
 20
0.0
 30
0.0
 70
   128
 71
   613
 72
   641
 73
  -642
  0
VERTEX
  8
RK-LAVAT
 10
0.0
 20
0.0
 30
0.0
 70
   128
 71
   615
 72
  -614
 73
   643
  0
VERTEX
  8
RK-LAVAT
 10
0.0
 20
0.0
 30
0.0
 70
   128
 71
   614
 72
   642
 73
  -643
  0
VERTEX
  8
RK-LAVAT
 10
0.0
 20
0.0
 30
0.0
 70
   128
 71
   616
 72
  -615
 73
   644
  0
VERTEX
  8
RK-LAVAT
 10
0.0
 20
0.0
 30
0.0
 70
   128
 71
   615
 72
   643
 73
  -644
  0
VERTEX
  8
RK-LAVAT
 10
0.0
 20
0.0
 30
0.0
 70
   128
 71
   590
 72
  -616
 73
   618
  0
VERTEX
  8
RK-LAVAT
 10
0.0
 20
0.0
 30
0.0
 70
   128
 71
   616
 72
   644
 73
  -618
  0
VERTEX
  8
RK-LAVAT
 10
0.0
 20
0.0
 30
0.0
 70
   128
 71
   617
 72
  -618
 73
   645
  0
VERTEX
  8
RK-LAVAT
 10
0.0
 20
0.0
 30
0.0
 70
   128
 71
   618
 72
   646
 73
  -645
  0
VERTEX
  8
RK-LAVAT
 10
0.0
 20
0.0
 30
0.0
 70
   128
 71
   619
 72
  -617
 73
   647
  0
VERTEX
  8
RK-LAVAT
 10
0.0
 20
0.0
 30
0.0
 70
   128
 71
   617
 72
   645
 73
  -647
  0
VERTEX
  8
RK-LAVAT
 10
0.0
 20
0.0
 30
0.0
 70
   128
 71
   620
 72
  -619
 73
   648
  0
VERTEX
  8
RK-LAVAT
 10
0.0
 20
0.0
 30
0.0
 70
   128
 71
   619
 72
   647
 73
  -648
  0
VERTEX
  8
RK-LAVAT
 10
0.0
 20
0.0
 30
0.0
 70
   128
 71
   621
 72
  -620
 73
   649
  0
VERTEX
  8
RK-LAVAT
 10
0.0
 20
0.0
 30
0.0
 70
   128
 71
   620
 72
   648
 73
  -649
  0
VERTEX
  8
RK-LAVAT
 10
0.0
 20
0.0
 30
0.0
 70
   128
 71
   622
 72
  -621
 73
   650
  0
VERTEX
  8
RK-LAVAT
 10
0.0
 20
0.0
 30
0.0
 70
   128
 71
   621
 72
   649
 73
  -650
  0
VERTEX
  8
RK-LAVAT
 10
0.0
 20
0.0
 30
0.0
 70
   128
 71
   623
 72
  -622
 73
   651
  0
VERTEX
  8
RK-LAVAT
 10
0.0
 20
0.0
 30
0.0
 70
   128
 71
   622
 72
   650
 73
  -651
  0
VERTEX
  8
RK-LAVAT
 10
0.0
 20
0.0
 30
0.0
 70
   128
 71
   624
 72
  -623
 73
   652
  0
VERTEX
  8
RK-LAVAT
 10
0.0
 20
0.0
 30
0.0
 70
   128
 71
   623
 72
   651
 73
  -652
  0
VERTEX
  8
RK-LAVAT
 10
0.0
 20
0.0
 30
0.0
 70
   128
 71
   625
 72
  -624
 73
   653
  0
VERTEX
  8
RK-LAVAT
 10
0.0
 20
0.0
 30
0.0
 70
   128
 71
   624
 72
   652
 73
  -653
  0
VERTEX
  8
RK-LAVAT
 10
0.0
 20
0.0
 30
0.0
 70
   128
 71
   626
 72
  -625
 73
   654
  0
VERTEX
  8
RK-LAVAT
 10
0.0
 20
0.0
 30
0.0
 70
   128
 71
   625
 72
   653
 73
  -654
  0
VERTEX
  8
RK-LAVAT
 10
0.0
 20
0.0
 30
0.0
 70
   128
 71
   627
 72
  -626
 73
   655
  0
VERTEX
  8
RK-LAVAT
 10
0.0
 20
0.0
 30
0.0
 70
   128
 71
   626
 72
   654
 73
  -655
  0
VERTEX
  8
RK-LAVAT
 10
0.0
 20
0.0
 30
0.0
 70
   128
 71
   628
 72
  -627
 73
   656
  0
VERTEX
  8
RK-LAVAT
 10
0.0
 20
0.0
 30
0.0
 70
   128
 71
   627
 72
   655
 73
  -656
  0
VERTEX
  8
RK-LAVAT
 10
0.0
 20
0.0
 30
0.0
 70
   128
 71
   629
 72
  -628
 73
   657
  0
VERTEX
  8
RK-LAVAT
 10
0.0
 20
0.0
 30
0.0
 70
   128
 71
   628
 72
   656
 73
  -657
  0
VERTEX
  8
RK-LAVAT
 10
0.0
 20
0.0
 30
0.0
 70
   128
 71
   630
 72
  -629
 73
   658
  0
VERTEX
  8
RK-LAVAT
 10
0.0
 20
0.0
 30
0.0
 70
   128
 71
   629
 72
   657
 73
  -658
  0
VERTEX
  8
RK-LAVAT
 10
0.0
 20
0.0
 30
0.0
 70
   128
 71
   631
 72
  -630
 73
   659
  0
VERTEX
  8
RK-LAVAT
 10
0.0
 20
0.0
 30
0.0
 70
   128
 71
   630
 72
   658
 73
  -659
  0
VERTEX
  8
RK-LAVAT
 10
0.0
 20
0.0
 30
0.0
 70
   128
 71
   632
 72
  -631
 73
   660
  0
VERTEX
  8
RK-LAVAT
 10
0.0
 20
0.0
 30
0.0
 70
   128
 71
   631
 72
   659
 73
  -660
  0
VERTEX
  8
RK-LAVAT
 10
0.0
 20
0.0
 30
0.0
 70
   128
 71
   633
 72
  -632
 73
   661
  0
VERTEX
  8
RK-LAVAT
 10
0.0
 20
0.0
 30
0.0
 70
   128
 71
   632
 72
   660
 73
  -661
  0
VERTEX
  8
RK-LAVAT
 10
0.0
 20
0.0
 30
0.0
 70
   128
 71
   634
 72
  -633
 73
   662
  0
VERTEX
  8
RK-LAVAT
 10
0.0
 20
0.0
 30
0.0
 70
   128
 71
   633
 72
   661
 73
  -662
  0
VERTEX
  8
RK-LAVAT
 10
0.0
 20
0.0
 30
0.0
 70
   128
 71
   635
 72
  -634
 73
   663
  0
VERTEX
  8
RK-LAVAT
 10
0.0
 20
0.0
 30
0.0
 70
   128
 71
   634
 72
   662
 73
  -663
  0
VERTEX
  8
RK-LAVAT
 10
0.0
 20
0.0
 30
0.0
 70
   128
 71
   636
 72
  -635
 73
   664
  0
VERTEX
  8
RK-LAVAT
 10
0.0
 20
0.0
 30
0.0
 70
   128
 71
   635
 72
   663
 73
  -664
  0
VERTEX
  8
RK-LAVAT
 10
0.0
 20
0.0
 30
0.0
 70
   128
 71
   637
 72
  -636
 73
   665
  0
VERTEX
  8
RK-LAVAT
 10
0.0
 20
0.0
 30
0.0
 70
   128
 71
   636
 72
   664
 73
  -665
  0
VERTEX
  8
RK-LAVAT
 10
0.0
 20
0.0
 30
0.0
 70
   128
 71
   638
 72
  -637
 73
   666
  0
VERTEX
  8
RK-LAVAT
 10
0.0
 20
0.0
 30
0.0
 70
   128
 71
   637
 72
   665
 73
  -666
  0
VERTEX
  8
RK-LAVAT
 10
0.0
 20
0.0
 30
0.0
 70
   128
 71
   639
 72
  -638
 73
   667
  0
VERTEX
  8
RK-LAVAT
 10
0.0
 20
0.0
 30
0.0
 70
   128
 71
   638
 72
   666
 73
  -667
  0
VERTEX
  8
RK-LAVAT
 10
0.0
 20
0.0
 30
0.0
 70
   128
 71
   640
 72
  -639
 73
   668
  0
VERTEX
  8
RK-LAVAT
 10
0.0
 20
0.0
 30
0.0
 70
   128
 71
   639
 72
   667
 73
  -668
  0
VERTEX
  8
RK-LAVAT
 10
0.0
 20
0.0
 30
0.0
 70
   128
 71
   641
 72
  -640
 73
   669
  0
VERTEX
  8
RK-LAVAT
 10
0.0
 20
0.0
 30
0.0
 70
   128
 71
   640
 72
   668
 73
  -669
  0
VERTEX
  8
RK-LAVAT
 10
0.0
 20
0.0
 30
0.0
 70
   128
 71
   642
 72
  -641
 73
   670
  0
VERTEX
  8
RK-LAVAT
 10
0.0
 20
0.0
 30
0.0
 70
   128
 71
   641
 72
   669
 73
  -670
  0
VERTEX
  8
RK-LAVAT
 10
0.0
 20
0.0
 30
0.0
 70
   128
 71
   643
 72
  -642
 73
   671
  0
VERTEX
  8
RK-LAVAT
 10
0.0
 20
0.0
 30
0.0
 70
   128
 71
   642
 72
   670
 73
  -671
  0
VERTEX
  8
RK-LAVAT
 10
0.0
 20
0.0
 30
0.0
 70
   128
 71
   644
 72
  -643
 73
   672
  0
VERTEX
  8
RK-LAVAT
 10
0.0
 20
0.0
 30
0.0
 70
   128
 71
   643
 72
   671
 73
  -672
  0
VERTEX
  8
RK-LAVAT
 10
0.0
 20
0.0
 30
0.0
 70
   128
 71
   618
 72
  -644
 73
   646
  0
VERTEX
  8
RK-LAVAT
 10
0.0
 20
0.0
 30
0.0
 70
   128
 71
   644
 72
   672
 73
  -646
  0
VERTEX
  8
RK-LAVAT
 10
0.0
 20
0.0
 30
0.0
 70
   128
 71
   645
 72
  -646
 73
   673
  0
VERTEX
  8
RK-LAVAT
 10
0.0
 20
0.0
 30
0.0
 70
   128
 71
   646
 72
   674
 73
  -673
  0
VERTEX
  8
RK-LAVAT
 10
0.0
 20
0.0
 30
0.0
 70
   128
 71
   647
 72
  -645
 73
   675
  0
VERTEX
  8
RK-LAVAT
 10
0.0
 20
0.0
 30
0.0
 70
   128
 71
   645
 72
   673
 73
  -675
  0
VERTEX
  8
RK-LAVAT
 10
0.0
 20
0.0
 30
0.0
 70
   128
 71
   648
 72
  -647
 73
   676
  0
VERTEX
  8
RK-LAVAT
 10
0.0
 20
0.0
 30
0.0
 70
   128
 71
   647
 72
   675
 73
  -676
  0
VERTEX
  8
RK-LAVAT
 10
0.0
 20
0.0
 30
0.0
 70
   128
 71
   649
 72
  -648
 73
   677
  0
VERTEX
  8
RK-LAVAT
 10
0.0
 20
0.0
 30
0.0
 70
   128
 71
   648
 72
   676
 73
  -677
  0
VERTEX
  8
RK-LAVAT
 10
0.0
 20
0.0
 30
0.0
 70
   128
 71
   650
 72
  -649
 73
   678
  0
VERTEX
  8
RK-LAVAT
 10
0.0
 20
0.0
 30
0.0
 70
   128
 71
   649
 72
   677
 73
  -678
  0
VERTEX
  8
RK-LAVAT
 10
0.0
 20
0.0
 30
0.0
 70
   128
 71
   651
 72
  -650
 73
   679
  0
VERTEX
  8
RK-LAVAT
 10
0.0
 20
0.0
 30
0.0
 70
   128
 71
   650
 72
   678
 73
  -679
  0
VERTEX
  8
RK-LAVAT
 10
0.0
 20
0.0
 30
0.0
 70
   128
 71
   652
 72
  -651
 73
   680
  0
VERTEX
  8
RK-LAVAT
 10
0.0
 20
0.0
 30
0.0
 70
   128
 71
   651
 72
   679
 73
  -680
  0
VERTEX
  8
RK-LAVAT
 10
0.0
 20
0.0
 30
0.0
 70
   128
 71
   653
 72
  -652
 73
   681
  0
VERTEX
  8
RK-LAVAT
 10
0.0
 20
0.0
 30
0.0
 70
   128
 71
   652
 72
   680
 73
  -681
  0
VERTEX
  8
RK-LAVAT
 10
0.0
 20
0.0
 30
0.0
 70
   128
 71
   654
 72
  -653
 73
   682
  0
VERTEX
  8
RK-LAVAT
 10
0.0
 20
0.0
 30
0.0
 70
   128
 71
   653
 72
   681
 73
  -682
  0
VERTEX
  8
RK-LAVAT
 10
0.0
 20
0.0
 30
0.0
 70
   128
 71
   655
 72
  -654
 73
   683
  0
VERTEX
  8
RK-LAVAT
 10
0.0
 20
0.0
 30
0.0
 70
   128
 71
   654
 72
   682
 73
  -683
  0
VERTEX
  8
RK-LAVAT
 10
0.0
 20
0.0
 30
0.0
 70
   128
 71
   656
 72
  -655
 73
   684
  0
VERTEX
  8
RK-LAVAT
 10
0.0
 20
0.0
 30
0.0
 70
   128
 71
   655
 72
   683
 73
  -684
  0
VERTEX
  8
RK-LAVAT
 10
0.0
 20
0.0
 30
0.0
 70
   128
 71
   657
 72
  -656
 73
   685
  0
VERTEX
  8
RK-LAVAT
 10
0.0
 20
0.0
 30
0.0
 70
   128
 71
   656
 72
   684
 73
  -685
  0
VERTEX
  8
RK-LAVAT
 10
0.0
 20
0.0
 30
0.0
 70
   128
 71
   658
 72
  -657
 73
   686
  0
VERTEX
  8
RK-LAVAT
 10
0.0
 20
0.0
 30
0.0
 70
   128
 71
   657
 72
   685
 73
  -686
  0
VERTEX
  8
RK-LAVAT
 10
0.0
 20
0.0
 30
0.0
 70
   128
 71
   659
 72
  -658
 73
   687
  0
VERTEX
  8
RK-LAVAT
 10
0.0
 20
0.0
 30
0.0
 70
   128
 71
   658
 72
   686
 73
  -687
  0
VERTEX
  8
RK-LAVAT
 10
0.0
 20
0.0
 30
0.0
 70
   128
 71
   660
 72
  -659
 73
   688
  0
VERTEX
  8
RK-LAVAT
 10
0.0
 20
0.0
 30
0.0
 70
   128
 71
   659
 72
   687
 73
  -688
  0
VERTEX
  8
RK-LAVAT
 10
0.0
 20
0.0
 30
0.0
 70
   128
 71
   661
 72
  -660
 73
   689
  0
VERTEX
  8
RK-LAVAT
 10
0.0
 20
0.0
 30
0.0
 70
   128
 71
   660
 72
   688
 73
  -689
  0
VERTEX
  8
RK-LAVAT
 10
0.0
 20
0.0
 30
0.0
 70
   128
 71
   662
 72
  -661
 73
   690
  0
VERTEX
  8
RK-LAVAT
 10
0.0
 20
0.0
 30
0.0
 70
   128
 71
   661
 72
   689
 73
  -690
  0
VERTEX
  8
RK-LAVAT
 10
0.0
 20
0.0
 30
0.0
 70
   128
 71
   663
 72
  -662
 73
   691
  0
VERTEX
  8
RK-LAVAT
 10
0.0
 20
0.0
 30
0.0
 70
   128
 71
   662
 72
   690
 73
  -691
  0
VERTEX
  8
RK-LAVAT
 10
0.0
 20
0.0
 30
0.0
 70
   128
 71
   664
 72
  -663
 73
   692
  0
VERTEX
  8
RK-LAVAT
 10
0.0
 20
0.0
 30
0.0
 70
   128
 71
   663
 72
   691
 73
  -692
  0
VERTEX
  8
RK-LAVAT
 10
0.0
 20
0.0
 30
0.0
 70
   128
 71
   665
 72
  -664
 73
   693
  0
VERTEX
  8
RK-LAVAT
 10
0.0
 20
0.0
 30
0.0
 70
   128
 71
   664
 72
   692
 73
  -693
  0
VERTEX
  8
RK-LAVAT
 10
0.0
 20
0.0
 30
0.0
 70
   128
 71
   666
 72
  -665
 73
   694
  0
VERTEX
  8
RK-LAVAT
 10
0.0
 20
0.0
 30
0.0
 70
   128
 71
   665
 72
   693
 73
  -694
  0
VERTEX
  8
RK-LAVAT
 10
0.0
 20
0.0
 30
0.0
 70
   128
 71
   667
 72
  -666
 73
   695
  0
VERTEX
  8
RK-LAVAT
 10
0.0
 20
0.0
 30
0.0
 70
   128
 71
   666
 72
   694
 73
  -695
  0
VERTEX
  8
RK-LAVAT
 10
0.0
 20
0.0
 30
0.0
 70
   128
 71
   668
 72
  -667
 73
   696
  0
VERTEX
  8
RK-LAVAT
 10
0.0
 20
0.0
 30
0.0
 70
   128
 71
   667
 72
   695
 73
  -696
  0
VERTEX
  8
RK-LAVAT
 10
0.0
 20
0.0
 30
0.0
 70
   128
 71
   669
 72
  -668
 73
   697
  0
VERTEX
  8
RK-LAVAT
 10
0.0
 20
0.0
 30
0.0
 70
   128
 71
   668
 72
   696
 73
  -697
  0
VERTEX
  8
RK-LAVAT
 10
0.0
 20
0.0
 30
0.0
 70
   128
 71
   670
 72
  -669
 73
   698
  0
VERTEX
  8
RK-LAVAT
 10
0.0
 20
0.0
 30
0.0
 70
   128
 71
   669
 72
   697
 73
  -698
  0
VERTEX
  8
RK-LAVAT
 10
0.0
 20
0.0
 30
0.0
 70
   128
 71
   671
 72
  -670
 73
   699
  0
VERTEX
  8
RK-LAVAT
 10
0.0
 20
0.0
 30
0.0
 70
   128
 71
   670
 72
   698
 73
  -699
  0
VERTEX
  8
RK-LAVAT
 10
0.0
 20
0.0
 30
0.0
 70
   128
 71
   672
 72
  -671
 73
   700
  0
VERTEX
  8
RK-LAVAT
 10
0.0
 20
0.0
 30
0.0
 70
   128
 71
   671
 72
   699
 73
  -700
  0
VERTEX
  8
RK-LAVAT
 10
0.0
 20
0.0
 30
0.0
 70
   128
 71
   646
 72
  -672
 73
   674
  0
VERTEX
  8
RK-LAVAT
 10
0.0
 20
0.0
 30
0.0
 70
   128
 71
   672
 72
   700
 73
  -674
  0
VERTEX
  8
RK-LAVAT
 10
0.0
 20
0.0
 30
0.0
 70
   128
 71
   673
 72
  -674
 73
   701
  0
VERTEX
  8
RK-LAVAT
 10
0.0
 20
0.0
 30
0.0
 70
   128
 71
   674
 72
   702
 73
  -701
  0
VERTEX
  8
RK-LAVAT
 10
0.0
 20
0.0
 30
0.0
 70
   128
 71
   675
 72
  -673
 73
   703
  0
VERTEX
  8
RK-LAVAT
 10
0.0
 20
0.0
 30
0.0
 70
   128
 71
   673
 72
   701
 73
  -703
  0
VERTEX
  8
RK-LAVAT
 10
0.0
 20
0.0
 30
0.0
 70
   128
 71
   676
 72
  -675
 73
   704
  0
VERTEX
  8
RK-LAVAT
 10
0.0
 20
0.0
 30
0.0
 70
   128
 71
   675
 72
   703
 73
  -704
  0
VERTEX
  8
RK-LAVAT
 10
0.0
 20
0.0
 30
0.0
 70
   128
 71
   677
 72
  -676
 73
   705
  0
VERTEX
  8
RK-LAVAT
 10
0.0
 20
0.0
 30
0.0
 70
   128
 71
   676
 72
   704
 73
  -705
  0
VERTEX
  8
RK-LAVAT
 10
0.0
 20
0.0
 30
0.0
 70
   128
 71
   678
 72
  -677
 73
   706
  0
VERTEX
  8
RK-LAVAT
 10
0.0
 20
0.0
 30
0.0
 70
   128
 71
   677
 72
   705
 73
  -706
  0
VERTEX
  8
RK-LAVAT
 10
0.0
 20
0.0
 30
0.0
 70
   128
 71
   679
 72
  -678
 73
   707
  0
VERTEX
  8
RK-LAVAT
 10
0.0
 20
0.0
 30
0.0
 70
   128
 71
   678
 72
   706
 73
  -707
  0
VERTEX
  8
RK-LAVAT
 10
0.0
 20
0.0
 30
0.0
 70
   128
 71
   680
 72
  -679
 73
   708
  0
VERTEX
  8
RK-LAVAT
 10
0.0
 20
0.0
 30
0.0
 70
   128
 71
   679
 72
   707
 73
  -708
  0
VERTEX
  8
RK-LAVAT
 10
0.0
 20
0.0
 30
0.0
 70
   128
 71
   681
 72
  -680
 73
   709
  0
VERTEX
  8
RK-LAVAT
 10
0.0
 20
0.0
 30
0.0
 70
   128
 71
   680
 72
   708
 73
  -709
  0
VERTEX
  8
RK-LAVAT
 10
0.0
 20
0.0
 30
0.0
 70
   128
 71
   682
 72
  -681
 73
   710
  0
VERTEX
  8
RK-LAVAT
 10
0.0
 20
0.0
 30
0.0
 70
   128
 71
   681
 72
   709
 73
  -710
  0
VERTEX
  8
RK-LAVAT
 10
0.0
 20
0.0
 30
0.0
 70
   128
 71
   683
 72
  -682
 73
   711
  0
VERTEX
  8
RK-LAVAT
 10
0.0
 20
0.0
 30
0.0
 70
   128
 71
   682
 72
   710
 73
  -711
  0
VERTEX
  8
RK-LAVAT
 10
0.0
 20
0.0
 30
0.0
 70
   128
 71
   684
 72
  -683
 73
   712
  0
VERTEX
  8
RK-LAVAT
 10
0.0
 20
0.0
 30
0.0
 70
   128
 71
   683
 72
   711
 73
  -712
  0
VERTEX
  8
RK-LAVAT
 10
0.0
 20
0.0
 30
0.0
 70
   128
 71
   685
 72
  -684
 73
   713
  0
VERTEX
  8
RK-LAVAT
 10
0.0
 20
0.0
 30
0.0
 70
   128
 71
   684
 72
   712
 73
  -713
  0
VERTEX
  8
RK-LAVAT
 10
0.0
 20
0.0
 30
0.0
 70
   128
 71
   686
 72
  -685
 73
   714
  0
VERTEX
  8
RK-LAVAT
 10
0.0
 20
0.0
 30
0.0
 70
   128
 71
   685
 72
   713
 73
  -714
  0
VERTEX
  8
RK-LAVAT
 10
0.0
 20
0.0
 30
0.0
 70
   128
 71
   687
 72
  -686
 73
   715
  0
VERTEX
  8
RK-LAVAT
 10
0.0
 20
0.0
 30
0.0
 70
   128
 71
   686
 72
   714
 73
  -715
  0
VERTEX
  8
RK-LAVAT
 10
0.0
 20
0.0
 30
0.0
 70
   128
 71
   688
 72
  -687
 73
   716
  0
VERTEX
  8
RK-LAVAT
 10
0.0
 20
0.0
 30
0.0
 70
   128
 71
   687
 72
   715
 73
  -716
  0
VERTEX
  8
RK-LAVAT
 10
0.0
 20
0.0
 30
0.0
 70
   128
 71
   689
 72
  -688
 73
   717
  0
VERTEX
  8
RK-LAVAT
 10
0.0
 20
0.0
 30
0.0
 70
   128
 71
   688
 72
   716
 73
  -717
  0
VERTEX
  8
RK-LAVAT
 10
0.0
 20
0.0
 30
0.0
 70
   128
 71
   690
 72
  -689
 73
   718
  0
VERTEX
  8
RK-LAVAT
 10
0.0
 20
0.0
 30
0.0
 70
   128
 71
   689
 72
   717
 73
  -718
  0
VERTEX
  8
RK-LAVAT
 10
0.0
 20
0.0
 30
0.0
 70
   128
 71
   691
 72
  -690
 73
   719
  0
VERTEX
  8
RK-LAVAT
 10
0.0
 20
0.0
 30
0.0
 70
   128
 71
   690
 72
   718
 73
  -719
  0
VERTEX
  8
RK-LAVAT
 10
0.0
 20
0.0
 30
0.0
 70
   128
 71
   692
 72
  -691
 73
   720
  0
VERTEX
  8
RK-LAVAT
 10
0.0
 20
0.0
 30
0.0
 70
   128
 71
   691
 72
   719
 73
  -720
  0
VERTEX
  8
RK-LAVAT
 10
0.0
 20
0.0
 30
0.0
 70
   128
 71
   693
 72
  -692
 73
   721
  0
VERTEX
  8
RK-LAVAT
 10
0.0
 20
0.0
 30
0.0
 70
   128
 71
   692
 72
   720
 73
  -721
  0
VERTEX
  8
RK-LAVAT
 10
0.0
 20
0.0
 30
0.0
 70
   128
 71
   694
 72
  -693
 73
   722
  0
VERTEX
  8
RK-LAVAT
 10
0.0
 20
0.0
 30
0.0
 70
   128
 71
   693
 72
   721
 73
  -722
  0
VERTEX
  8
RK-LAVAT
 10
0.0
 20
0.0
 30
0.0
 70
   128
 71
   695
 72
  -694
 73
   723
  0
VERTEX
  8
RK-LAVAT
 10
0.0
 20
0.0
 30
0.0
 70
   128
 71
   694
 72
   722
 73
  -723
  0
VERTEX
  8
RK-LAVAT
 10
0.0
 20
0.0
 30
0.0
 70
   128
 71
   696
 72
  -695
 73
   724
  0
VERTEX
  8
RK-LAVAT
 10
0.0
 20
0.0
 30
0.0
 70
   128
 71
   695
 72
   723
 73
  -724
  0
VERTEX
  8
RK-LAVAT
 10
0.0
 20
0.0
 30
0.0
 70
   128
 71
   697
 72
  -696
 73
   725
  0
VERTEX
  8
RK-LAVAT
 10
0.0
 20
0.0
 30
0.0
 70
   128
 71
   696
 72
   724
 73
  -725
  0
VERTEX
  8
RK-LAVAT
 10
0.0
 20
0.0
 30
0.0
 70
   128
 71
   698
 72
  -697
 73
   726
  0
VERTEX
  8
RK-LAVAT
 10
0.0
 20
0.0
 30
0.0
 70
   128
 71
   697
 72
   725
 73
  -726
  0
VERTEX
  8
RK-LAVAT
 10
0.0
 20
0.0
 30
0.0
 70
   128
 71
   699
 72
  -698
 73
   727
  0
VERTEX
  8
RK-LAVAT
 10
0.0
 20
0.0
 30
0.0
 70
   128
 71
   698
 72
   726
 73
  -727
  0
VERTEX
  8
RK-LAVAT
 10
0.0
 20
0.0
 30
0.0
 70
   128
 71
   700
 72
  -699
 73
   728
  0
VERTEX
  8
RK-LAVAT
 10
0.0
 20
0.0
 30
0.0
 70
   128
 71
   699
 72
   727
 73
  -728
  0
VERTEX
  8
RK-LAVAT
 10
0.0
 20
0.0
 30
0.0
 70
   128
 71
   674
 72
  -700
 73
   702
  0
VERTEX
  8
RK-LAVAT
 10
0.0
 20
0.0
 30
0.0
 70
   128
 71
   700
 72
   728
 73
  -702
  0
VERTEX
  8
RK-LAVAT
 10
0.0
 20
0.0
 30
0.0
 70
   128
 71
   701
 72
  -702
 73
   729
  0
VERTEX
  8
RK-LAVAT
 10
0.0
 20
0.0
 30
0.0
 70
   128
 71
   702
 72
   730
 73
  -729
  0
VERTEX
  8
RK-LAVAT
 10
0.0
 20
0.0
 30
0.0
 70
   128
 71
   703
 72
  -701
 73
   731
  0
VERTEX
  8
RK-LAVAT
 10
0.0
 20
0.0
 30
0.0
 70
   128
 71
   701
 72
   729
 73
  -731
  0
VERTEX
  8
RK-LAVAT
 10
0.0
 20
0.0
 30
0.0
 70
   128
 71
   704
 72
  -703
 73
   732
  0
VERTEX
  8
RK-LAVAT
 10
0.0
 20
0.0
 30
0.0
 70
   128
 71
   703
 72
   731
 73
  -732
  0
VERTEX
  8
RK-LAVAT
 10
0.0
 20
0.0
 30
0.0
 70
   128
 71
   705
 72
  -704
 73
   733
  0
VERTEX
  8
RK-LAVAT
 10
0.0
 20
0.0
 30
0.0
 70
   128
 71
   704
 72
   732
 73
  -733
  0
VERTEX
  8
RK-LAVAT
 10
0.0
 20
0.0
 30
0.0
 70
   128
 71
   706
 72
  -705
 73
   734
  0
VERTEX
  8
RK-LAVAT
 10
0.0
 20
0.0
 30
0.0
 70
   128
 71
   705
 72
   733
 73
  -734
  0
VERTEX
  8
RK-LAVAT
 10
0.0
 20
0.0
 30
0.0
 70
   128
 71
   707
 72
  -706
 73
   735
  0
VERTEX
  8
RK-LAVAT
 10
0.0
 20
0.0
 30
0.0
 70
   128
 71
   706
 72
   734
 73
  -735
  0
VERTEX
  8
RK-LAVAT
 10
0.0
 20
0.0
 30
0.0
 70
   128
 71
   708
 72
  -707
 73
   736
  0
VERTEX
  8
RK-LAVAT
 10
0.0
 20
0.0
 30
0.0
 70
   128
 71
   707
 72
   735
 73
  -736
  0
VERTEX
  8
RK-LAVAT
 10
0.0
 20
0.0
 30
0.0
 70
   128
 71
   709
 72
  -708
 73
   737
  0
VERTEX
  8
RK-LAVAT
 10
0.0
 20
0.0
 30
0.0
 70
   128
 71
   708
 72
   736
 73
  -737
  0
VERTEX
  8
RK-LAVAT
 10
0.0
 20
0.0
 30
0.0
 70
   128
 71
   710
 72
  -709
 73
   738
  0
VERTEX
  8
RK-LAVAT
 10
0.0
 20
0.0
 30
0.0
 70
   128
 71
   709
 72
   737
 73
  -738
  0
VERTEX
  8
RK-LAVAT
 10
0.0
 20
0.0
 30
0.0
 70
   128
 71
   711
 72
  -710
 73
   739
  0
VERTEX
  8
RK-LAVAT
 10
0.0
 20
0.0
 30
0.0
 70
   128
 71
   710
 72
   738
 73
  -739
  0
VERTEX
  8
RK-LAVAT
 10
0.0
 20
0.0
 30
0.0
 70
   128
 71
   712
 72
  -711
 73
   740
  0
VERTEX
  8
RK-LAVAT
 10
0.0
 20
0.0
 30
0.0
 70
   128
 71
   711
 72
   739
 73
  -740
  0
VERTEX
  8
RK-LAVAT
 10
0.0
 20
0.0
 30
0.0
 70
   128
 71
   713
 72
  -712
 73
   741
  0
VERTEX
  8
RK-LAVAT
 10
0.0
 20
0.0
 30
0.0
 70
   128
 71
   712
 72
   740
 73
  -741
  0
VERTEX
  8
RK-LAVAT
 10
0.0
 20
0.0
 30
0.0
 70
   128
 71
   714
 72
  -713
 73
   742
  0
VERTEX
  8
RK-LAVAT
 10
0.0
 20
0.0
 30
0.0
 70
   128
 71
   713
 72
   741
 73
  -742
  0
VERTEX
  8
RK-LAVAT
 10
0.0
 20
0.0
 30
0.0
 70
   128
 71
   715
 72
  -714
 73
   743
  0
VERTEX
  8
RK-LAVAT
 10
0.0
 20
0.0
 30
0.0
 70
   128
 71
   714
 72
   742
 73
  -743
  0
VERTEX
  8
RK-LAVAT
 10
0.0
 20
0.0
 30
0.0
 70
   128
 71
   716
 72
  -715
 73
   744
  0
VERTEX
  8
RK-LAVAT
 10
0.0
 20
0.0
 30
0.0
 70
   128
 71
   715
 72
   743
 73
  -744
  0
VERTEX
  8
RK-LAVAT
 10
0.0
 20
0.0
 30
0.0
 70
   128
 71
   717
 72
  -716
 73
   745
  0
VERTEX
  8
RK-LAVAT
 10
0.0
 20
0.0
 30
0.0
 70
   128
 71
   716
 72
   744
 73
  -745
  0
VERTEX
  8
RK-LAVAT
 10
0.0
 20
0.0
 30
0.0
 70
   128
 71
   718
 72
  -717
 73
   746
  0
VERTEX
  8
RK-LAVAT
 10
0.0
 20
0.0
 30
0.0
 70
   128
 71
   717
 72
   745
 73
  -746
  0
VERTEX
  8
RK-LAVAT
 10
0.0
 20
0.0
 30
0.0
 70
   128
 71
   719
 72
  -718
 73
   747
  0
VERTEX
  8
RK-LAVAT
 10
0.0
 20
0.0
 30
0.0
 70
   128
 71
   718
 72
   746
 73
  -747
  0
VERTEX
  8
RK-LAVAT
 10
0.0
 20
0.0
 30
0.0
 70
   128
 71
   720
 72
  -719
 73
   748
  0
VERTEX
  8
RK-LAVAT
 10
0.0
 20
0.0
 30
0.0
 70
   128
 71
   719
 72
   747
 73
  -748
  0
VERTEX
  8
RK-LAVAT
 10
0.0
 20
0.0
 30
0.0
 70
   128
 71
   721
 72
  -720
 73
   749
  0
VERTEX
  8
RK-LAVAT
 10
0.0
 20
0.0
 30
0.0
 70
   128
 71
   720
 72
   748
 73
  -749
  0
VERTEX
  8
RK-LAVAT
 10
0.0
 20
0.0
 30
0.0
 70
   128
 71
   722
 72
  -721
 73
   750
  0
VERTEX
  8
RK-LAVAT
 10
0.0
 20
0.0
 30
0.0
 70
   128
 71
   721
 72
   749
 73
  -750
  0
VERTEX
  8
RK-LAVAT
 10
0.0
 20
0.0
 30
0.0
 70
   128
 71
   723
 72
  -722
 73
   751
  0
VERTEX
  8
RK-LAVAT
 10
0.0
 20
0.0
 30
0.0
 70
   128
 71
   722
 72
   750
 73
  -751
  0
VERTEX
  8
RK-LAVAT
 10
0.0
 20
0.0
 30
0.0
 70
   128
 71
   724
 72
  -723
 73
   752
  0
VERTEX
  8
RK-LAVAT
 10
0.0
 20
0.0
 30
0.0
 70
   128
 71
   723
 72
   751
 73
  -752
  0
VERTEX
  8
RK-LAVAT
 10
0.0
 20
0.0
 30
0.0
 70
   128
 71
   725
 72
  -724
 73
   753
  0
VERTEX
  8
RK-LAVAT
 10
0.0
 20
0.0
 30
0.0
 70
   128
 71
   724
 72
   752
 73
  -753
  0
VERTEX
  8
RK-LAVAT
 10
0.0
 20
0.0
 30
0.0
 70
   128
 71
   726
 72
  -725
 73
   754
  0
VERTEX
  8
RK-LAVAT
 10
0.0
 20
0.0
 30
0.0
 70
   128
 71
   725
 72
   753
 73
  -754
  0
VERTEX
  8
RK-LAVAT
 10
0.0
 20
0.0
 30
0.0
 70
   128
 71
   727
 72
  -726
 73
   755
  0
VERTEX
  8
RK-LAVAT
 10
0.0
 20
0.0
 30
0.0
 70
   128
 71
   726
 72
   754
 73
  -755
  0
VERTEX
  8
RK-LAVAT
 10
0.0
 20
0.0
 30
0.0
 70
   128
 71
   728
 72
  -727
 73
   756
  0
VERTEX
  8
RK-LAVAT
 10
0.0
 20
0.0
 30
0.0
 70
   128
 71
   727
 72
   755
 73
  -756
  0
VERTEX
  8
RK-LAVAT
 10
0.0
 20
0.0
 30
0.0
 70
   128
 71
   702
 72
  -728
 73
   730
  0
VERTEX
  8
RK-LAVAT
 10
0.0
 20
0.0
 30
0.0
 70
   128
 71
   728
 72
   756
 73
  -730
  0
VERTEX
  8
RK-LAVAT
 10
0.0
 20
0.0
 30
0.0
 70
   128
 71
   729
 72
  -730
 73
   757
  0
VERTEX
  8
RK-LAVAT
 10
0.0
 20
0.0
 30
0.0
 70
   128
 71
   730
 72
   758
 73
  -757
  0
VERTEX
  8
RK-LAVAT
 10
0.0
 20
0.0
 30
0.0
 70
   128
 71
   731
 72
  -729
 73
   759
  0
VERTEX
  8
RK-LAVAT
 10
0.0
 20
0.0
 30
0.0
 70
   128
 71
   729
 72
   757
 73
  -759
  0
VERTEX
  8
RK-LAVAT
 10
0.0
 20
0.0
 30
0.0
 70
   128
 71
   732
 72
  -731
 73
   760
  0
VERTEX
  8
RK-LAVAT
 10
0.0
 20
0.0
 30
0.0
 70
   128
 71
   731
 72
   759
 73
  -760
  0
VERTEX
  8
RK-LAVAT
 10
0.0
 20
0.0
 30
0.0
 70
   128
 71
   733
 72
  -732
 73
   761
  0
VERTEX
  8
RK-LAVAT
 10
0.0
 20
0.0
 30
0.0
 70
   128
 71
   732
 72
   760
 73
  -761
  0
VERTEX
  8
RK-LAVAT
 10
0.0
 20
0.0
 30
0.0
 70
   128
 71
   734
 72
  -733
 73
   762
  0
VERTEX
  8
RK-LAVAT
 10
0.0
 20
0.0
 30
0.0
 70
   128
 71
   733
 72
   761
 73
  -762
  0
VERTEX
  8
RK-LAVAT
 10
0.0
 20
0.0
 30
0.0
 70
   128
 71
   735
 72
  -734
 73
   763
  0
VERTEX
  8
RK-LAVAT
 10
0.0
 20
0.0
 30
0.0
 70
   128
 71
   734
 72
   762
 73
  -763
  0
VERTEX
  8
RK-LAVAT
 10
0.0
 20
0.0
 30
0.0
 70
   128
 71
   736
 72
  -735
 73
   764
  0
VERTEX
  8
RK-LAVAT
 10
0.0
 20
0.0
 30
0.0
 70
   128
 71
   735
 72
   763
 73
  -764
  0
VERTEX
  8
RK-LAVAT
 10
0.0
 20
0.0
 30
0.0
 70
   128
 71
   737
 72
  -736
 73
   765
  0
VERTEX
  8
RK-LAVAT
 10
0.0
 20
0.0
 30
0.0
 70
   128
 71
   736
 72
   764
 73
  -765
  0
VERTEX
  8
RK-LAVAT
 10
0.0
 20
0.0
 30
0.0
 70
   128
 71
   738
 72
  -737
 73
   766
  0
VERTEX
  8
RK-LAVAT
 10
0.0
 20
0.0
 30
0.0
 70
   128
 71
   737
 72
   765
 73
  -766
  0
VERTEX
  8
RK-LAVAT
 10
0.0
 20
0.0
 30
0.0
 70
   128
 71
   739
 72
  -738
 73
   767
  0
VERTEX
  8
RK-LAVAT
 10
0.0
 20
0.0
 30
0.0
 70
   128
 71
   738
 72
   766
 73
  -767
  0
VERTEX
  8
RK-LAVAT
 10
0.0
 20
0.0
 30
0.0
 70
   128
 71
   740
 72
  -739
 73
   768
  0
VERTEX
  8
RK-LAVAT
 10
0.0
 20
0.0
 30
0.0
 70
   128
 71
   739
 72
   767
 73
  -768
  0
VERTEX
  8
RK-LAVAT
 10
0.0
 20
0.0
 30
0.0
 70
   128
 71
   741
 72
  -740
 73
   769
  0
VERTEX
  8
RK-LAVAT
 10
0.0
 20
0.0
 30
0.0
 70
   128
 71
   740
 72
   768
 73
  -769
  0
VERTEX
  8
RK-LAVAT
 10
0.0
 20
0.0
 30
0.0
 70
   128
 71
   742
 72
  -741
 73
   770
  0
VERTEX
  8
RK-LAVAT
 10
0.0
 20
0.0
 30
0.0
 70
   128
 71
   741
 72
   769
 73
  -770
  0
VERTEX
  8
RK-LAVAT
 10
0.0
 20
0.0
 30
0.0
 70
   128
 71
   743
 72
  -742
 73
   771
  0
VERTEX
  8
RK-LAVAT
 10
0.0
 20
0.0
 30
0.0
 70
   128
 71
   742
 72
   770
 73
  -771
  0
VERTEX
  8
RK-LAVAT
 10
0.0
 20
0.0
 30
0.0
 70
   128
 71
   744
 72
  -743
 73
   772
  0
VERTEX
  8
RK-LAVAT
 10
0.0
 20
0.0
 30
0.0
 70
   128
 71
   743
 72
   771
 73
  -772
  0
VERTEX
  8
RK-LAVAT
 10
0.0
 20
0.0
 30
0.0
 70
   128
 71
   745
 72
  -744
 73
   773
  0
VERTEX
  8
RK-LAVAT
 10
0.0
 20
0.0
 30
0.0
 70
   128
 71
   744
 72
   772
 73
  -773
  0
VERTEX
  8
RK-LAVAT
 10
0.0
 20
0.0
 30
0.0
 70
   128
 71
   746
 72
  -745
 73
   774
  0
VERTEX
  8
RK-LAVAT
 10
0.0
 20
0.0
 30
0.0
 70
   128
 71
   745
 72
   773
 73
  -774
  0
VERTEX
  8
RK-LAVAT
 10
0.0
 20
0.0
 30
0.0
 70
   128
 71
   747
 72
  -746
 73
   775
  0
VERTEX
  8
RK-LAVAT
 10
0.0
 20
0.0
 30
0.0
 70
   128
 71
   746
 72
   774
 73
  -775
  0
VERTEX
  8
RK-LAVAT
 10
0.0
 20
0.0
 30
0.0
 70
   128
 71
   748
 72
  -747
 73
   776
  0
VERTEX
  8
RK-LAVAT
 10
0.0
 20
0.0
 30
0.0
 70
   128
 71
   747
 72
   775
 73
  -776
  0
VERTEX
  8
RK-LAVAT
 10
0.0
 20
0.0
 30
0.0
 70
   128
 71
   749
 72
  -748
 73
   777
  0
VERTEX
  8
RK-LAVAT
 10
0.0
 20
0.0
 30
0.0
 70
   128
 71
   748
 72
   776
 73
  -777
  0
VERTEX
  8
RK-LAVAT
 10
0.0
 20
0.0
 30
0.0
 70
   128
 71
   750
 72
  -749
 73
   778
  0
VERTEX
  8
RK-LAVAT
 10
0.0
 20
0.0
 30
0.0
 70
   128
 71
   749
 72
   777
 73
  -778
  0
VERTEX
  8
RK-LAVAT
 10
0.0
 20
0.0
 30
0.0
 70
   128
 71
   751
 72
  -750
 73
   779
  0
VERTEX
  8
RK-LAVAT
 10
0.0
 20
0.0
 30
0.0
 70
   128
 71
   750
 72
   778
 73
  -779
  0
VERTEX
  8
RK-LAVAT
 10
0.0
 20
0.0
 30
0.0
 70
   128
 71
   752
 72
  -751
 73
   780
  0
VERTEX
  8
RK-LAVAT
 10
0.0
 20
0.0
 30
0.0
 70
   128
 71
   751
 72
   779
 73
  -780
  0
VERTEX
  8
RK-LAVAT
 10
0.0
 20
0.0
 30
0.0
 70
   128
 71
   753
 72
  -752
 73
   781
  0
VERTEX
  8
RK-LAVAT
 10
0.0
 20
0.0
 30
0.0
 70
   128
 71
   752
 72
   780
 73
  -781
  0
VERTEX
  8
RK-LAVAT
 10
0.0
 20
0.0
 30
0.0
 70
   128
 71
   754
 72
  -753
 73
   782
  0
VERTEX
  8
RK-LAVAT
 10
0.0
 20
0.0
 30
0.0
 70
   128
 71
   753
 72
   781
 73
  -782
  0
VERTEX
  8
RK-LAVAT
 10
0.0
 20
0.0
 30
0.0
 70
   128
 71
   755
 72
  -754
 73
   783
  0
VERTEX
  8
RK-LAVAT
 10
0.0
 20
0.0
 30
0.0
 70
   128
 71
   754
 72
   782
 73
  -783
  0
VERTEX
  8
RK-LAVAT
 10
0.0
 20
0.0
 30
0.0
 70
   128
 71
   756
 72
  -755
 73
   784
  0
VERTEX
  8
RK-LAVAT
 10
0.0
 20
0.0
 30
0.0
 70
   128
 71
   755
 72
   783
 73
  -784
  0
VERTEX
  8
RK-LAVAT
 10
0.0
 20
0.0
 30
0.0
 70
   128
 71
   730
 72
  -756
 73
   758
  0
VERTEX
  8
RK-LAVAT
 10
0.0
 20
0.0
 30
0.0
 70
   128
 71
   756
 72
   784
 73
  -758
  0
VERTEX
  8
RK-LAVAT
 10
0.0
 20
0.0
 30
0.0
 70
   128
 71
   757
 72
  -758
 73
   785
  0
VERTEX
  8
RK-LAVAT
 10
0.0
 20
0.0
 30
0.0
 70
   128
 71
   758
 72
   786
 73
  -785
  0
VERTEX
  8
RK-LAVAT
 10
0.0
 20
0.0
 30
0.0
 70
   128
 71
   759
 72
  -757
 73
   787
  0
VERTEX
  8
RK-LAVAT
 10
0.0
 20
0.0
 30
0.0
 70
   128
 71
   757
 72
   785
 73
  -787
  0
VERTEX
  8
RK-LAVAT
 10
0.0
 20
0.0
 30
0.0
 70
   128
 71
   760
 72
  -759
 73
   788
  0
VERTEX
  8
RK-LAVAT
 10
0.0
 20
0.0
 30
0.0
 70
   128
 71
   759
 72
   787
 73
  -788
  0
VERTEX
  8
RK-LAVAT
 10
0.0
 20
0.0
 30
0.0
 70
   128
 71
   761
 72
  -760
 73
   789
  0
VERTEX
  8
RK-LAVAT
 10
0.0
 20
0.0
 30
0.0
 70
   128
 71
   760
 72
   788
 73
  -789
  0
VERTEX
  8
RK-LAVAT
 10
0.0
 20
0.0
 30
0.0
 70
   128
 71
   762
 72
  -761
 73
   790
  0
VERTEX
  8
RK-LAVAT
 10
0.0
 20
0.0
 30
0.0
 70
   128
 71
   761
 72
   789
 73
  -790
  0
VERTEX
  8
RK-LAVAT
 10
0.0
 20
0.0
 30
0.0
 70
   128
 71
   763
 72
  -762
 73
   791
  0
VERTEX
  8
RK-LAVAT
 10
0.0
 20
0.0
 30
0.0
 70
   128
 71
   762
 72
   790
 73
  -791
  0
VERTEX
  8
RK-LAVAT
 10
0.0
 20
0.0
 30
0.0
 70
   128
 71
   764
 72
  -763
 73
   792
  0
VERTEX
  8
RK-LAVAT
 10
0.0
 20
0.0
 30
0.0
 70
   128
 71
   763
 72
   791
 73
  -792
  0
VERTEX
  8
RK-LAVAT
 10
0.0
 20
0.0
 30
0.0
 70
   128
 71
   765
 72
  -764
 73
   793
  0
VERTEX
  8
RK-LAVAT
 10
0.0
 20
0.0
 30
0.0
 70
   128
 71
   764
 72
   792
 73
  -793
  0
VERTEX
  8
RK-LAVAT
 10
0.0
 20
0.0
 30
0.0
 70
   128
 71
   766
 72
  -765
 73
   794
  0
VERTEX
  8
RK-LAVAT
 10
0.0
 20
0.0
 30
0.0
 70
   128
 71
   765
 72
   793
 73
  -794
  0
VERTEX
  8
RK-LAVAT
 10
0.0
 20
0.0
 30
0.0
 70
   128
 71
   767
 72
  -766
 73
   795
  0
VERTEX
  8
RK-LAVAT
 10
0.0
 20
0.0
 30
0.0
 70
   128
 71
   766
 72
   794
 73
  -795
  0
VERTEX
  8
RK-LAVAT
 10
0.0
 20
0.0
 30
0.0
 70
   128
 71
   768
 72
  -767
 73
   796
  0
VERTEX
  8
RK-LAVAT
 10
0.0
 20
0.0
 30
0.0
 70
   128
 71
   767
 72
   795
 73
  -796
  0
VERTEX
  8
RK-LAVAT
 10
0.0
 20
0.0
 30
0.0
 70
   128
 71
   769
 72
  -768
 73
   797
  0
VERTEX
  8
RK-LAVAT
 10
0.0
 20
0.0
 30
0.0
 70
   128
 71
   768
 72
   796
 73
  -797
  0
VERTEX
  8
RK-LAVAT
 10
0.0
 20
0.0
 30
0.0
 70
   128
 71
   770
 72
  -769
 73
   798
  0
VERTEX
  8
RK-LAVAT
 10
0.0
 20
0.0
 30
0.0
 70
   128
 71
   769
 72
   797
 73
  -798
  0
VERTEX
  8
RK-LAVAT
 10
0.0
 20
0.0
 30
0.0
 70
   128
 71
   771
 72
  -770
 73
   799
  0
VERTEX
  8
RK-LAVAT
 10
0.0
 20
0.0
 30
0.0
 70
   128
 71
   770
 72
   798
 73
  -799
  0
VERTEX
  8
RK-LAVAT
 10
0.0
 20
0.0
 30
0.0
 70
   128
 71
   772
 72
  -771
 73
   800
  0
VERTEX
  8
RK-LAVAT
 10
0.0
 20
0.0
 30
0.0
 70
   128
 71
   771
 72
   799
 73
  -800
  0
VERTEX
  8
RK-LAVAT
 10
0.0
 20
0.0
 30
0.0
 70
   128
 71
   773
 72
  -772
 73
   801
  0
VERTEX
  8
RK-LAVAT
 10
0.0
 20
0.0
 30
0.0
 70
   128
 71
   772
 72
   800
 73
  -801
  0
VERTEX
  8
RK-LAVAT
 10
0.0
 20
0.0
 30
0.0
 70
   128
 71
   774
 72
  -773
 73
   802
  0
VERTEX
  8
RK-LAVAT
 10
0.0
 20
0.0
 30
0.0
 70
   128
 71
   773
 72
   801
 73
  -802
  0
VERTEX
  8
RK-LAVAT
 10
0.0
 20
0.0
 30
0.0
 70
   128
 71
   775
 72
  -774
 73
   803
  0
VERTEX
  8
RK-LAVAT
 10
0.0
 20
0.0
 30
0.0
 70
   128
 71
   774
 72
   802
 73
  -803
  0
VERTEX
  8
RK-LAVAT
 10
0.0
 20
0.0
 30
0.0
 70
   128
 71
   776
 72
  -775
 73
   804
  0
VERTEX
  8
RK-LAVAT
 10
0.0
 20
0.0
 30
0.0
 70
   128
 71
   775
 72
   803
 73
  -804
  0
VERTEX
  8
RK-LAVAT
 10
0.0
 20
0.0
 30
0.0
 70
   128
 71
   777
 72
  -776
 73
   805
  0
VERTEX
  8
RK-LAVAT
 10
0.0
 20
0.0
 30
0.0
 70
   128
 71
   776
 72
   804
 73
  -805
  0
VERTEX
  8
RK-LAVAT
 10
0.0
 20
0.0
 30
0.0
 70
   128
 71
   778
 72
  -777
 73
   806
  0
VERTEX
  8
RK-LAVAT
 10
0.0
 20
0.0
 30
0.0
 70
   128
 71
   777
 72
   805
 73
  -806
  0
VERTEX
  8
RK-LAVAT
 10
0.0
 20
0.0
 30
0.0
 70
   128
 71
   779
 72
  -778
 73
   807
  0
VERTEX
  8
RK-LAVAT
 10
0.0
 20
0.0
 30
0.0
 70
   128
 71
   778
 72
   806
 73
  -807
  0
VERTEX
  8
RK-LAVAT
 10
0.0
 20
0.0
 30
0.0
 70
   128
 71
   780
 72
  -779
 73
   808
  0
VERTEX
  8
RK-LAVAT
 10
0.0
 20
0.0
 30
0.0
 70
   128
 71
   779
 72
   807
 73
  -808
  0
VERTEX
  8
RK-LAVAT
 10
0.0
 20
0.0
 30
0.0
 70
   128
 71
   781
 72
  -780
 73
   809
  0
VERTEX
  8
RK-LAVAT
 10
0.0
 20
0.0
 30
0.0
 70
   128
 71
   780
 72
   808
 73
  -809
  0
VERTEX
  8
RK-LAVAT
 10
0.0
 20
0.0
 30
0.0
 70
   128
 71
   782
 72
  -781
 73
   810
  0
VERTEX
  8
RK-LAVAT
 10
0.0
 20
0.0
 30
0.0
 70
   128
 71
   781
 72
   809
 73
  -810
  0
VERTEX
  8
RK-LAVAT
 10
0.0
 20
0.0
 30
0.0
 70
   128
 71
   783
 72
  -782
 73
   811
  0
VERTEX
  8
RK-LAVAT
 10
0.0
 20
0.0
 30
0.0
 70
   128
 71
   782
 72
   810
 73
  -811
  0
VERTEX
  8
RK-LAVAT
 10
0.0
 20
0.0
 30
0.0
 70
   128
 71
   784
 72
  -783
 73
   812
  0
VERTEX
  8
RK-LAVAT
 10
0.0
 20
0.0
 30
0.0
 70
   128
 71
   783
 72
   811
 73
  -812
  0
VERTEX
  8
RK-LAVAT
 10
0.0
 20
0.0
 30
0.0
 70
   128
 71
   758
 72
  -784
 73
   786
  0
VERTEX
  8
RK-LAVAT
 10
0.0
 20
0.0
 30
0.0
 70
   128
 71
   784
 72
   812
 73
  -786
  0
VERTEX
  8
RK-LAVAT
 10
0.0
 20
0.0
 30
0.0
 70
   128
 71
   785
 72
  -786
 73
   813
  0
VERTEX
  8
RK-LAVAT
 10
0.0
 20
0.0
 30
0.0
 70
   128
 71
   786
 72
   814
 73
  -813
  0
VERTEX
  8
RK-LAVAT
 10
0.0
 20
0.0
 30
0.0
 70
   128
 71
   787
 72
  -785
 73
   815
  0
VERTEX
  8
RK-LAVAT
 10
0.0
 20
0.0
 30
0.0
 70
   128
 71
   785
 72
   813
 73
  -815
  0
VERTEX
  8
RK-LAVAT
 10
0.0
 20
0.0
 30
0.0
 70
   128
 71
   788
 72
  -787
 73
   816
  0
VERTEX
  8
RK-LAVAT
 10
0.0
 20
0.0
 30
0.0
 70
   128
 71
   787
 72
   815
 73
  -816
  0
VERTEX
  8
RK-LAVAT
 10
0.0
 20
0.0
 30
0.0
 70
   128
 71
   789
 72
  -788
 73
   817
  0
VERTEX
  8
RK-LAVAT
 10
0.0
 20
0.0
 30
0.0
 70
   128
 71
   788
 72
   816
 73
  -817
  0
VERTEX
  8
RK-LAVAT
 10
0.0
 20
0.0
 30
0.0
 70
   128
 71
   790
 72
  -789
 73
   818
  0
VERTEX
  8
RK-LAVAT
 10
0.0
 20
0.0
 30
0.0
 70
   128
 71
   789
 72
   817
 73
  -818
  0
VERTEX
  8
RK-LAVAT
 10
0.0
 20
0.0
 30
0.0
 70
   128
 71
   791
 72
  -790
 73
   819
  0
VERTEX
  8
RK-LAVAT
 10
0.0
 20
0.0
 30
0.0
 70
   128
 71
   790
 72
   818
 73
  -819
  0
VERTEX
  8
RK-LAVAT
 10
0.0
 20
0.0
 30
0.0
 70
   128
 71
   792
 72
  -791
 73
   820
  0
VERTEX
  8
RK-LAVAT
 10
0.0
 20
0.0
 30
0.0
 70
   128
 71
   791
 72
   819
 73
  -820
  0
VERTEX
  8
RK-LAVAT
 10
0.0
 20
0.0
 30
0.0
 70
   128
 71
   793
 72
  -792
 73
   821
  0
VERTEX
  8
RK-LAVAT
 10
0.0
 20
0.0
 30
0.0
 70
   128
 71
   792
 72
   820
 73
  -821
  0
VERTEX
  8
RK-LAVAT
 10
0.0
 20
0.0
 30
0.0
 70
   128
 71
   794
 72
  -793
 73
   822
  0
VERTEX
  8
RK-LAVAT
 10
0.0
 20
0.0
 30
0.0
 70
   128
 71
   793
 72
   821
 73
  -822
  0
VERTEX
  8
RK-LAVAT
 10
0.0
 20
0.0
 30
0.0
 70
   128
 71
   795
 72
  -794
 73
   823
  0
VERTEX
  8
RK-LAVAT
 10
0.0
 20
0.0
 30
0.0
 70
   128
 71
   794
 72
   822
 73
  -823
  0
VERTEX
  8
RK-LAVAT
 10
0.0
 20
0.0
 30
0.0
 70
   128
 71
   796
 72
  -795
 73
   824
  0
VERTEX
  8
RK-LAVAT
 10
0.0
 20
0.0
 30
0.0
 70
   128
 71
   795
 72
   823
 73
  -824
  0
VERTEX
  8
RK-LAVAT
 10
0.0
 20
0.0
 30
0.0
 70
   128
 71
   797
 72
  -796
 73
   825
  0
VERTEX
  8
RK-LAVAT
 10
0.0
 20
0.0
 30
0.0
 70
   128
 71
   796
 72
   824
 73
  -825
  0
VERTEX
  8
RK-LAVAT
 10
0.0
 20
0.0
 30
0.0
 70
   128
 71
   798
 72
  -797
 73
   826
  0
VERTEX
  8
RK-LAVAT
 10
0.0
 20
0.0
 30
0.0
 70
   128
 71
   797
 72
   825
 73
  -826
  0
VERTEX
  8
RK-LAVAT
 10
0.0
 20
0.0
 30
0.0
 70
   128
 71
   799
 72
  -798
 73
   827
  0
VERTEX
  8
RK-LAVAT
 10
0.0
 20
0.0
 30
0.0
 70
   128
 71
   798
 72
   826
 73
  -827
  0
VERTEX
  8
RK-LAVAT
 10
0.0
 20
0.0
 30
0.0
 70
   128
 71
   800
 72
  -799
 73
   828
  0
VERTEX
  8
RK-LAVAT
 10
0.0
 20
0.0
 30
0.0
 70
   128
 71
   799
 72
   827
 73
  -828
  0
VERTEX
  8
RK-LAVAT
 10
0.0
 20
0.0
 30
0.0
 70
   128
 71
   801
 72
  -800
 73
   829
  0
VERTEX
  8
RK-LAVAT
 10
0.0
 20
0.0
 30
0.0
 70
   128
 71
   800
 72
   828
 73
  -829
  0
VERTEX
  8
RK-LAVAT
 10
0.0
 20
0.0
 30
0.0
 70
   128
 71
   802
 72
  -801
 73
   830
  0
VERTEX
  8
RK-LAVAT
 10
0.0
 20
0.0
 30
0.0
 70
   128
 71
   801
 72
   829
 73
  -830
  0
VERTEX
  8
RK-LAVAT
 10
0.0
 20
0.0
 30
0.0
 70
   128
 71
   803
 72
  -802
 73
   831
  0
VERTEX
  8
RK-LAVAT
 10
0.0
 20
0.0
 30
0.0
 70
   128
 71
   802
 72
   830
 73
  -831
  0
VERTEX
  8
RK-LAVAT
 10
0.0
 20
0.0
 30
0.0
 70
   128
 71
   804
 72
  -803
 73
   832
  0
VERTEX
  8
RK-LAVAT
 10
0.0
 20
0.0
 30
0.0
 70
   128
 71
   803
 72
   831
 73
  -832
  0
VERTEX
  8
RK-LAVAT
 10
0.0
 20
0.0
 30
0.0
 70
   128
 71
   805
 72
  -804
 73
   833
  0
VERTEX
  8
RK-LAVAT
 10
0.0
 20
0.0
 30
0.0
 70
   128
 71
   804
 72
   832
 73
  -833
  0
VERTEX
  8
RK-LAVAT
 10
0.0
 20
0.0
 30
0.0
 70
   128
 71
   806
 72
  -805
 73
   834
  0
VERTEX
  8
RK-LAVAT
 10
0.0
 20
0.0
 30
0.0
 70
   128
 71
   805
 72
   833
 73
  -834
  0
VERTEX
  8
RK-LAVAT
 10
0.0
 20
0.0
 30
0.0
 70
   128
 71
   807
 72
  -806
 73
   835
  0
VERTEX
  8
RK-LAVAT
 10
0.0
 20
0.0
 30
0.0
 70
   128
 71
   806
 72
   834
 73
  -835
  0
VERTEX
  8
RK-LAVAT
 10
0.0
 20
0.0
 30
0.0
 70
   128
 71
   808
 72
  -807
 73
   836
  0
VERTEX
  8
RK-LAVAT
 10
0.0
 20
0.0
 30
0.0
 70
   128
 71
   807
 72
   835
 73
  -836
  0
VERTEX
  8
RK-LAVAT
 10
0.0
 20
0.0
 30
0.0
 70
   128
 71
   809
 72
  -808
 73
   837
  0
VERTEX
  8
RK-LAVAT
 10
0.0
 20
0.0
 30
0.0
 70
   128
 71
   808
 72
   836
 73
  -837
  0
VERTEX
  8
RK-LAVAT
 10
0.0
 20
0.0
 30
0.0
 70
   128
 71
   810
 72
  -809
 73
   838
  0
VERTEX
  8
RK-LAVAT
 10
0.0
 20
0.0
 30
0.0
 70
   128
 71
   809
 72
   837
 73
  -838
  0
VERTEX
  8
RK-LAVAT
 10
0.0
 20
0.0
 30
0.0
 70
   128
 71
   811
 72
  -810
 73
   839
  0
VERTEX
  8
RK-LAVAT
 10
0.0
 20
0.0
 30
0.0
 70
   128
 71
   810
 72
   838
 73
  -839
  0
VERTEX
  8
RK-LAVAT
 10
0.0
 20
0.0
 30
0.0
 70
   128
 71
   812
 72
  -811
 73
   840
  0
VERTEX
  8
RK-LAVAT
 10
0.0
 20
0.0
 30
0.0
 70
   128
 71
   811
 72
   839
 73
  -840
  0
VERTEX
  8
RK-LAVAT
 10
0.0
 20
0.0
 30
0.0
 70
   128
 71
   786
 72
  -812
 73
   814
  0
VERTEX
  8
RK-LAVAT
 10
0.0
 20
0.0
 30
0.0
 70
   128
 71
   812
 72
   840
 73
  -814
  0
VERTEX
  8
RK-LAVAT
 10
0.0
 20
0.0
 30
0.0
 70
   128
 71
   813
 72
  -814
 73
   841
  0
VERTEX
  8
RK-LAVAT
 10
0.0
 20
0.0
 30
0.0
 70
   128
 71
   815
 72
  -813
 73
   842
  0
VERTEX
  8
RK-LAVAT
 10
0.0
 20
0.0
 30
0.0
 70
   128
 71
   813
 72
   841
 73
  -842
  0
VERTEX
  8
RK-LAVAT
 10
0.0
 20
0.0
 30
0.0
 70
   128
 71
   816
 72
  -815
 73
   843
  0
VERTEX
  8
RK-LAVAT
 10
0.0
 20
0.0
 30
0.0
 70
   128
 71
   815
 72
   842
 73
  -843
  0
VERTEX
  8
RK-LAVAT
 10
0.0
 20
0.0
 30
0.0
 70
   128
 71
   817
 72
  -816
 73
   844
  0
VERTEX
  8
RK-LAVAT
 10
0.0
 20
0.0
 30
0.0
 70
   128
 71
   816
 72
   843
 73
  -844
  0
VERTEX
  8
RK-LAVAT
 10
0.0
 20
0.0
 30
0.0
 70
   128
 71
   818
 72
  -817
 73
   845
  0
VERTEX
  8
RK-LAVAT
 10
0.0
 20
0.0
 30
0.0
 70
   128
 71
   817
 72
   844
 73
  -845
  0
VERTEX
  8
RK-LAVAT
 10
0.0
 20
0.0
 30
0.0
 70
   128
 71
   819
 72
  -818
 73
   846
  0
VERTEX
  8
RK-LAVAT
 10
0.0
 20
0.0
 30
0.0
 70
   128
 71
   818
 72
   845
 73
  -846
  0
VERTEX
  8
RK-LAVAT
 10
0.0
 20
0.0
 30
0.0
 70
   128
 71
   820
 72
  -819
 73
   847
  0
VERTEX
  8
RK-LAVAT
 10
0.0
 20
0.0
 30
0.0
 70
   128
 71
   819
 72
   846
 73
  -847
  0
VERTEX
  8
RK-LAVAT
 10
0.0
 20
0.0
 30
0.0
 70
   128
 71
   821
 72
  -820
 73
   848
  0
VERTEX
  8
RK-LAVAT
 10
0.0
 20
0.0
 30
0.0
 70
   128
 71
   820
 72
   847
 73
  -848
  0
VERTEX
  8
RK-LAVAT
 10
0.0
 20
0.0
 30
0.0
 70
   128
 71
   822
 72
  -821
 73
   849
  0
VERTEX
  8
RK-LAVAT
 10
0.0
 20
0.0
 30
0.0
 70
   128
 71
   821
 72
   848
 73
  -849
  0
VERTEX
  8
RK-LAVAT
 10
0.0
 20
0.0
 30
0.0
 70
   128
 71
   823
 72
  -822
 73
   850
  0
VERTEX
  8
RK-LAVAT
 10
0.0
 20
0.0
 30
0.0
 70
   128
 71
   822
 72
   849
 73
  -850
  0
VERTEX
  8
RK-LAVAT
 10
0.0
 20
0.0
 30
0.0
 70
   128
 71
   824
 72
  -823
 73
   851
  0
VERTEX
  8
RK-LAVAT
 10
0.0
 20
0.0
 30
0.0
 70
   128
 71
   823
 72
   850
 73
  -851
  0
VERTEX
  8
RK-LAVAT
 10
0.0
 20
0.0
 30
0.0
 70
   128
 71
   825
 72
  -824
 73
   852
  0
VERTEX
  8
RK-LAVAT
 10
0.0
 20
0.0
 30
0.0
 70
   128
 71
   824
 72
   851
 73
  -852
  0
VERTEX
  8
RK-LAVAT
 10
0.0
 20
0.0
 30
0.0
 70
   128
 71
   826
 72
  -825
 73
   853
  0
VERTEX
  8
RK-LAVAT
 10
0.0
 20
0.0
 30
0.0
 70
   128
 71
   825
 72
   852
 73
  -853
  0
VERTEX
  8
RK-LAVAT
 10
0.0
 20
0.0
 30
0.0
 70
   128
 71
   827
 72
  -826
 73
   854
  0
VERTEX
  8
RK-LAVAT
 10
0.0
 20
0.0
 30
0.0
 70
   128
 71
   826
 72
   853
 73
  -854
  0
VERTEX
  8
RK-LAVAT
 10
0.0
 20
0.0
 30
0.0
 70
   128
 71
   828
 72
  -827
 73
   854
  0
VERTEX
  8
RK-LAVAT
 10
0.0
 20
0.0
 30
0.0
 70
   128
 71
   829
 72
  -828
 73
   855
  0
VERTEX
  8
RK-LAVAT
 10
0.0
 20
0.0
 30
0.0
 70
   128
 71
   828
 72
   854
 73
  -855
  0
VERTEX
  8
RK-LAVAT
 10
0.0
 20
0.0
 30
0.0
 70
   128
 71
   830
 72
  -829
 73
   856
  0
VERTEX
  8
RK-LAVAT
 10
0.0
 20
0.0
 30
0.0
 70
   128
 71
   829
 72
   855
 73
  -856
  0
VERTEX
  8
RK-LAVAT
 10
0.0
 20
0.0
 30
0.0
 70
   128
 71
   831
 72
  -830
 73
   851
  0
VERTEX
  8
RK-LAVAT
 10
0.0
 20
0.0
 30
0.0
 70
   128
 71
   830
 72
   856
 73
  -851
  0
VERTEX
  8
RK-LAVAT
 10
0.0
 20
0.0
 30
0.0
 70
   128
 71
   832
 72
  -831
 73
   857
  0
VERTEX
  8
RK-LAVAT
 10
0.0
 20
0.0
 30
0.0
 70
   128
 71
   831
 72
   851
 73
  -857
  0
VERTEX
  8
RK-LAVAT
 10
0.0
 20
0.0
 30
0.0
 70
   128
 71
   833
 72
  -832
 73
   849
  0
VERTEX
  8
RK-LAVAT
 10
0.0
 20
0.0
 30
0.0
 70
   128
 71
   832
 72
   857
 73
  -849
  0
VERTEX
  8
RK-LAVAT
 10
0.0
 20
0.0
 30
0.0
 70
   128
 71
   834
 72
  -833
 73
   848
  0
VERTEX
  8
RK-LAVAT
 10
0.0
 20
0.0
 30
0.0
 70
   128
 71
   833
 72
   849
 73
  -848
  0
VERTEX
  8
RK-LAVAT
 10
0.0
 20
0.0
 30
0.0
 70
   128
 71
   835
 72
  -834
 73
   847
  0
VERTEX
  8
RK-LAVAT
 10
0.0
 20
0.0
 30
0.0
 70
   128
 71
   834
 72
   848
 73
  -847
  0
VERTEX
  8
RK-LAVAT
 10
0.0
 20
0.0
 30
0.0
 70
   128
 71
   836
 72
  -835
 73
   846
  0
VERTEX
  8
RK-LAVAT
 10
0.0
 20
0.0
 30
0.0
 70
   128
 71
   835
 72
   847
 73
  -846
  0
VERTEX
  8
RK-LAVAT
 10
0.0
 20
0.0
 30
0.0
 70
   128
 71
   837
 72
  -836
 73
   845
  0
VERTEX
  8
RK-LAVAT
 10
0.0
 20
0.0
 30
0.0
 70
   128
 71
   836
 72
   846
 73
  -845
  0
VERTEX
  8
RK-LAVAT
 10
0.0
 20
0.0
 30
0.0
 70
   128
 71
   838
 72
  -837
 73
   844
  0
VERTEX
  8
RK-LAVAT
 10
0.0
 20
0.0
 30
0.0
 70
   128
 71
   837
 72
   845
 73
  -844
  0
VERTEX
  8
RK-LAVAT
 10
0.0
 20
0.0
 30
0.0
 70
   128
 71
   839
 72
  -838
 73
   843
  0
VERTEX
  8
RK-LAVAT
 10
0.0
 20
0.0
 30
0.0
 70
   128
 71
   838
 72
   844
 73
  -843
  0
VERTEX
  8
RK-LAVAT
 10
0.0
 20
0.0
 30
0.0
 70
   128
 71
   840
 72
  -839
 73
   842
  0
VERTEX
  8
RK-LAVAT
 10
0.0
 20
0.0
 30
0.0
 70
   128
 71
   839
 72
   843
 73
  -842
  0
VERTEX
  8
RK-LAVAT
 10
0.0
 20
0.0
 30
0.0
 70
   128
 71
   814
 72
  -840
 73
   841
  0
VERTEX
  8
RK-LAVAT
 10
0.0
 20
0.0
 30
0.0
 70
   128
 71
   840
 72
   842
 73
  -841
  0
VERTEX
  8
RK-LAVAT
 10
0.0
 20
0.0
 30
0.0
 70
   128
 71
  -860
 72
   858
 73
   859
  0
VERTEX
  8
RK-LAVAT
 10
0.0
 20
0.0
 30
0.0
 70
   128
 71
   861
 72
  -858
 73
   860
  0
VERTEX
  8
RK-LAVAT
 10
0.0
 20
0.0
 30
0.0
 70
   128
 71
  -863
 72
   858
 73
   862
  0
VERTEX
  8
RK-LAVAT
 10
0.0
 20
0.0
 30
0.0
 70
   128
 71
  -858
 72
   863
 73
   859
  0
VERTEX
  8
RK-LAVAT
 10
0.0
 20
0.0
 30
0.0
 70
   128
 71
  -864
 72
   863
 73
   862
  0
VERTEX
  8
RK-LAVAT
 10
0.0
 20
0.0
 30
0.0
 70
   128
 71
  -863
 72
   864
 73
   865
  0
VERTEX
  8
RK-LAVAT
 10
0.0
 20
0.0
 30
0.0
 70
   128
 71
  -864
 72
   866
 73
   865
  0
VERTEX
  8
RK-LAVAT
 10
0.0
 20
0.0
 30
0.0
 70
   128
 71
   864
 72
   867
 73
  -866
  0
VERTEX
  8
RK-LAVAT
 10
0.0
 20
0.0
 30
0.0
 70
   128
 71
  -866
 72
   868
 73
   869
  0
VERTEX
  8
RK-LAVAT
 10
0.0
 20
0.0
 30
0.0
 70
   128
 71
   867
 72
  -868
 73
   866
  0
VERTEX
  8
RK-LAVAT
 10
0.0
 20
0.0
 30
0.0
 70
   128
 71
  -871
 72
   868
 73
   870
  0
VERTEX
  8
RK-LAVAT
 10
0.0
 20
0.0
 30
0.0
 70
   128
 71
  -868
 72
   871
 73
   869
  0
VERTEX
  8
RK-LAVAT
 10
0.0
 20
0.0
 30
0.0
 70
   128
 71
  -874
 72
   872
 73
   873
  0
VERTEX
  8
RK-LAVAT
 10
0.0
 20
0.0
 30
0.0
 70
   128
 71
  -872
 72
   874
 73
   875
  0
VERTEX
  8
RK-LAVAT
 10
0.0
 20
0.0
 30
0.0
 70
   128
 71
  -874
 72
   876
 73
   875
  0
VERTEX
  8
RK-LAVAT
 10
0.0
 20
0.0
 30
0.0
 70
   128
 71
   874
 72
   877
 73
  -876
  0
VERTEX
  8
RK-LAVAT
 10
0.0
 20
0.0
 30
0.0
 70
   128
 71
  -876
 72
   878
 73
   879
  0
VERTEX
  8
RK-LAVAT
 10
0.0
 20
0.0
 30
0.0
 70
   128
 71
   877
 72
  -878
 73
   876
  0
VERTEX
  8
RK-LAVAT
 10
0.0
 20
0.0
 30
0.0
 70
   128
 71
  -881
 72
   878
 73
   880
  0
VERTEX
  8
RK-LAVAT
 10
0.0
 20
0.0
 30
0.0
 70
   128
 71
  -878
 72
   881
 73
   879
  0
VERTEX
  8
RK-LAVAT
 10
0.0
 20
0.0
 30
0.0
 70
   128
 71
  -882
 72
   881
 73
   880
  0
VERTEX
  8
RK-LAVAT
 10
0.0
 20
0.0
 30
0.0
 70
   128
 71
  -881
 72
   882
 73
   883
  0
VERTEX
  8
RK-LAVAT
 10
0.0
 20
0.0
 30
0.0
 70
   128
 71
  -882
 72
   884
 73
   883
  0
VERTEX
  8
RK-LAVAT
 10
0.0
 20
0.0
 30
0.0
 70
   128
 71
   882
 72
   885
 73
  -884
  0
VERTEX
  8
RK-LAVAT
 10
0.0
 20
0.0
 30
0.0
 70
   128
 71
  -888
 72
   886
 73
   887
  0
VERTEX
  8
RK-LAVAT
 10
0.0
 20
0.0
 30
0.0
 70
   128
 71
   889
 72
  -886
 73
   888
  0
VERTEX
  8
RK-LAVAT
 10
0.0
 20
0.0
 30
0.0
 70
   128
 71
  -891
 72
   886
 73
   890
  0
VERTEX
  8
RK-LAVAT
 10
0.0
 20
0.0
 30
0.0
 70
   128
 71
  -886
 72
   891
 73
   887
  0
VERTEX
  8
RK-LAVAT
 10
0.0
 20
0.0
 30
0.0
 70
   128
 71
  -892
 72
   891
 73
   890
  0
VERTEX
  8
RK-LAVAT
 10
0.0
 20
0.0
 30
0.0
 70
   128
 71
  -891
 72
   892
 73
   893
  0
VERTEX
  8
RK-LAVAT
 10
0.0
 20
0.0
 30
0.0
 70
   128
 71
  -892
 72
   894
 73
   893
  0
VERTEX
  8
RK-LAVAT
 10
0.0
 20
0.0
 30
0.0
 70
   128
 71
   892
 72
   895
 73
  -894
  0
VERTEX
  8
RK-LAVAT
 10
0.0
 20
0.0
 30
0.0
 70
   128
 71
  -894
 72
   896
 73
   897
  0
VERTEX
  8
RK-LAVAT
 10
0.0
 20
0.0
 30
0.0
 70
   128
 71
   895
 72
  -896
 73
   894
  0
VERTEX
  8
RK-LAVAT
 10
0.0
 20
0.0
 30
0.0
 70
   128
 71
  -899
 72
   896
 73
   898
  0
VERTEX
  8
RK-LAVAT
 10
0.0
 20
0.0
 30
0.0
 70
   128
 71
  -896
 72
   899
 73
   897
  0
VERTEX
  8
RK-LAVAT
 10
0.0
 20
0.0
 30
0.0
 70
   128
 71
  -902
 72
   900
 73
   901
  0
VERTEX
  8
RK-LAVAT
 10
0.0
 20
0.0
 30
0.0
 70
   128
 71
  -900
 72
   902
 73
   903
  0
VERTEX
  8
RK-LAVAT
 10
0.0
 20
0.0
 30
0.0
 70
   128
 71
  -902
 72
   904
 73
   903
  0
VERTEX
  8
RK-LAVAT
 10
0.0
 20
0.0
 30
0.0
 70
   128
 71
   902
 72
   905
 73
  -904
  0
VERTEX
  8
RK-LAVAT
 10
0.0
 20
0.0
 30
0.0
 70
   128
 71
  -904
 72
   906
 73
   907
  0
VERTEX
  8
RK-LAVAT
 10
0.0
 20
0.0
 30
0.0
 70
   128
 71
   905
 72
  -906
 73
   904
  0
VERTEX
  8
RK-LAVAT
 10
0.0
 20
0.0
 30
0.0
 70
   128
 71
  -909
 72
   906
 73
   908
  0
VERTEX
  8
RK-LAVAT
 10
0.0
 20
0.0
 30
0.0
 70
   128
 71
  -906
 72
   909
 73
   907
  0
VERTEX
  8
RK-LAVAT
 10
0.0
 20
0.0
 30
0.0
 70
   128
 71
  -910
 72
   909
 73
   908
  0
VERTEX
  8
RK-LAVAT
 10
0.0
 20
0.0
 30
0.0
 70
   128
 71
  -909
 72
   910
 73
   911
  0
VERTEX
  8
RK-LAVAT
 10
0.0
 20
0.0
 30
0.0
 70
   128
 71
  -910
 72
   912
 73
   911
  0
VERTEX
  8
RK-LAVAT
 10
0.0
 20
0.0
 30
0.0
 70
   128
 71
   910
 72
   913
 73
  -912
  0
VERTEX
  8
RK-LAVAT
 10
0.0
 20
0.0
 30
0.0
 70
   128
 71
  -898
 72
   900
 73
   899
  0
VERTEX
  8
RK-LAVAT
 10
0.0
 20
0.0
 30
0.0
 70
   128
 71
  -900
 72
   898
 73
   901
  0
VERTEX
  8
RK-LAVAT
 10
0.0
 20
0.0
 30
0.0
 70
   128
 71
  -861
 72
   912
 73
   913
  0
VERTEX
  8
RK-LAVAT
 10
0.0
 20
0.0
 30
0.0
 70
   128
 71
   860
 72
  -912
 73
   861
  0
VERTEX
  8
RK-LAVAT
 10
0.0
 20
0.0
 30
0.0
 70
   128
 71
  -872
 72
   870
 73
   873
  0
VERTEX
  8
RK-LAVAT
 10
0.0
 20
0.0
 30
0.0
 70
   128
 71
   872
 72
   871
 73
  -870
  0
VERTEX
  8
RK-LAVAT
 10
0.0
 20
0.0
 30
0.0
 70
   128
 71
  -884
 72
   889
 73
   888
  0
VERTEX
  8
RK-LAVAT
 10
0.0
 20
0.0
 30
0.0
 70
   128
 71
  -889
 72
   884
 73
   885
  0
VERTEX
  8
RK-LAVAT
 10
0.0
 20
0.0
 30
0.0
 70
   128
 71
  -898
 72
  -914
 73
   901
  0
VERTEX
  8
RK-LAVAT
 10
0.0
 20
0.0
 30
0.0
 70
   128
 71
  -898
 72
   915
 73
  -914
  0
VERTEX
  8
RK-LAVAT
 10
0.0
 20
0.0
 30
0.0
 70
   128
 71
  -898
 72
   916
 73
  -915
  0
VERTEX
  8
RK-LAVAT
 10
0.0
 20
0.0
 30
0.0
 70
   128
 71
  -898
 72
   917
 73
  -916
  0
VERTEX
  8
RK-LAVAT
 10
0.0
 20
0.0
 30
0.0
 70
   128
 71
  -898
 72
   918
 73
  -917
  0
VERTEX
  8
RK-LAVAT
 10
0.0
 20
0.0
 30
0.0
 70
   128
 71
  -896
 72
  -918
 73
   898
  0
VERTEX
  8
RK-LAVAT
 10
0.0
 20
0.0
 30
0.0
 70
   128
 71
  -896
 72
   919
 73
  -918
  0
VERTEX
  8
RK-LAVAT
 10
0.0
 20
0.0
 30
0.0
 70
   128
 71
  -895
 72
  -919
 73
   896
  0
VERTEX
  8
RK-LAVAT
 10
0.0
 20
0.0
 30
0.0
 70
   128
 71
  -895
 72
   920
 73
  -919
  0
VERTEX
  8
RK-LAVAT
 10
0.0
 20
0.0
 30
0.0
 70
   128
 71
  -895
 72
   921
 73
  -920
  0
VERTEX
  8
RK-LAVAT
 10
0.0
 20
0.0
 30
0.0
 70
   128
 71
  -892
 72
  -921
 73
   895
  0
VERTEX
  8
RK-LAVAT
 10
0.0
 20
0.0
 30
0.0
 70
   128
 71
  -890
 72
  -921
 73
   892
  0
VERTEX
  8
RK-LAVAT
 10
0.0
 20
0.0
 30
0.0
 70
   128
 71
  -886
 72
  -921
 73
   890
  0
VERTEX
  8
RK-LAVAT
 10
0.0
 20
0.0
 30
0.0
 70
   128
 71
  -889
 72
  -921
 73
   886
  0
VERTEX
  8
RK-LAVAT
 10
0.0
 20
0.0
 30
0.0
 70
   128
 71
  -885
 72
  -921
 73
   889
  0
VERTEX
  8
RK-LAVAT
 10
0.0
 20
0.0
 30
0.0
 70
   128
 71
  -885
 72
   922
 73
  -921
  0
VERTEX
  8
RK-LAVAT
 10
0.0
 20
0.0
 30
0.0
 70
   128
 71
  -885
 72
   923
 73
  -922
  0
VERTEX
  8
RK-LAVAT
 10
0.0
 20
0.0
 30
0.0
 70
   128
 71
  -882
 72
  -923
 73
   885
  0
VERTEX
  8
RK-LAVAT
 10
0.0
 20
0.0
 30
0.0
 70
   128
 71
  -878
 72
   882
 73
   880
  0
VERTEX
  8
RK-LAVAT
 10
0.0
 20
0.0
 30
0.0
 70
   128
 71
  -874
 72
   878
 73
   877
  0
VERTEX
  8
RK-LAVAT
 10
0.0
 20
0.0
 30
0.0
 70
   128
 71
  -870
 72
   874
 73
   873
  0
VERTEX
  8
RK-LAVAT
 10
0.0
 20
0.0
 30
0.0
 70
   128
 71
  -867
 72
   870
 73
   868
  0
VERTEX
  8
RK-LAVAT
 10
0.0
 20
0.0
 30
0.0
 70
   128
 71
  -862
 72
   867
 73
   864
  0
VERTEX
  8
RK-LAVAT
 10
0.0
 20
0.0
 30
0.0
 70
   128
 71
  -861
 72
   862
 73
   858
  0
VERTEX
  8
RK-LAVAT
 10
0.0
 20
0.0
 30
0.0
 70
   128
 71
  -910
 72
   861
 73
   913
  0
VERTEX
  8
RK-LAVAT
 10
0.0
 20
0.0
 30
0.0
 70
   128
 71
  -906
 72
   910
 73
   908
  0
VERTEX
  8
RK-LAVAT
 10
0.0
 20
0.0
 30
0.0
 70
   128
 71
  -902
 72
   906
 73
   905
  0
VERTEX
  8
RK-LAVAT
 10
0.0
 20
0.0
 30
0.0
 70
   128
 71
  -914
 72
   902
 73
  -901
  0
VERTEX
  8
RK-LAVAT
 10
0.0
 20
0.0
 30
0.0
 70
   128
 71
  -882
 72
   924
 73
  -923
  0
VERTEX
  8
RK-LAVAT
 10
0.0
 20
0.0
 30
0.0
 70
   128
 71
  -882
 72
   925
 73
  -924
  0
VERTEX
  8
RK-LAVAT
 10
0.0
 20
0.0
 30
0.0
 70
   128
 71
  -882
 72
   926
 73
  -925
  0
VERTEX
  8
RK-LAVAT
 10
0.0
 20
0.0
 30
0.0
 70
   128
 71
  -878
 72
  -926
 73
  -882
  0
VERTEX
  8
RK-LAVAT
 10
0.0
 20
0.0
 30
0.0
 70
   128
 71
  -878
 72
    17
 73
  -926
  0
VERTEX
  8
RK-LAVAT
 10
0.0
 20
0.0
 30
0.0
 70
   128
 71
  -878
 72
    15
 73
   -17
  0
VERTEX
  8
RK-LAVAT
 10
0.0
 20
0.0
 30
0.0
 70
   128
 71
  -874
 72
   -15
 73
  -878
  0
VERTEX
  8
RK-LAVAT
 10
0.0
 20
0.0
 30
0.0
 70
   128
 71
  -870
 72
   -15
 73
  -874
  0
VERTEX
  8
RK-LAVAT
 10
0.0
 20
0.0
 30
0.0
 70
   128
 71
  -870
 72
    13
 73
   -15
  0
VERTEX
  8
RK-LAVAT
 10
0.0
 20
0.0
 30
0.0
 70
   128
 71
  -870
 72
    11
 73
   -13
  0
VERTEX
  8
RK-LAVAT
 10
0.0
 20
0.0
 30
0.0
 70
   128
 71
  -870
 72
     9
 73
   -11
  0
VERTEX
  8
RK-LAVAT
 10
0.0
 20
0.0
 30
0.0
 70
   128
 71
  -867
 72
    -9
 73
  -870
  0
VERTEX
  8
RK-LAVAT
 10
0.0
 20
0.0
 30
0.0
 70
   128
 71
  -861
 72
  -867
 73
  -862
  0
VERTEX
  8
RK-LAVAT
 10
0.0
 20
0.0
 30
0.0
 70
   128
 71
  -906
 72
  -861
 73
  -910
  0
VERTEX
  8
RK-LAVAT
 10
0.0
 20
0.0
 30
0.0
 70
   128
 71
  -914
 72
  -906
 73
  -902
  0
VERTEX
  8
RK-LAVAT
 10
0.0
 20
0.0
 30
0.0
 70
   128
 71
   -45
 72
  -906
 73
   914
  0
VERTEX
  8
RK-LAVAT
 10
0.0
 20
0.0
 30
0.0
 70
   128
 71
  -867
 72
     7
 73
    -9
  0
VERTEX
  8
RK-LAVAT
 10
0.0
 20
0.0
 30
0.0
 70
   128
 71
  -867
 72
     5
 73
    -7
  0
VERTEX
  8
RK-LAVAT
 10
0.0
 20
0.0
 30
0.0
 70
   128
 71
  -867
 72
     1
 73
    -5
  0
VERTEX
  8
RK-LAVAT
 10
0.0
 20
0.0
 30
0.0
 70
   128
 71
  -867
 72
     2
 73
    -1
  0
VERTEX
  8
RK-LAVAT
 10
0.0
 20
0.0
 30
0.0
 70
   128
 71
  -861
 72
    -2
 73
  -867
  0
VERTEX
  8
RK-LAVAT
 10
0.0
 20
0.0
 30
0.0
 70
   128
 71
  -906
 72
    -2
 73
  -861
  0
VERTEX
  8
RK-LAVAT
 10
0.0
 20
0.0
 30
0.0
 70
   128
 71
   -47
 72
  -906
 73
    45
  0
VERTEX
  8
RK-LAVAT
 10
0.0
 20
0.0
 30
0.0
 70
   128
 71
   -49
 72
  -906
 73
    47
  0
VERTEX
  8
RK-LAVAT
 10
0.0
 20
0.0
 30
0.0
 70
   128
 71
  -906
 72
    55
 73
    -2
  0
VERTEX
  8
RK-LAVAT
 10
0.0
 20
0.0
 30
0.0
 70
   128
 71
  -906
 72
    53
 73
   -55
  0
VERTEX
  8
RK-LAVAT
 10
0.0
 20
0.0
 30
0.0
 70
   128
 71
   -51
 72
  -906
 73
    49
  0
VERTEX
  8
RK-LAVAT
 10
0.0
 20
0.0
 30
0.0
 70
   128
 71
  -906
 72
    51
 73
   -53
  0
SEQEND
  8
RK-LAVAT
  0
INSERT
  8
0
  2
STRAINS
 10
11.59923423093938
 20
-3.670361316978097
 30
-0.002122
 41
0.7
 42
0.7
 43
0.7
  0
INSERT
  8
0
  2
02215PLN
 10
-0.018192479158337
 20
-16.17036131697809
 30
5.997878
  0
ENDSEC
  0
EOF
