  0
SECTION
  2
HEADER
  9
$ACADVER
  1
AC1009
  9
$INSBASE
 10
0.0
 20
0.0
 30
0.0
  9
$EXTMIN
 10
-11.415451
 20
-7.183226
 30
0.0
  9
$EXTMAX
 10
11.415451
 20
1.574199
 30
0.0
  9
$LIMMIN
 10
0.0
 20
0.0
  9
$LIMMAX
 10
12.0
 20
9.0
  9
$ORTHOMODE
 70
     0
  9
$REGENMODE
 70
     1
  9
$FILLMODE
 70
     0
  9
$QTEXTMODE
 70
     0
  9
$MIRRTEXT
 70
     1
  9
$DRAGMODE
 70
     2
  9
$LTSCALE
 40
1.0
  9
$OSMODE
 70
     0
  9
$ATTMODE
 70
     1
  9
$TEXTSIZE
 40
0.001
  9
$TRACEWID
 40
0.05
  9
$TEXTSTYLE
  7
STANDARD
  9
$CLAYER
  8
0
  9
$CELTYPE
  6
BYLAYER
  9
$CECOLOR
 62
   256
  9
$DIMSCALE
 40
1.0
  9
$DIMASZ
 40
0.18
  9
$DIMEXO
 40
0.0625
  9
$DIMDLI
 40
0.38
  9
$DIMRND
 40
0.0
  9
$DIMDLE
 40
0.0
  9
$DIMEXE
 40
0.18
  9
$DIMTP
 40
0.0
  9
$DIMTM
 40
0.0
  9
$DIMTXT
 40
0.18
  9
$DIMCEN
 40
0.09
  9
$DIMTSZ
 40
0.0
  9
$DIMTOL
 70
     0
  9
$DIMLIM
 70
     0
  9
$DIMTIH
 70
     1
  9
$DIMTOH
 70
     1
  9
$DIMSE1
 70
     0
  9
$DIMSE2
 70
     0
  9
$DIMTAD
 70
     0
  9
$DIMZIN
 70
     0
  9
$DIMBLK
  1

  9
$DIMASO
 70
     1
  9
$DIMSHO
 70
     1
  9
$DIMPOST
  1

  9
$DIMAPOST
  1

  9
$DIMALT
 70
     0
  9
$DIMALTD
 70
     2
  9
$DIMALTF
 40
25.4
  9
$DIMLFAC
 40
1.0
  9
$DIMTOFL
 70
     0
  9
$DIMTVP
 40
0.0
  9
$DIMTIX
 70
     0
  9
$DIMSOXD
 70
     0
  9
$DIMSAH
 70
     0
  9
$DIMBLK1
  1

  9
$DIMBLK2
  1

  9
$DIMSTYLE
  2
*UNNAMED
  9
$DIMCLRD
 70
     0
  9
$DIMCLRE
 70
     0
  9
$DIMCLRT
 70
     0
  9
$DIMTFAC
 40
1.0
  9
$DIMGAP
 40
0.09
  9
$LUNITS
 70
     2
  9
$LUPREC
 70
     4
  9
$SKETCHINC
 40
0.1
  9
$FILLETRAD
 40
0.0
  9
$AUNITS
 70
     0
  9
$AUPREC
 70
     0
  9
$MENU
  1
acad
  9
$ELEVATION
 40
0.0
  9
$PELEVATION
 40
0.0
  9
$THICKNESS
 40
0.0
  9
$LIMCHECK
 70
     0
  9
$BLIPMODE
 70
     0
  9
$CHAMFERA
 40
0.0
  9
$CHAMFERB
 40
0.0
  9
$SKPOLY
 70
     0
  9
$TDCREATE
 40
2450912.623692940
  9
$TDUPDATE
 40
2450912.624298726
  9
$TDINDWG
 40
0.0000324074
  9
$TDUSRTIMER
 40
0.0000324074
  9
$USRTIMER
 70
     1
  9
$ANGBASE
 50
0.0
  9
$ANGDIR
 70
     0
  9
$PDMODE
 70
     0
  9
$PDSIZE
 40
0.0
  9
$PLINEWID
 40
0.0
  9
$COORDS
 70
     1
  9
$SPLFRAME
 70
     0
  9
$SPLINETYPE
 70
     6
  9
$SPLINESEGS
 70
     8
  9
$ATTDIA
 70
     0
  9
$ATTREQ
 70
     1
  9
$HANDLING
 70
     0
  9
$HANDSEED
  5
0
  9
$SURFTAB1
 70
     6
  9
$SURFTAB2
 70
     6
  9
$SURFTYPE
 70
     6
  9
$SURFU
 70
     6
  9
$SURFV
 70
     6
  9
$UCSNAME
  2

  9
$UCSORG
 10
0.0
 20
0.0
 30
0.0
  9
$UCSXDIR
 10
1.0
 20
0.0
 30
0.0
  9
$UCSYDIR
 10
0.0
 20
1.0
 30
0.0
  9
$PUCSNAME
  2

  9
$PUCSORG
 10
0.0
 20
0.0
 30
0.0
  9
$PUCSXDIR
 10
1.0
 20
0.0
 30
0.0
  9
$PUCSYDIR
 10
0.0
 20
1.0
 30
0.0
  9
$USERI1
 70
     0
  9
$USERI2
 70
     0
  9
$USERI3
 70
     0
  9
$USERI4
 70
     0
  9
$USERI5
 70
     0
  9
$USERR1
 40
0.0
  9
$USERR2
 40
0.0
  9
$USERR3
 40
0.0
  9
$USERR4
 40
0.0
  9
$USERR5
 40
0.0
  9
$WORLDVIEW
 70
     1
  9
$SHADEDGE
 70
     3
  9
$SHADEDIF
 70
    70
  9
$TILEMODE
 70
     1
  9
$MAXACTVP
 70
    16
  9
$PINSBASE
 10
0.0
 20
0.0
 30
0.0
  9
$PLIMCHECK
 70
     0
  9
$PEXTMIN
 10
1.000000E+20
 20
1.000000E+20
 30
1.000000E+20
  9
$PEXTMAX
 10
-1.000000E+20
 20
-1.000000E+20
 30
-1.000000E+20
  9
$PLIMMIN
 10
0.0
 20
0.0
  9
$PLIMMAX
 10
12.0
 20
9.0
  9
$UNITMODE
 70
     0
  9
$VISRETAIN
 70
     0
  9
$PLINEGEN
 70
     0
  9
$PSLTSCALE
 70
     1
  9
$TREEDEPTH
 70
  3020
  9
$DWGCODEPAGE
  3
iso8859-1
  0
ENDSEC
  0
SECTION
  2
TABLES
  0
TABLE
  2
VPORT
 70
     2
  0
VPORT
  2
*ACTIVE
 70
     0
 10
0.0
 20
0.0
 11
1.0
 21
1.0
 12
1.005264
 22
0.639056
 13
0.0
 23
0.0
 14
1.0
 24
1.0
 15
0.0
 25
0.0
 16
0.0
 26
0.0
 36
1.0
 17
0.0
 27
0.0
 37
0.0
 40
17.34031
 41
1.573846
 42
50.0
 43
0.0
 44
0.0
 50
0.0
 51
0.0
 71
     0
 72
   100
 73
     1
 74
     1
 75
     0
 76
     0
 77
     0
 78
     0
  0
ENDTAB
  0
TABLE
  2
LTYPE
 70
     2
  0
LTYPE
  2
CONTINUOUS
 70
    64
  3
Solid line
 72
    65
 73
     0
 40
0.0
  0
LTYPE
  2
HIDDEN
 70
    64
  3
__ __ __ __ __ __ __ __ __ __ __ __ __ __ __ __
 72
    65
 73
     2
 40
0.375
 49
0.25
 49
-0.125
  0
ENDTAB
  0
TABLE
  2
LAYER
 70
     1
  0
LAYER
  2
0
 70
    64
 62
     7
  6
CONTINUOUS
  0
ENDTAB
  0
TABLE
  2
STYLE
 70
     1
  0
STYLE
  2
STANDARD
 70
    64
 40
0.0
 41
1.0
 50
0.0
 71
     0
 42
0.001
  3
txt
  4

  0
ENDTAB
  0
TABLE
  2
VIEW
 70
     0
  0
ENDTAB
  0
TABLE
  2
UCS
 70
     0
  0
ENDTAB
  0
TABLE
  2
APPID
 70
     1
  0
APPID
  2
ACAD
 70
    64
  0
ENDTAB
  0
TABLE
  2
DIMSTYLE
 70
     0
  0
ENDTAB
  0
ENDSEC
  0
SECTION
  2
BLOCKS
  0
ENDSEC
  0
SECTION
  2
ENTITIES
  0
ARC
  8
0
  6
HIDDEN
 10
-0.674734
 20
-7.075361
 30
0.0
 40
0.088758
 50
180.578124
 51
271.615904
  0
LINE
  8
0
 10
-10.882475
 20
1.063134
 30
0.0
 11
10.882475
 21
1.063134
 31
0.0
  0
LINE
  8
0
 10
-10.423422
 20
1.561106
 30
0.0
 11
10.423422
 21
1.561106
 31
0.0
  0
LINE
  8
0
 10
11.376204
 20
0.0
 30
0.0
 11
-11.376204
 21
0.0
 31
0.0
  0
LINE
  8
0
 10
-11.071
 20
0.779804
 30
0.0
 11
-11.259478
 21
0.48057
 31
0.0
  0
ARC
  8
0
 10
-10.601916
 20
0.066394
 30
0.0
 40
0.777128
 50
147.794564
 51
184.901049
  0
ARC
  8
0
  6
HIDDEN
 10
-1.32844
 20
-6.035021
 30
0.0
 40
0.313535
 50
18.775192
 51
91.504271
  0
LINE
  8
0
  6
HIDDEN
 10
-1.031589
 20
-5.934108
 30
0.0
 11
-1.422584
 21
0.0
 31
0.0
  0
ARC
  8
0
  6
HIDDEN
 10
-0.651137
 20
-6.627714
 30
0.0
 40
0.343937
 50
182.975407
 51
234.397197
  0
ARC
  8
0
  6
HIDDEN
 10
-0.973815
 20
-7.078379
 30
0.0
 40
0.210338
 50
0.578124
 51
54.397197
  0
LINE
  8
0
  6
HIDDEN
 10
-1.031589
 20
-5.934108
 30
0.0
 11
-0.99461
 21
-6.645567
 31
0.0
  0
ARC
  8
0
  6
HIDDEN
 10
-1.397571
 20
1.626149
 30
0.0
 40
7.3672
 50
234.077152
 51
253.94322
  0
ARC
  8
0
  6
HIDDEN
 10
-1.449526
 20
1.554435
 30
0.0
 40
7.278644
 50
192.331123
 51
234.077152
  0
ARC
  8
0
  6
HIDDEN
 10
-1.518585
 20
1.205695
 30
0.0
 40
6.929677
 50
253.94322
 51
271.504271
  0
LINE
  8
0
 10
-10.537309
 20
1.505812
 30
0.0
 11
-10.780065
 21
1.220595
 31
0.0
  0
ARC
  8
0
 10
-10.691277
 20
1.145025
 30
0.0
 40
0.116593
 50
139.598025
 51
179.269279
  0
LINE
  8
0
 10
-11.043204
 20
0.950194
 30
0.0
 11
-11.071
 21
0.779804
 31
0.0
  0
ARC
  8
0
 10
-10.940707
 20
0.937413
 30
0.0
 40
0.103291
 50
104.877416
 51
172.891936
  0
ARC
  8
0
 10
-11.276066
 20
2.199785
 30
0.0
 40
1.202867
 50
284.877416
 51
290.155186
  0
ARC
  8
0
 10
-10.889856
 20
1.147558
 30
0.0
 40
0.082002
 50
290.155186
 51
359.269279
  0
ARC
  8
0
 10
-10.423422
 20
1.416176
 30
0.0
 40
0.14493
 50
90.0
 51
141.795173
  0
LINE
  8
0
 10
11.071
 20
0.779804
 30
0.0
 11
11.259478
 21
0.48057
 31
0.0
  0
ARC
  8
0
  6
HIDDEN
 10
1.449526
 20
1.554435
 30
0.0
 40
7.278644
 50
305.922848
 51
347.668877
  0
ARC
  8
0
  6
HIDDEN
 10
1.32844
 20
-6.035021
 30
0.0
 40
0.313535
 50
88.495729
 51
161.224808
  0
LINE
  8
0
  6
HIDDEN
 10
1.031589
 20
-5.934108
 30
0.0
 11
1.422584
 21
0.0
 31
0.0
  0
LINE
  8
0
  6
HIDDEN
 10
0.672231
 20
-7.164084
 30
0.0
 11
0.0
 21
-7.164084
 31
0.0
  0
LINE
  8
0
  6
HIDDEN
 10
-0.672231
 20
-7.164084
 30
0.0
 11
0.0
 21
-7.164084
 31
0.0
  0
ARC
  8
0
  6
HIDDEN
 10
0.651137
 20
-6.627714
 30
0.0
 40
0.343937
 50
305.602803
 51
357.024593
  0
ARC
  8
0
  6
HIDDEN
 10
0.674734
 20
-7.075361
 30
0.0
 40
0.088758
 50
268.384096
 51
359.421876
  0
ARC
  8
0
  6
HIDDEN
 10
0.973815
 20
-7.078379
 30
0.0
 40
0.210338
 50
125.602803
 51
179.421876
  0
LINE
  8
0
  6
HIDDEN
 10
1.031589
 20
-5.934108
 30
0.0
 11
0.99461
 21
-6.645567
 31
0.0
  0
ARC
  8
0
  6
HIDDEN
 10
1.397571
 20
1.626149
 30
0.0
 40
7.3672
 50
286.05678
 51
305.922848
  0
ARC
  8
0
  6
HIDDEN
 10
1.518585
 20
1.205695
 30
0.0
 40
6.929677
 50
268.495729
 51
286.05678
  0
ARC
  8
0
 10
10.601916
 20
0.066394
 30
0.0
 40
0.777128
 50
355.098951
 51
32.205436
  0
LINE
  8
0
 10
10.537309
 20
1.505812
 30
0.0
 11
10.780065
 21
1.220595
 31
0.0
  0
ARC
  8
0
 10
11.276066
 20
2.199785
 30
0.0
 40
1.202867
 50
249.844814
 51
255.122584
  0
ARC
  8
0
 10
10.889856
 20
1.147558
 30
0.0
 40
0.082002
 50
180.730721
 51
249.844814
  0
ARC
  8
0
 10
10.691277
 20
1.145025
 30
0.0
 40
0.116593
 50
0.730721
 51
40.401975
  0
LINE
  8
0
 10
11.043204
 20
0.950194
 30
0.0
 11
11.071
 21
0.779804
 31
0.0
  0
ARC
  8
0
 10
10.940707
 20
0.937413
 30
0.0
 40
0.103291
 50
7.108064
 51
75.122584
  0
ARC
  8
0
 10
10.423422
 20
1.416176
 30
0.0
 40
0.14493
 50
38.204827
 51
90.0
  0
ATTDEF
  8
0
 10
0.0
 20
0.0
 30
0.0
 40
0.001
  1
K-2241-8
  3

  2
MODELNUMBER
 70
     8
  0
ATTDEF
  8
0
 10
0.0
 20
-0.001667
 30
0.0
 40
0.001
  1
MEMOIRS
  3

  2
TRADENAME
 70
     8
  0
ATTDEF
  8
0
 10
0.0
 20
-0.003333
 30
0.0
 40
0.001
  1
LAVATORY
  3

  2
PRODUCT
 70
     8
  0
ATTDEF
  8
0
 10
0.0
 20
-0.005
 30
0.0
 40
0.001
  1
VITREOUS CHINA
  3

  2
MATERIAL
 70
     8
  0
ENDSEC
  0
EOF
