  0
SECTION
  2
HEADER
  9
$ACADVER
  1
AC1009
  9
$INSBASE
 10
0.0
 20
0.0
 30
0.0
  9
$EXTMIN
 10
-11.423113
 20
-9.041179
 30
0.0
  9
$EXTMAX
 10
11.423113
 20
9.03716
 30
0.0
  9
$LIMMIN
 10
0.0
 20
0.0
  9
$LIMMAX
 10
12.0
 20
9.0
  9
$ORTHOMODE
 70
     0
  9
$REGENMODE
 70
     1
  9
$FILLMODE
 70
     0
  9
$QTEXTMODE
 70
     0
  9
$MIRRTEXT
 70
     1
  9
$DRAGMODE
 70
     2
  9
$LTSCALE
 40
1.0
  9
$OSMODE
 70
     0
  9
$ATTMODE
 70
     1
  9
$TEXTSIZE
 40
0.001
  9
$TRACEWID
 40
0.05
  9
$TEXTSTYLE
  7
STANDARD
  9
$CLAYER
  8
0
  9
$CELTYPE
  6
BYLAYER
  9
$CECOLOR
 62
   256
  9
$DIMSCALE
 40
1.0
  9
$DIMASZ
 40
0.18
  9
$DIMEXO
 40
0.0625
  9
$DIMDLI
 40
0.38
  9
$DIMRND
 40
0.0
  9
$DIMDLE
 40
0.0
  9
$DIMEXE
 40
0.18
  9
$DIMTP
 40
0.0
  9
$DIMTM
 40
0.0
  9
$DIMTXT
 40
0.18
  9
$DIMCEN
 40
0.09
  9
$DIMTSZ
 40
0.0
  9
$DIMTOL
 70
     0
  9
$DIMLIM
 70
     0
  9
$DIMTIH
 70
     1
  9
$DIMTOH
 70
     1
  9
$DIMSE1
 70
     0
  9
$DIMSE2
 70
     0
  9
$DIMTAD
 70
     0
  9
$DIMZIN
 70
     0
  9
$DIMBLK
  1

  9
$DIMASO
 70
     1
  9
$DIMSHO
 70
     1
  9
$DIMPOST
  1

  9
$DIMAPOST
  1

  9
$DIMALT
 70
     0
  9
$DIMALTD
 70
     2
  9
$DIMALTF
 40
25.4
  9
$DIMLFAC
 40
1.0
  9
$DIMTOFL
 70
     0
  9
$DIMTVP
 40
0.0
  9
$DIMTIX
 70
     0
  9
$DIMSOXD
 70
     0
  9
$DIMSAH
 70
     0
  9
$DIMBLK1
  1

  9
$DIMBLK2
  1

  9
$DIMSTYLE
  2
*UNNAMED
  9
$DIMCLRD
 70
     0
  9
$DIMCLRE
 70
     0
  9
$DIMCLRT
 70
     0
  9
$DIMTFAC
 40
1.0
  9
$DIMGAP
 40
0.09
  9
$LUNITS
 70
     2
  9
$LUPREC
 70
     4
  9
$SKETCHINC
 40
0.1
  9
$FILLETRAD
 40
0.0
  9
$AUNITS
 70
     0
  9
$AUPREC
 70
     0
  9
$MENU
  1
acad
  9
$ELEVATION
 40
0.0
  9
$PELEVATION
 40
0.0
  9
$THICKNESS
 40
0.0
  9
$LIMCHECK
 70
     0
  9
$BLIPMODE
 70
     0
  9
$CHAMFERA
 40
0.0
  9
$CHAMFERB
 40
0.0
  9
$SKPOLY
 70
     0
  9
$TDCREATE
 40
2450912.624163310
  9
$TDUPDATE
 40
2450912.624375694
  9
$TDINDWG
 40
0.0000356481
  9
$TDUSRTIMER
 40
0.0000356481
  9
$USRTIMER
 70
     1
  9
$ANGBASE
 50
0.0
  9
$ANGDIR
 70
     0
  9
$PDMODE
 70
     0
  9
$PDSIZE
 40
0.0
  9
$PLINEWID
 40
0.0
  9
$COORDS
 70
     1
  9
$SPLFRAME
 70
     0
  9
$SPLINETYPE
 70
     6
  9
$SPLINESEGS
 70
     8
  9
$ATTDIA
 70
     0
  9
$ATTREQ
 70
     1
  9
$HANDLING
 70
     0
  9
$HANDSEED
  5
0
  9
$SURFTAB1
 70
     6
  9
$SURFTAB2
 70
     6
  9
$SURFTYPE
 70
     6
  9
$SURFU
 70
     6
  9
$SURFV
 70
     6
  9
$UCSNAME
  2

  9
$UCSORG
 10
0.0
 20
0.0
 30
0.0
  9
$UCSXDIR
 10
1.0
 20
0.0
 30
0.0
  9
$UCSYDIR
 10
0.0
 20
1.0
 30
0.0
  9
$PUCSNAME
  2

  9
$PUCSORG
 10
0.0
 20
0.0
 30
0.0
  9
$PUCSXDIR
 10
1.0
 20
0.0
 30
0.0
  9
$PUCSYDIR
 10
0.0
 20
1.0
 30
0.0
  9
$USERI1
 70
     0
  9
$USERI2
 70
     0
  9
$USERI3
 70
     0
  9
$USERI4
 70
     0
  9
$USERI5
 70
     0
  9
$USERR1
 40
0.0
  9
$USERR2
 40
0.0
  9
$USERR3
 40
0.0
  9
$USERR4
 40
0.0
  9
$USERR5
 40
0.0
  9
$WORLDVIEW
 70
     1
  9
$SHADEDGE
 70
     3
  9
$SHADEDIF
 70
    70
  9
$TILEMODE
 70
     1
  9
$MAXACTVP
 70
    16
  9
$PINSBASE
 10
-2.117987E+99
 20
0.0
 30
0.0
  9
$PLIMCHECK
 70
     0
  9
$PEXTMIN
 10
1.000000E+20
 20
1.000000E+20
 30
1.000000E+20
  9
$PEXTMAX
 10
-1.000000E+20
 20
-1.000000E+20
 30
-1.000000E+20
  9
$PLIMMIN
 10
0.0
 20
0.0
  9
$PLIMMAX
 10
12.0
 20
9.0
  9
$UNITMODE
 70
     0
  9
$VISRETAIN
 70
     0
  9
$PLINEGEN
 70
     0
  9
$PSLTSCALE
 70
     1
  9
$TREEDEPTH
 70
  3020
  9
$DWGCODEPAGE
  3
iso8859-1
  0
ENDSEC
  0
SECTION
  2
TABLES
  0
TABLE
  2
VPORT
 70
     2
  0
VPORT
  2
*ACTIVE
 70
     0
 10
0.0
 20
0.0
 11
1.0
 21
1.0
 12
2.903403
 22
0.0
 13
0.0
 23
0.0
 14
1.0
 24
1.0
 15
0.0
 25
0.0
 16
0.0
 26
0.0
 36
1.0
 17
0.0
 27
0.0
 37
0.0
 40
20.000045
 41
1.573846
 42
50.0
 43
0.0
 44
0.0
 50
0.0
 51
0.0
 71
     0
 72
   100
 73
     1
 74
     1
 75
     0
 76
     0
 77
     0
 78
     0
  0
ENDTAB
  0
TABLE
  2
LTYPE
 70
     1
  0
LTYPE
  2
CONTINUOUS
 70
    64
  3
Solid line
 72
    65
 73
     0
 40
0.0
  0
ENDTAB
  0
TABLE
  2
LAYER
 70
     1
  0
LAYER
  2
0
 70
    64
 62
     7
  6
CONTINUOUS
  0
ENDTAB
  0
TABLE
  2
STYLE
 70
     1
  0
STYLE
  2
STANDARD
 70
    64
 40
0.0
 41
1.0
 50
0.0
 71
     0
 42
0.001
  3
txt
  4

  0
ENDTAB
  0
TABLE
  2
VIEW
 70
     0
  0
ENDTAB
  0
TABLE
  2
UCS
 70
     0
  0
ENDTAB
  0
TABLE
  2
APPID
 70
     1
  0
APPID
  2
ACAD
 70
    64
  0
ENDTAB
  0
TABLE
  2
DIMSTYLE
 70
     0
  0
ENDTAB
  0
ENDSEC
  0
SECTION
  2
BLOCKS
  0
ENDSEC
  0
SECTION
  2
ENTITIES
  0
ARC
  8
0
 10
-1.27832
 20
48.832902
 30
0.0
 40
45.50636
 50
261.478282
 51
271.609709
  0
CIRCLE
  8
0
 10
-0.025615
 20
1.13715
 30
0.0
 40
0.865892
  0
CIRCLE
  8
0
 10
-0.025615
 20
1.13715
 30
0.0
 40
1.446853
  0
LINE
  8
0
 10
-8.016359
 20
3.83047
 30
0.0
 11
8.016359
 21
3.83047
 31
0.0
  0
LINE
  8
0
 10
7.92645
 20
-6.469108
 30
0.0
 11
-7.92645
 21
-6.469108
 31
0.0
  0
LINE
  8
0
 10
-8.350611
 20
4.225372
 30
0.0
 11
8.350611
 21
4.225372
 31
0.0
  0
LINE
  8
0
 10
8.351481
 20
-6.87696
 30
0.0
 11
-8.351481
 21
-6.87696
 31
0.0
  0
LINE
  8
0
 10
-8.484164
 20
4.471023
 30
0.0
 11
8.484164
 21
4.471023
 31
0.0
  0
LINE
  8
0
 10
8.575401
 20
-7.110988
 30
0.0
 11
-8.575401
 21
-7.110988
 31
0.0
  0
LINE
  8
0
 10
9.848509
 20
-7.649692
 30
0.0
 11
-9.848509
 21
-7.649692
 31
0.0
  0
LINE
  8
0
 10
10.085028
 20
-7.840123
 30
0.0
 11
-10.085028
 21
-7.840123
 31
0.0
  0
LINE
  8
0
 10
10.342234
 20
-8.146495
 30
0.0
 11
-10.342234
 21
-8.146495
 31
0.0
  0
LINE
  8
0
 10
10.8443
 20
-8.647578
 30
0.0
 11
-10.8443
 21
-8.647578
 31
0.0
  0
LINE
  8
0
 10
11.180035
 20
-9.00002
 30
0.0
 11
-11.180035
 21
-9.00002
 31
0.0
  0
LINE
  8
0
 10
-11.221587
 20
9.00002
 30
0.0
 11
11.221587
 21
9.00002
 31
0.0
  0
LINE
  8
0
 10
-10.879111
 20
8.655225
 30
0.0
 11
10.879111
 21
8.655225
 31
0.0
  0
LINE
  8
0
 10
-10.342234
 20
8.154241
 30
0.0
 11
10.342234
 21
8.154241
 31
0.0
  0
LINE
  8
0
 10
-10.085028
 20
7.853451
 30
0.0
 11
10.085028
 21
7.853451
 31
0.0
  0
LINE
  8
0
 10
-9.848934
 20
7.665924
 30
0.0
 11
9.848934
 21
7.665924
 31
0.0
  0
LINE
  8
0
 10
-8.862836
 20
4.105303
 30
0.0
 11
-8.862836
 21
-6.741489
 31
0.0
  0
LINE
  8
0
 10
-8.621573
 20
3.958108
 30
0.0
 11
-8.621573
 21
-6.596957
 31
0.0
  0
LINE
  8
0
 10
-8.206497
 20
3.577187
 30
0.0
 11
-8.206497
 21
-6.238729
 31
0.0
  0
LINE
  8
0
 10
-10.039271
 20
7.47722
 30
0.0
 11
-10.039271
 21
-7.503314
 31
0.0
  0
LINE
  8
0
 10
-10.233341
 20
7.666124
 30
0.0
 11
-10.233341
 21
-7.659003
 31
0.0
  0
LINE
  8
0
 10
-10.53167
 20
7.968341
 30
0.0
 11
-10.53167
 21
-7.994611
 31
0.0
  0
LINE
  8
0
 10
-11.01375
 20
8.460964
 30
0.0
 11
-11.01375
 21
-8.487584
 31
0.0
  0
LINE
  8
0
 10
-11.377189
 20
8.807616
 30
0.0
 11
-11.377189
 21
-8.805085
 31
0.0
  0
ARC
  8
0
 10
-11.182241
 20
-8.805085
 30
0.0
 40
0.194948
 50
180.0
 51
270.648323
  0
ARC
  8
0
 10
-10.853492
 20
-8.487584
 30
0.0
 40
0.160258
 50
180.0
 51
273.288367
  0
ARC
  8
0
 10
-10.048592
 20
-7.659003
 30
0.0
 40
0.184748
 50
180.0
 51
258.625673
  0
ARC
  8
0
 10
-10.342163
 20
-7.952329
 30
0.0
 40
0.194166
 50
192.577621
 51
269.979031
  0
ARC
  8
0
 10
-9.862524
 20
-7.470466
 30
0.0
 40
0.179773
 50
190.528261
 51
274.471462
  0
ARC
  8
0
 10
-8.341388
 20
-6.596957
 30
0.0
 40
0.280185
 50
180.0
 51
267.935545
  0
ARC
  8
0
 10
-8.481623
 20
-6.741489
 30
0.0
 40
0.381213
 50
180.0
 51
255.759092
  0
ARC
  8
0
 10
-7.971713
 20
-6.238729
 30
0.0
 40
0.234784
 50
180.0
 51
281.115459
  0
ARC
  8
0
 10
-10.055203
 20
7.677463
 30
0.0
 40
0.178498
 50
99.61844
 51
183.642067
  0
ARC
  8
0
 10
-9.848934
 20
7.475579
 30
0.0
 40
0.190345
 50
90.0
 51
179.506212
  0
ARC
  8
0
 10
-10.757201
 20
8.426943
 30
0.0
 40
0.258795
 50
118.103622
 51
172.446012
  0
ARC
  8
0
 10
-11.221587
 20
8.840898
 30
0.0
 40
0.159122
 50
90.0
 51
192.073072
  0
ARC
  8
0
 10
-10.342234
 20
7.964772
 30
0.0
 40
0.189469
 50
90.0
 51
178.92073
  0
ARC
  8
0
 10
-8.484164
 20
4.092121
 30
0.0
 40
0.378901
 50
90.0
 51
178.006276
  0
ARC
  8
0
 10
-8.350611
 20
3.954384
 30
0.0
 40
0.270987
 50
90.0
 51
179.212608
  0
ARC
  8
0
 10
-7.94702
 20
3.580408
 30
0.0
 40
0.259497
 50
105.498162
 51
180.711191
  0
LINE
  8
0
 10
-4.046364
 20
5.810405
 30
0.0
 11
-4.046364
 21
5.810405
 31
0.0
  0
LINE
  8
0
 10
8.206497
 20
3.577187
 30
0.0
 11
8.206497
 21
-6.238729
 31
0.0
  0
LINE
  8
0
 10
8.621573
 20
3.958108
 30
0.0
 11
8.621573
 21
-6.596957
 31
0.0
  0
LINE
  8
0
 10
8.862836
 20
4.105303
 30
0.0
 11
8.862836
 21
-6.741489
 31
0.0
  0
LINE
  8
0
 10
11.377189
 20
8.807616
 30
0.0
 11
11.377189
 21
-8.805085
 31
0.0
  0
LINE
  8
0
 10
11.01375
 20
8.460964
 30
0.0
 11
11.01375
 21
-8.487584
 31
0.0
  0
LINE
  8
0
 10
10.53167
 20
7.968341
 30
0.0
 11
10.53167
 21
-7.994611
 31
0.0
  0
LINE
  8
0
 10
10.233341
 20
7.666124
 30
0.0
 11
10.233341
 21
-7.659003
 31
0.0
  0
LINE
  8
0
 10
10.039271
 20
7.47722
 30
0.0
 11
10.039271
 21
-7.503314
 31
0.0
  0
ARC
  8
0
 10
7.971713
 20
-6.238729
 30
0.0
 40
0.234784
 50
258.884541
 51
0.0
  0
ARC
  8
0
 10
-0.05932
 20
-7.346833
 30
0.0
 40
1.114388
 50
69.58027
 51
112.055737
  0
ARC
  8
0
 10
-0.057556
 20
-4.690316
 30
0.0
 40
1.760377
 50
256.189385
 51
282.530001
  0
ARC
  8
0
 10
-0.4604
 20
-6.356899
 30
0.0
 40
0.046289
 50
112.055737
 51
247.944263
  0
ARC
  8
0
 10
0.310002
 20
-6.354802
 30
0.0
 40
0.05584
 50
284.898589
 51
69.58027
  0
ARC
  8
0
 10
10.853492
 20
-8.487584
 30
0.0
 40
0.160258
 50
266.711633
 51
0.0
  0
ARC
  8
0
 10
11.182241
 20
-8.805085
 30
0.0
 40
0.194948
 50
269.351677
 51
0.0
  0
ARC
  8
0
 10
10.342163
 20
-7.952329
 30
0.0
 40
0.194166
 50
270.020969
 51
347.422379
  0
ARC
  8
0
 10
8.341388
 20
-6.596957
 30
0.0
 40
0.280185
 50
272.064455
 51
0.0
  0
ARC
  8
0
 10
8.481623
 20
-6.741489
 30
0.0
 40
0.381213
 50
284.240908
 51
0.0
  0
ARC
  8
0
 10
9.862524
 20
-7.470466
 30
0.0
 40
0.179773
 50
265.528538
 51
349.471739
  0
ARC
  8
0
 10
10.048592
 20
-7.659003
 30
0.0
 40
0.184748
 50
281.374327
 51
0.0
  0
ARC
  8
0
 10
7.94702
 20
3.580408
 30
0.0
 40
0.259497
 50
359.288809
 51
74.501838
  0
ARC
  8
0
 10
1.27832
 20
48.832902
 30
0.0
 40
45.50636
 50
268.390291
 51
278.521718
  0
LINE
  8
0
 10
-0.016528
 20
5.810405
 30
0.0
 11
-0.016528
 21
5.810405
 31
0.0
  0
LINE
  8
0
 10
4.045677
 20
5.810405
 30
0.0
 11
4.045677
 21
5.810405
 31
0.0
  0
ARC
  8
0
 10
10.055203
 20
7.677463
 30
0.0
 40
0.178498
 50
356.357933
 51
80.38156
  0
ARC
  8
0
 10
8.484164
 20
4.092121
 30
0.0
 40
0.378901
 50
1.993724
 51
90.0
  0
ARC
  8
0
 10
8.350611
 20
3.954384
 30
0.0
 40
0.270987
 50
0.787392
 51
90.0
  0
ARC
  8
0
 10
9.848934
 20
7.475579
 30
0.0
 40
0.190345
 50
0.493788
 51
90.0
  0
ARC
  8
0
 10
10.342234
 20
7.964772
 30
0.0
 40
0.189469
 50
1.07927
 51
90.0
  0
ARC
  8
0
 10
10.757201
 20
8.426943
 30
0.0
 40
0.258795
 50
7.553988
 51
61.896378
  0
ARC
  8
0
 10
11.221587
 20
8.840898
 30
0.0
 40
0.159122
 50
347.926928
 51
90.0
  0
ATTDEF
  8
0
 10
0.0
 20
0.0
 30
0.0
 40
0.001
  1
K-2241-8
  3

  2
MODELNUMBER
 70
     8
  0
ATTDEF
  8
0
 10
0.0
 20
-0.001667
 30
0.0
 40
0.001
  1
MEMOIRS
  3

  2
TRADENAME
 70
     8
  0
ATTDEF
  8
0
 10
0.0
 20
-0.003333
 30
0.0
 40
0.001
  1
LAVATORY
  3

  2
PRODUCT
 70
     8
  0
ATTDEF
  8
0
 10
0.0
 20
-0.005
 30
0.0
 40
0.001
  1
VITREOUS CHINA
  3

  2
MATERIAL
 70
     8
  0
ENDSEC
  0
EOF
