  0
SECTION
  2
HEADER
  9
$ACADVER
  1
AC1009
  9
$DWGCODEPAGE
  3
ansi_1252
  9
$INSBASE
 10
0.0
 20
0.0
 30
0.0
  9
$EXTMIN
 10
1.000000000000000E+20
 20
1.000000000000000E+20
 30
1.000000000000000E+20
  9
$EXTMAX
 10
0.0
 20
0.0
 30
0.0
  9
$LIMMIN
 10
0.0
 20
0.0
  9
$LIMMAX
 10
144.0
 20
108.0
  9
$ORTHOMODE
 70
     1
  9
$REGENMODE
 70
     1
  9
$FILLMODE
 70
     1
  9
$QTEXTMODE
 70
     0
  9
$MIRRTEXT
 70
     1
  9
$DRAGMODE
 70
     2
  9
$LTSCALE
 40
4.0
  9
$OSMODE
 70
    37
  9
$ATTMODE
 70
     1
  9
$TEXTSIZE
 40
0.003
  9
$TRACEWID
 40
0.05
  9
$TEXTSTYLE
  7
STANDARD
  9
$CLAYER
  8
0
  9
$CELTYPE
  6
CONTINUOUS
  9
$CECOLOR
 62
   256
  9
$DIMSCALE
 40
1.0
  9
$DIMASZ
 40
0.18
  9
$DIMEXO
 40
0.0625
  9
$DIMDLI
 40
0.38
  9
$DIMRND
 40
0.0
  9
$DIMDLE
 40
0.0
  9
$DIMEXE
 40
0.18
  9
$DIMTP
 40
0.0
  9
$DIMTM
 40
0.0
  9
$DIMTXT
 40
0.18
  9
$DIMCEN
 40
0.09
  9
$DIMTSZ
 40
0.0
  9
$DIMTOL
 70
     0
  9
$DIMLIM
 70
     0
  9
$DIMTIH
 70
     1
  9
$DIMTOH
 70
     1
  9
$DIMSE1
 70
     0
  9
$DIMSE2
 70
     0
  9
$DIMTAD
 70
     0
  9
$DIMZIN
 70
     0
  9
$DIMBLK
  1

  9
$DIMASO
 70
     1
  9
$DIMSHO
 70
     1
  9
$DIMPOST
  1

  9
$DIMAPOST
  1

  9
$DIMALT
 70
     0
  9
$DIMALTD
 70
     2
  9
$DIMALTF
 40
25.4
  9
$DIMLFAC
 40
1.0
  9
$DIMTOFL
 70
     0
  9
$DIMTVP
 40
0.0
  9
$DIMTIX
 70
     0
  9
$DIMSOXD
 70
     0
  9
$DIMSAH
 70
     0
  9
$DIMBLK1
  1

  9
$DIMBLK2
  1

  9
$DIMSTYLE
  2
STANDARD
  9
$DIMCLRD
 70
     0
  9
$DIMCLRE
 70
     0
  9
$DIMCLRT
 70
     0
  9
$DIMTFAC
 40
1.0
  9
$DIMGAP
 40
0.09
  9
$LUNITS
 70
     2
  9
$LUPREC
 70
     4
  9
$SKETCHINC
 40
0.1
  9
$FILLETRAD
 40
0.0
  9
$AUNITS
 70
     0
  9
$AUPREC
 70
     0
  9
$MENU
  1
acad
  9
$ELEVATION
 40
0.0
  9
$PELEVATION
 40
0.0
  9
$THICKNESS
 40
0.0
  9
$LIMCHECK
 70
     0
  9
$CHAMFERA
 40
0.0
  9
$CHAMFERB
 40
0.0
  9
$SKPOLY
 70
     0
  9
$TDCREATE
 40
2453702.478731702
  9
$TDUPDATE
 40
2453705.311936019
  9
$TDINDWG
 40
0.0123966319
  9
$TDUSRTIMER
 40
0.0123966319
  9
$USRTIMER
 70
     1
  9
$ANGBASE
 50
0.0
  9
$ANGDIR
 70
     0
  9
$PDMODE
 70
     3
  9
$PDSIZE
 40
-2.0
  9
$PLINEWID
 40
0.0
  9
$COORDS
 70
     1
  9
$SPLFRAME
 70
     0
  9
$SPLINETYPE
 70
     6
  9
$SPLINESEGS
 70
     8
  9
$ATTDIA
 70
     0
  9
$ATTREQ
 70
     1
  9
$HANDLING
 70
     1
  9
$HANDSEED
  5
CE
  9
$SURFTAB1
 70
     6
  9
$SURFTAB2
 70
     6
  9
$SURFTYPE
 70
     6
  9
$SURFU
 70
     6
  9
$SURFV
 70
     6
  9
$UCSNAME
  2

  9
$UCSORG
 10
0.0
 20
0.0
 30
0.0
  9
$UCSXDIR
 10
1.0
 20
0.0
 30
0.0
  9
$UCSYDIR
 10
0.0
 20
1.0
 30
0.0
  9
$PUCSNAME
  2

  9
$PUCSORG
 10
0.0
 20
0.0
 30
0.0
  9
$PUCSXDIR
 10
1.0
 20
0.0
 30
0.0
  9
$PUCSYDIR
 10
0.0
 20
1.0
 30
0.0
  9
$USERI1
 70
     0
  9
$USERI2
 70
     0
  9
$USERI3
 70
     0
  9
$USERI4
 70
     0
  9
$USERI5
 70
     0
  9
$USERR1
 40
0.0
  9
$USERR2
 40
0.0
  9
$USERR3
 40
0.0
  9
$USERR4
 40
0.0
  9
$USERR5
 40
0.0
  9
$WORLDVIEW
 70
     1
  9
$SHADEDGE
 70
     3
  9
$SHADEDIF
 70
    70
  9
$TILEMODE
 70
     1
  9
$MAXACTVP
 70
    16
  9
$PLIMCHECK
 70
     0
  9
$PEXTMIN
 10
1.000000000000000E+20
 20
1.000000000000000E+20
 30
1.000000000000000E+20
  9
$PEXTMAX
 10
-1.000000000000000E+20
 20
-1.000000000000000E+20
 30
-1.000000000000000E+20
  9
$PLIMMIN
 10
0.0
 20
0.0
  9
$PLIMMAX
 10
12.0
 20
9.0
  9
$UNITMODE
 70
     0
  9
$VISRETAIN
 70
     0
  9
$PLINEGEN
 70
     1
  9
$PSLTSCALE
 70
     0
  0
ENDSEC
  0
SECTION
  2
TABLES
  0
TABLE
  2
VPORT
 70
     1
  0
VPORT
  2
*ACTIVE
 70
     0
 10
0.0
 20
0.0
 11
1.0
 21
1.0
 12
241.1418875133003
 22
-273.4487485190789
 13
0.0
 23
0.0
 14
1.0
 24
1.0
 15
0.0
 25
0.0
 16
0.0
 26
0.0
 36
1.0
 17
0.0
 27
0.0
 37
0.0
 40
1687.056258899767
 41
1.455696202531645
 42
50.0
 43
0.0
 44
0.0
 50
0.0
 51
0.0
 71
     0
 72
   100
 73
     1
 74
     1
 75
     0
 76
     0
 77
     0
 78
     0
  0
ENDTAB
  0
TABLE
  2
LTYPE
 70
     1
  0
LTYPE
  2
CONTINUOUS
 70
     0
  3
Solid line
 72
    65
 73
     0
 40
0.0
  0
ENDTAB
  0
TABLE
  2
LAYER
 70
     1
  0
LAYER
  2
0
 70
     0
 62
     7
  6
CONTINUOUS
  0
ENDTAB
  0
TABLE
  2
STYLE
 70
     1
  0
STYLE
  2
STANDARD
 70
     0
 40
0.0
 41
1.0
 50
0.0
 71
     0
 42
0.003
  3
txt
  4

  0
ENDTAB
  0
TABLE
  2
VIEW
 70
     0
  0
ENDTAB
  0
TABLE
  2
UCS
 70
     0
  0
ENDTAB
  0
TABLE
  2
APPID
 70
     1
  0
APPID
  2
ACAD
 70
     0
  0
ENDTAB
  0
TABLE
  2
DIMSTYLE
 70
     1
  0
DIMSTYLE
  2
STANDARD
 70
     0
  3

  4

  5

  6

  7

 40
1.0
 41
0.18
 42
0.0625
 43
0.38
 44
0.18
 45
0.0
 46
0.0
 47
0.0
 48
0.0
140
0.18
141
0.09
142
0.0
143
25.4
144
1.0
145
0.0
146
1.0
147
0.09
 71
     0
 72
     0
 73
     1
 74
     1
 75
     0
 76
     0
 77
     0
 78
     0
170
     0
171
     2
172
     0
173
     0
174
     0
175
     0
176
     0
177
     0
178
     0
  0
ENDTAB
  0
ENDSEC
  0
SECTION
  2
BLOCKS
  0
BLOCK
  8
0
  2
$MODEL_SPACE
 70
     2
 10
0.0
 20
0.0
 30
0.0
  3
$MODEL_SPACE
  1

  0
ENDBLK
  5
B
  8
0
  0
BLOCK
 67
     1
  8
0
  2
$PAPER_SPACE
 70
     0
 10
0.0
 20
0.0
 30
0.0
  3
$PAPER_SPACE
  1

  0
ENDBLK
  5
12
 67
     1
  8
0
  0
ENDSEC
  0
SECTION
  2
ENTITIES
  0
LINE
  5
2A
  8
0
 10
-36.53336406474406
 20
-87.67185826205933
 30
0.0
 11
36.53314933586358
 21
-87.67185826205933
 31
0.0
  0
POLYLINE
  5
2B
  8
0
 66
     1
 10
0.0
 20
0.0
 30
0.0
 70
   132
 75
     6
  0
VERTEX
  5
2C
  8
0
 10
36.53314933586358
 20
-87.67185826205933
 30
0.0
 70
    16
  0
VERTEX
  5
2D
  8
0
 10
36.53314933586358
 20
-87.67185826205933
 30
0.0
 70
     8
  0
VERTEX
  5
2E
  8
0
 10
59.21562067212236
 20
-79.77514608428821
 30
0.0
 70
     8
  0
VERTEX
  5
2F
  8
0
 10
78.62474731678671
 20
-72.56867628178499
 30
0.0
 70
     8
  0
VERTEX
  5
30
  8
0
 10
95.11451484966514
 20
-65.96047153377258
 30
0.0
 70
     8
  0
VERTEX
  5
31
  8
0
 10
109.0389088505663
 20
-59.85855451947396
 30
0.0
 70
     8
  0
VERTEX
  5
32
  8
0
 10
120.7519148992986
 20
-54.17094791811208
 30
0.0
 70
     8
  0
VERTEX
  5
33
  8
0
 10
130.6075185756707
 20
-48.80567440890991
 30
0.0
 70
     8
  0
VERTEX
  5
34
  8
0
 10
138.9597054594911
 20
-43.67075667109036
 30
0.0
 70
     8
  0
VERTEX
  5
35
  8
0
 10
146.1624611305684
 20
-38.67421738387645
 30
0.0
 70
     8
  0
VERTEX
  5
36
  8
0
 10
152.522356247763
 20
-33.74012426527951
 30
0.0
 70
     8
  0
VERTEX
  5
37
  8
0
 10
158.1563017861425
 20
-28.8567251884645
 30
0.0
 70
     8
  0
VERTEX
  5
38
  8
0
 10
163.1337937998266
 20
-24.02831306538482
 30
0.0
 70
     8
  0
VERTEX
  5
39
  8
0
 10
167.5243283429346
 20
-19.25918080799394
 30
0.0
 70
     8
  0
VERTEX
  5
3A
  8
0
 10
171.3974014695862
 20
-14.55362132824519
 30
0.0
 70
     8
  0
VERTEX
  5
3B
  8
0
 10
174.822509233901
 20
-9.91592753809195
 30
0.0
 70
     8
  0
VERTEX
  5
3C
  8
0
 10
177.8691476899983
 20
-5.350392349487692
 30
0.0
 70
     8
  0
VERTEX
  5
3D
  8
0
 10
180.6068128919978
 20
-0.8613086743857537
 30
0.0
 70
     8
  0
VERTEX
  5
3E
  8
0
 10
183.0963831087772
 20
3.542566193548026
 30
0.0
 70
     8
  0
VERTEX
  5
3F
  8
0
 10
185.3642654682466
 20
7.834617433797945
 30
0.0
 70
     8
  0
VERTEX
  5
40
  8
0
 10
187.4282493130743
 20
11.98376584413589
 30
0.0
 70
     8
  0
VERTEX
  5
41
  8
0
 10
189.3061239859287
 20
15.95893222233374
 30
0.0
 70
     8
  0
VERTEX
  5
42
  8
0
 10
191.0156788294781
 20
19.72903736616334
 30
0.0
 70
     8
  0
VERTEX
  5
43
  8
0
 10
192.5747031863908
 20
23.26300207339662
 30
0.0
 70
     8
  0
VERTEX
  5
44
  8
0
 10
194.000986399335
 20
26.52974714180547
 30
0.0
 70
     8
  0
VERTEX
  5
45
  8
0
 10
195.3123178109793
 20
29.49819336916173
 30
0.0
 70
     8
  0
VERTEX
  5
46
  8
0
 10
196.5264303550391
 20
32.15280922879387
 30
0.0
 70
     8
  0
VERTEX
  5
47
  8
0
 10
197.6608313294187
 20
34.54025389625679
 30
0.0
 70
     8
  0
VERTEX
  5
48
  8
0
 10
198.7329716230699
 20
36.7227342226621
 30
0.0
 70
     8
  0
VERTEX
  5
49
  8
0
 10
199.7603021249442
 20
38.7624570591212
 30
0.0
 70
     8
  0
VERTEX
  5
4A
  8
0
 10
200.7602737239932
 20
40.7216292567457
 30
0.0
 70
     8
  0
VERTEX
  5
4B
  8
0
 10
201.7503373091686
 20
42.66245766664704
 30
0.0
 70
     8
  0
VERTEX
  5
4C
  8
0
 10
202.747943769422
 20
44.64714913993683
 30
0.0
 70
     8
  0
VERTEX
  5
4D
  8
0
 10
203.770543993705
 20
46.73791052772654
 30
0.0
 70
     8
  0
VERTEX
  5
4E
  8
0
 10
204.8322840128499
 20
48.98010365572955
 30
0.0
 70
     8
  0
VERTEX
  5
4F
  8
0
 10
205.9340904252111
 20
51.35171024806687
 30
0.0
 70
     8
  0
VERTEX
  5
50
  8
0
 10
207.0735849710241
 20
53.81386700346127
 30
0.0
 70
     8
  0
VERTEX
  5
51
  8
0
 10
208.248389390524
 20
56.3277106206356
 30
0.0
 70
     8
  0
VERTEX
  5
52
  8
0
 10
209.4561254239459
 20
58.85437779831275
 30
0.0
 70
     8
  0
VERTEX
  5
53
  8
0
 10
210.6944148115252
 20
61.35500523521557
 30
0.0
 70
     8
  0
VERTEX
  5
54
  8
0
 10
211.9608792934971
 20
63.79072963006684
 30
0.0
 70
     8
  0
VERTEX
  5
55
  8
0
 10
213.2531406100968
 20
66.12268768158938
 30
0.0
 70
     8
  0
VERTEX
  5
56
  8
0
 10
214.5804554368326
 20
68.32985713003575
 30
0.0
 70
     8
  0
VERTEX
  5
57
  8
0
 10
215.9986201903049
 20
70.4625798817768
 30
0.0
 70
     8
  0
VERTEX
  5
58
  8
0
 10
217.5750662223875
 20
72.58903888471309
 30
0.0
 70
     8
  0
VERTEX
  5
59
  8
0
 10
219.3772248849539
 20
74.77741708674526
 30
0.0
 70
     8
  0
VERTEX
  5
5A
  8
0
 10
221.4725275298778
 20
77.09589743577382
 30
0.0
 70
     8
  0
VERTEX
  5
5B
  8
0
 10
223.9284055090328
 20
79.61266287969929
 30
0.0
 70
     8
  0
VERTEX
  5
5C
  8
0
 10
226.8122901742924
 20
82.39589636642231
 30
0.0
 70
     8
  0
VERTEX
  5
5D
  8
0
 10
230.1916128775303
 20
85.51378084384336
 30
0.0
 70
     8
  0
VERTEX
  5
5E
  8
0
 10
101.6988530033983
 20
-65.61187833584405
 30
0.0
 70
    16
  0
VERTEX
  5
5F
  8
0
 10
154.6472145485372
 20
-38.17927199903851
 30
0.0
 70
    16
  0
VERTEX
  5
60
  8
0
 10
183.161236358433
 20
-0.0000348028579538
 30
0.0
 70
    16
  0
VERTEX
  5
61
  8
0
 10
196.3487173697178
 20
33.01155916415593
 30
0.0
 70
    16
  0
VERTEX
  5
62
  8
0
 10
203.3178010285719
 20
44.94295836120455
 30
0.0
 70
    16
  0
VERTEX
  5
63
  8
0
 10
213.0033424782247
 20
67.64407055738511
 30
0.0
 70
    16
  0
VERTEX
  5
64
  8
0
 10
220.4595626388149
 20
76.69261385165592
 30
0.0
 70
    16
  0
VERTEX
  5
65
  8
0
 10
230.1916128775303
 20
85.51378084384342
 30
0.0
 70
    16
  0
SEQEND
  5
66
  8
0
  0
LINE
  5
67
  8
0
 10
34.51087828551636
 20
-123.0302512742121
 30
0.0
 11
36.53314933586358
 21
-87.67185826205933
 31
0.0
  0
LINE
  5
68
  8
0
 10
-34.51074850484822
 20
-123.0302512742121
 30
0.0
 11
34.51087828551636
 21
-123.0302512742121
 31
0.0
  0
LINE
  5
69
  8
0
 10
-36.53336406474406
 20
-87.67185826205933
 30
0.0
 11
-34.51074850484822
 21
-123.0302512742121
 31
0.0
  0
POLYLINE
  5
6A
  8
0
 66
     1
 10
0.0
 20
0.0
 30
0.0
 70
   132
 75
     6
  0
VERTEX
  5
6B
  8
0
 10
-230.1914830968621
 20
85.51378084384342
 30
0.0
 70
    16
  0
VERTEX
  5
6C
  8
0
 10
-230.1914830968621
 20
85.51378084384342
 30
0.0
 70
     8
  0
VERTEX
  5
6D
  8
0
 10
-226.8118237755755
 20
82.39589099076079
 30
0.0
 70
     8
  0
VERTEX
  5
6E
  8
0
 10
-223.9248883819163
 20
79.61261987440705
 30
0.0
 70
     8
  0
VERTEX
  5
6F
  8
0
 10
-221.4605718258724
 20
77.09575229291235
 30
0.0
 70
     8
  0
VERTEX
  5
70
  8
0
 10
-219.3487690174321
 20
74.77707304440696
 30
0.0
 70
     8
  0
VERTEX
  5
71
  8
0
 10
-217.5193748665835
 20
72.58836692702116
 30
0.0
 70
     8
  0
VERTEX
  5
72
  8
0
 10
-215.9022842833148
 20
70.46141873888507
 30
0.0
 70
     8
  0
VERTEX
  5
73
  8
0
 10
-214.427392177614
 20
68.32801327812896
 30
0.0
 70
     8
  0
VERTEX
  5
74
  8
0
 10
-213.0245934594693
 20
66.11993534288308
 30
0.0
 70
     8
  0
VERTEX
  5
75
  8
0
 10
-211.6372031577149
 20
63.78683227545341
 30
0.0
 70
     8
  0
VERTEX
  5
76
  8
0
 10
-210.2622167765694
 20
61.34980159484894
 30
0.0
 70
     8
  0
VERTEX
  5
77
  8
0
 10
-208.9100499390974
 20
58.84780336425456
 30
0.0
 70
     8
  0
VERTEX
  5
78
  8
0
 10
-207.5911182683635
 20
56.31979764685502
 30
0.0
 70
     8
  0
VERTEX
  5
79
  8
0
 10
-206.3158373874324
 20
53.80474450583509
 30
0.0
 70
     8
  0
VERTEX
  5
7A
  8
0
 10
-205.0946229193688
 20
51.34160400437963
 30
0.0
 70
     8
  0
VERTEX
  5
7B
  8
0
 10
-203.9378904872372
 20
48.96933620567347
 30
0.0
 70
     8
  0
VERTEX
  5
7C
  8
0
 10
-202.8560557141022
 20
46.72690117290139
 30
0.0
 70
     8
  0
VERTEX
  5
7D
  8
0
 10
-201.8535501597006
 20
44.63638168988078
 30
0.0
 70
     8
  0
VERTEX
  5
7E
  8
0
 10
-200.910869130456
 20
42.65235142295992
 30
0.0
 70
     8
  0
VERTEX
  5
7F
  8
0
 10
-200.0025238694645
 20
40.71250675911961
 30
0.0
 70
     8
  0
VERTEX
  5
80
  8
0
 10
-199.103025619822
 20
38.75454408534063
 30
0.0
 70
     8
  0
VERTEX
  5
81
  8
0
 10
-198.1868856246243
 20
36.7161597886039
 30
0.0
 70
     8
  0
VERTEX
  5
82
  8
0
 10
-197.2286151269672
 20
34.53505025589024
 30
0.0
 70
     8
  0
VERTEX
  5
83
  8
0
 10
-196.2027253699465
 20
32.14891187418047
 30
0.0
 70
     8
  0
VERTEX
  5
84
  8
0
 10
-195.0837275966583
 20
29.49544103045545
 30
0.0
 70
     8
  0
VERTEX
  5
85
  8
0
 10
-193.8478628341238
 20
26.52790340204376
 30
0.0
 70
     8
  0
VERTEX
  5
86
  8
0
 10
-192.4782912450667
 20
23.26184182766522
 30
0.0
 70
     8
  0
VERTEX
  5
87
  8
0
 10
-190.9599027761362
 20
19.7283684363874
 30
0.0
 70
     8
  0
VERTEX
  5
88
  8
0
 10
-189.2775873739814
 20
15.95859535727774
 30
0.0
 70
     8
  0
VERTEX
  5
89
  8
0
 10
-187.4162349852517
 20
11.98363471940385
 30
0.0
 70
     8
  0
VERTEX
  5
8A
  8
0
 10
-185.3607355565961
 20
7.834598651833318
 30
0.0
 70
     8
  0
VERTEX
  5
8B
  8
0
 10
-183.0959790346638
 20
3.542599283633649
 30
0.0
 70
     8
  0
VERTEX
  5
8C
  8
0
 10
-180.606855366104
 20
-0.8612512561276446
 30
0.0
 70
     8
  0
VERTEX
  5
8D
  8
0
 10
-177.8691901641045
 20
-5.350311100409584
 30
0.0
 70
     8
  0
VERTEX
  5
8E
  8
0
 10
-174.8225517080071
 20
-9.915819430277878
 30
0.0
 70
     8
  0
VERTEX
  5
8F
  8
0
 10
-171.3974439436924
 20
-14.55348568882494
 30
0.0
 70
     8
  0
VERTEX
  5
90
  8
0
 10
-167.5243708170408
 20
-19.25901931914305
 30
0.0
 70
     8
  0
VERTEX
  5
91
  8
0
 10
-163.1338362739327
 20
-24.02812976432458
 30
0.0
 70
     8
  0
VERTEX
  5
92
  8
0
 10
-158.1563442602487
 20
-28.85652646746188
 30
0.0
 70
     8
  0
VERTEX
  5
93
  8
0
 10
-152.5223987218692
 20
-33.73991887164728
 30
0.0
 70
     8
  0
VERTEX
  5
94
  8
0
 10
-146.1625036046746
 20
-38.6740164199731
 30
0.0
 70
     8
  0
VERTEX
  5
95
  8
0
 10
-138.9597482700324
 20
-43.67057258501484
 30
0.0
 70
     8
  0
VERTEX
  5
96
  8
0
 10
-130.6075637412577
 20
-48.80551695728026
 30
0.0
 70
     8
  0
VERTEX
  5
97
  8
0
 10
-120.7519664571526
 20
-54.17082315676026
 30
0.0
 70
     8
  0
VERTEX
  5
98
  8
0
 10
-109.0389728565192
 20
-59.85846480344567
 30
0.0
 70
     8
  0
VERTEX
  5
99
  8
0
 10
-95.11459937815957
 20
-65.96041551732742
 30
0.0
 70
     8
  0
VERTEX
  5
9A
  8
0
 10
-78.62486246087578
 20
-72.56864891839636
 30
0.0
 70
     8
  0
VERTEX
  5
9B
  8
0
 10
-59.2157785434699
 20
-79.77513862664337
 30
0.0
 70
     8
  0
VERTEX
  5
9C
  8
0
 10
-36.53336406474405
 20
-87.67185826205933
 30
0.0
 70
     8
  0
VERTEX
  5
9D
  8
0
 10
-220.4597773676954
 20
76.69261385165592
 30
0.0
 70
    16
  0
VERTEX
  5
9E
  8
0
 10
-213.0033849523309
 20
67.64407055738511
 30
0.0
 70
    16
  0
VERTEX
  5
9F
  8
0
 10
-201.9460473721147
 20
44.9264443289668
 30
0.0
 70
    16
  0
VERTEX
  5
A0
  8
0
 10
-196.3487598438239
 20
33.01155916415593
 30
0.0
 70
    16
  0
VERTEX
  5
A1
  8
0
 10
-183.1612788325392
 20
-0.0000348028579538
 30
0.0
 70
    16
  0
VERTEX
  5
A2
  8
0
 10
-154.6472570226433
 20
-38.17892748948989
 30
0.0
 70
    16
  0
VERTEX
  5
A3
  8
0
 10
-101.6988954775045
 20
-65.61187833584405
 30
0.0
 70
    16
  0
VERTEX
  5
A4
  8
0
 10
-36.53336406474406
 20
-87.67185826205933
 30
0.0
 70
    16
  0
SEQEND
  5
A5
  8
0
  0
POLYLINE
  5
A6
  8
0
 66
     1
 10
0.0
 20
0.0
 30
0.0
 70
   132
 75
     6
  0
VERTEX
  5
A7
  8
0
 10
-246.0549420269836
 20
98.36881014071844
 30
0.0
 70
    16
  0
VERTEX
  5
A8
  8
0
 10
-246.0549420269836
 20
98.36881014071844
 30
0.0
 70
     8
  0
VERTEX
  5
A9
  8
0
 10
-249.7814294807622
 20
97.61874893072189
 30
0.0
 70
     8
  0
VERTEX
  5
AA
  8
0
 10
-252.8739298733581
 20
96.58621545993231
 30
0.0
 70
     8
  0
VERTEX
  5
AB
  8
0
 10
-255.3747068556656
 20
95.29004336558722
 30
0.0
 70
     8
  0
VERTEX
  5
AC
  8
0
 10
-257.3260240785787
 20
93.74906628492417
 30
0.0
 70
     8
  0
VERTEX
  5
AD
  8
0
 10
-258.7701451929917
 20
91.98211785518072
 30
0.0
 70
     8
  0
VERTEX
  5
AE
  8
0
 10
-259.7493338497986
 20
90.00803171359439
 30
0.0
 70
     8
  0
VERTEX
  5
AF
  8
0
 10
-260.3058536998937
 20
87.84564149740277
 30
0.0
 70
     8
  0
VERTEX
  5
B0
  8
0
 10
-260.4819683941711
 20
85.51378084384339
 30
0.0
 70
     8
  0
VERTEX
  5
B1
  8
0
 10
-256.8751256749871
 20
96.76201760599622
 30
0.0
 70
    16
  0
VERTEX
  5
B2
  8
0
 10
-260.4819683941711
 20
91.94129549228094
 30
0.0
 70
    16
  0
VERTEX
  5
B3
  8
0
 10
-260.4819683941711
 20
85.51378084384342
 30
0.0
 70
    16
  0
SEQEND
  5
B4
  8
0
  0
LINE
  5
B5
  8
0
 10
246.0548995528774
 20
98.36881014071844
 30
0.0
 11
-246.0549420269836
 21
98.36881014071844
 31
0.0
  0
POLYLINE
  5
B6
  8
0
 66
     1
 10
0.0
 20
0.0
 30
0.0
 70
   132
 75
     6
  0
VERTEX
  5
B7
  8
0
 10
260.481925920065
 20
85.51378084384342
 30
0.0
 70
    16
  0
VERTEX
  5
B8
  8
0
 10
260.481925920065
 20
85.51378084384342
 30
0.0
 70
     8
  0
VERTEX
  5
B9
  8
0
 10
260.3058182909247
 20
87.8456414974028
 30
0.0
 70
     8
  0
VERTEX
  5
BA
  8
0
 10
259.74931559902
 20
90.00803171359442
 30
0.0
 70
     8
  0
VERTEX
  5
BB
  8
0
 10
258.7701481376247
 20
91.98211785518072
 30
0.0
 70
     8
  0
VERTEX
  5
BC
  8
0
 10
257.3260462000128
 20
93.7490662849242
 30
0.0
 70
     8
  0
VERTEX
  5
BD
  8
0
 10
255.3747400794582
 20
95.29004336558725
 30
0.0
 70
     8
  0
VERTEX
  5
BE
  8
0
 10
252.8739600692348
 20
96.58621545993239
 30
0.0
 70
     8
  0
VERTEX
  5
BF
  8
0
 10
249.7814364626165
 20
97.61874893072201
 30
0.0
 70
     8
  0
VERTEX
  5
C0
  8
0
 10
246.0548995528773
 20
98.36881014071858
 30
0.0
 70
     8
  0
VERTEX
  5
C1
  8
0
 10
260.481925920065
 20
91.94129549228094
 30
0.0
 70
    16
  0
VERTEX
  5
C2
  8
0
 10
256.8752554556552
 20
96.76201760599622
 30
0.0
 70
    16
  0
VERTEX
  5
C3
  8
0
 10
246.0548995528774
 20
98.36881014071844
 30
0.0
 70
    16
  0
SEQEND
  5
C4
  8
0
  0
LINE
  5
C5
  8
0
 10
-260.4819683941711
 20
85.51378084384342
 30
0.0
 11
260.481925920065
 21
85.51378084384342
 31
0.0
  0
ATTDEF
  5
C6
  8
0
  6
CONTINUOUS
 10
-0.0018
 20
-0.0065
 30
0.0
 40
0.003
  1
K-2336
  3

  2
MODELNUMBER
 70
     2
  0
ATTDEF
  5
C7
  8
0
  6
CONTINUOUS
 10
-0.0018
 20
-0.0098
 30
0.0
 40
0.003
  1
DEVONSHIRE
  3

  2
TRADENAME
 70
     2
  0
ATTDEF
  5
C8
  8
0
  6
CONTINUOUS
 10
-0.0018
 20
-0.0132
 30
0.0
 40
0.003
  1
LAVATORY
  3

  2
PRODUCT
 70
     2
  0
ATTDEF
  5
C9
  8
0
  6
CONTINUOUS
 10
-0.0018
 20
-0.0165
 30
0.0
 40
0.003
  1
VITREOUS CHINA
  3

  2
MATERIAL
 70
     2
  0
ENDSEC
  0
EOF
