  0
SECTION
  2
HEADER
  9
$ACADVER
  1
AC1009
  9
$DWGCODEPAGE
  3
ansi_1252
  9
$INSBASE
 10
0.0
 20
0.0
 30
0.0
  9
$EXTMIN
 10
1.000000000000000E+20
 20
1.000000000000000E+20
 30
1.000000000000000E+20
  9
$EXTMAX
 10
0.0
 20
0.0
 30
0.0
  9
$LIMMIN
 10
0.0
 20
0.0
  9
$LIMMAX
 10
144.0
 20
108.0
  9
$ORTHOMODE
 70
     1
  9
$REGENMODE
 70
     1
  9
$FILLMODE
 70
     1
  9
$QTEXTMODE
 70
     0
  9
$MIRRTEXT
 70
     1
  9
$DRAGMODE
 70
     2
  9
$LTSCALE
 40
4.0
  9
$OSMODE
 70
    37
  9
$ATTMODE
 70
     1
  9
$TEXTSIZE
 40
0.003
  9
$TRACEWID
 40
0.05
  9
$TEXTSTYLE
  7
STANDARD
  9
$CLAYER
  8
0
  9
$CELTYPE
  6
CONTINUOUS
  9
$CECOLOR
 62
   256
  9
$DIMSCALE
 40
1.0
  9
$DIMASZ
 40
0.18
  9
$DIMEXO
 40
0.0625
  9
$DIMDLI
 40
0.38
  9
$DIMRND
 40
0.0
  9
$DIMDLE
 40
0.0
  9
$DIMEXE
 40
0.18
  9
$DIMTP
 40
0.0
  9
$DIMTM
 40
0.0
  9
$DIMTXT
 40
0.18
  9
$DIMCEN
 40
0.09
  9
$DIMTSZ
 40
0.0
  9
$DIMTOL
 70
     0
  9
$DIMLIM
 70
     0
  9
$DIMTIH
 70
     1
  9
$DIMTOH
 70
     1
  9
$DIMSE1
 70
     0
  9
$DIMSE2
 70
     0
  9
$DIMTAD
 70
     0
  9
$DIMZIN
 70
     0
  9
$DIMBLK
  1

  9
$DIMASO
 70
     1
  9
$DIMSHO
 70
     1
  9
$DIMPOST
  1

  9
$DIMAPOST
  1

  9
$DIMALT
 70
     0
  9
$DIMALTD
 70
     2
  9
$DIMALTF
 40
25.4
  9
$DIMLFAC
 40
1.0
  9
$DIMTOFL
 70
     0
  9
$DIMTVP
 40
0.0
  9
$DIMTIX
 70
     0
  9
$DIMSOXD
 70
     0
  9
$DIMSAH
 70
     0
  9
$DIMBLK1
  1

  9
$DIMBLK2
  1

  9
$DIMSTYLE
  2
STANDARD
  9
$DIMCLRD
 70
     0
  9
$DIMCLRE
 70
     0
  9
$DIMCLRT
 70
     0
  9
$DIMTFAC
 40
1.0
  9
$DIMGAP
 40
0.09
  9
$LUNITS
 70
     2
  9
$LUPREC
 70
     4
  9
$SKETCHINC
 40
0.1
  9
$FILLETRAD
 40
0.0
  9
$AUNITS
 70
     0
  9
$AUPREC
 70
     0
  9
$MENU
  1
acad
  9
$ELEVATION
 40
0.0
  9
$PELEVATION
 40
0.0
  9
$THICKNESS
 40
0.0
  9
$LIMCHECK
 70
     0
  9
$CHAMFERA
 40
0.0
  9
$CHAMFERB
 40
0.0
  9
$SKPOLY
 70
     0
  9
$TDCREATE
 40
2453702.971468692
  9
$TDUPDATE
 40
2453705.313761389
  9
$TDINDWG
 40
0.0230202431
  9
$TDUSRTIMER
 40
0.0230202431
  9
$USRTIMER
 70
     1
  9
$ANGBASE
 50
0.0
  9
$ANGDIR
 70
     0
  9
$PDMODE
 70
     3
  9
$PDSIZE
 40
-2.0
  9
$PLINEWID
 40
0.0
  9
$COORDS
 70
     1
  9
$SPLFRAME
 70
     0
  9
$SPLINETYPE
 70
     6
  9
$SPLINESEGS
 70
     8
  9
$ATTDIA
 70
     0
  9
$ATTREQ
 70
     1
  9
$HANDLING
 70
     1
  9
$HANDSEED
  5
E2
  9
$SURFTAB1
 70
     6
  9
$SURFTAB2
 70
     6
  9
$SURFTYPE
 70
     6
  9
$SURFU
 70
     6
  9
$SURFV
 70
     6
  9
$UCSNAME
  2

  9
$UCSORG
 10
0.0
 20
0.0
 30
0.0
  9
$UCSXDIR
 10
1.0
 20
0.0
 30
0.0
  9
$UCSYDIR
 10
0.0
 20
1.0
 30
0.0
  9
$PUCSNAME
  2

  9
$PUCSORG
 10
0.0
 20
0.0
 30
0.0
  9
$PUCSXDIR
 10
1.0
 20
0.0
 30
0.0
  9
$PUCSYDIR
 10
0.0
 20
1.0
 30
0.0
  9
$USERI1
 70
     0
  9
$USERI2
 70
     0
  9
$USERI3
 70
     0
  9
$USERI4
 70
     0
  9
$USERI5
 70
     0
  9
$USERR1
 40
0.0
  9
$USERR2
 40
0.0
  9
$USERR3
 40
0.0
  9
$USERR4
 40
0.0
  9
$USERR5
 40
0.0
  9
$WORLDVIEW
 70
     1
  9
$SHADEDGE
 70
     3
  9
$SHADEDIF
 70
    70
  9
$TILEMODE
 70
     1
  9
$MAXACTVP
 70
    16
  9
$PLIMCHECK
 70
     0
  9
$PEXTMIN
 10
1.000000000000000E+20
 20
1.000000000000000E+20
 30
1.000000000000000E+20
  9
$PEXTMAX
 10
-1.000000000000000E+20
 20
-1.000000000000000E+20
 30
-1.000000000000000E+20
  9
$PLIMMIN
 10
0.0
 20
0.0
  9
$PLIMMAX
 10
12.0
 20
9.0
  9
$UNITMODE
 70
     0
  9
$VISRETAIN
 70
     0
  9
$PLINEGEN
 70
     1
  9
$PSLTSCALE
 70
     0
  0
ENDSEC
  0
SECTION
  2
TABLES
  0
TABLE
  2
VPORT
 70
     1
  0
VPORT
  2
*ACTIVE
 70
     0
 10
0.0
 20
0.0
 11
1.0
 21
1.0
 12
17.30737553179769
 22
17.52908156114642
 13
0.0
 23
0.0
 14
1.0
 24
1.0
 15
0.0
 25
0.0
 16
0.0
 26
0.0
 36
1.0
 17
0.0
 27
0.0
 37
0.0
 40
865.4909787917626
 41
1.455696202531646
 42
50.0
 43
0.0
 44
0.0
 50
0.0
 51
0.0
 71
     0
 72
   100
 73
     1
 74
     1
 75
     0
 76
     0
 77
     0
 78
     0
  0
ENDTAB
  0
TABLE
  2
LTYPE
 70
     1
  0
LTYPE
  2
CONTINUOUS
 70
     0
  3
Solid line
 72
    65
 73
     0
 40
0.0
  0
ENDTAB
  0
TABLE
  2
LAYER
 70
     1
  0
LAYER
  2
0
 70
     0
 62
     7
  6
CONTINUOUS
  0
ENDTAB
  0
TABLE
  2
STYLE
 70
     1
  0
STYLE
  2
STANDARD
 70
     0
 40
0.0
 41
1.0
 50
0.0
 71
     0
 42
0.003
  3
txt
  4

  0
ENDTAB
  0
TABLE
  2
VIEW
 70
     0
  0
ENDTAB
  0
TABLE
  2
UCS
 70
     0
  0
ENDTAB
  0
TABLE
  2
APPID
 70
     1
  0
APPID
  2
ACAD
 70
     0
  0
ENDTAB
  0
TABLE
  2
DIMSTYLE
 70
     1
  0
DIMSTYLE
  2
STANDARD
 70
     0
  3

  4

  5

  6

  7

 40
1.0
 41
0.18
 42
0.0625
 43
0.38
 44
0.18
 45
0.0
 46
0.0
 47
0.0
 48
0.0
140
0.18
141
0.09
142
0.0
143
25.4
144
1.0
145
0.0
146
1.0
147
0.09
 71
     0
 72
     0
 73
     1
 74
     1
 75
     0
 76
     0
 77
     0
 78
     0
170
     0
171
     2
172
     0
173
     0
174
     0
175
     0
176
     0
177
     0
178
     0
  0
ENDTAB
  0
ENDSEC
  0
SECTION
  2
BLOCKS
  0
BLOCK
  8
0
  2
$MODEL_SPACE
 70
     2
 10
0.0
 20
0.0
 30
0.0
  3
$MODEL_SPACE
  1

  0
ENDBLK
  5
B
  8
0
  0
BLOCK
 67
     1
  8
0
  2
$PAPER_SPACE
 70
     0
 10
0.0
 20
0.0
 30
0.0
  3
$PAPER_SPACE
  1

  0
ENDBLK
  5
12
 67
     1
  8
0
  0
ENDSEC
  0
SECTION
  2
ENTITIES
  0
LINE
  5
2A
  8
0
 10
77.33758515674364
 20
-75.88390780124882
 30
0.0
 11
4.965430751361708
 21
-75.88390780124882
 31
0.0
  0
POLYLINE
  5
2B
  8
0
 66
     1
 10
0.0
 20
0.0
 30
0.0
 70
   132
  0
VERTEX
  5
2C
  8
0
 10
77.33758515674364
 20
-75.88390780124882
 30
0.0
 70
    16
  0
VERTEX
  5
2D
  8
0
 10
77.33758515674364
 20
-75.88390780124882
 30
0.0
 70
     8
  0
VERTEX
  5
2E
  8
0
 10
91.69620187484159
 20
-67.98718816583288
 30
0.0
 70
     8
  0
VERTEX
  5
2F
  8
0
 10
103.8466991078262
 20
-60.78069845758587
 30
0.0
 70
     8
  0
VERTEX
  5
30
  8
0
 10
114.0226203497101
 20
-54.17246505651694
 30
0.0
 70
     8
  0
VERTEX
  5
31
  8
0
 10
122.4575090945058
 20
-48.07051434263519
 30
0.0
 70
     8
  0
VERTEX
  5
32
  8
0
 10
129.3849088362261
 20
-42.38287269594979
 30
0.0
 70
     8
  0
VERTEX
  5
33
  8
0
 10
135.0383630688835
 20
-37.0175664964698
 30
0.0
 70
     8
  0
VERTEX
  5
34
  8
0
 10
139.6514152864906
 20
-31.88262212420439
 30
0.0
 70
     8
  0
VERTEX
  5
35
  8
0
 10
143.4576089830602
 20
-26.88606595916262
 30
0.0
 70
     8
  0
VERTEX
  5
36
  8
0
 10
146.6603484500629
 20
-21.95196835476425
 30
0.0
 70
     8
  0
VERTEX
  5
37
  8
0
 10
149.3424811688026
 20
-17.06857555807123
 30
0.0
 70
     8
  0
VERTEX
  5
38
  8
0
 10
151.5567154180412
 20
-12.24017778955609
 30
0.0
 70
     8
  0
VERTEX
  5
39
  8
0
 10
153.3557594765407
 20
-7.471065269691422
 30
0.0
 70
     8
  0
VERTEX
  5
3A
  8
0
 10
154.7923216230631
 20
-2.765528218949726
 30
0.0
 70
     8
  0
VERTEX
  5
3B
  8
0
 10
155.9191101363703
 20
1.872143142196421
 30
0.0
 70
     8
  0
VERTEX
  5
3C
  8
0
 10
156.7888332952243
 20
6.437658593274477
 30
0.0
 70
     8
  0
VERTEX
  5
3D
  8
0
 10
157.4541993783872
 20
10.9267279138119
 30
0.0
 70
     8
  0
VERTEX
  5
3E
  8
0
 10
157.962904398338
 20
15.3305958287535
 30
0.0
 70
     8
  0
VERTEX
  5
3F
  8
0
 10
158.3425953024255
 20
19.62264684471333
 30
0.0
 70
     8
  0
VERTEX
  5
40
  8
0
 10
158.6159067717155
 20
23.7718004137229
 30
0.0
 70
     8
  0
VERTEX
  5
41
  8
0
 10
158.8054734872738
 20
27.74697598781364
 30
0.0
 70
     8
  0
VERTEX
  5
42
  8
0
 10
158.9339301301665
 20
31.51709301901701
 30
0.0
 70
     8
  0
VERTEX
  5
43
  8
0
 10
159.0239113814592
 20
35.05107095936447
 30
0.0
 70
     8
  0
VERTEX
  5
44
  8
0
 10
159.098051922218
 20
38.31782926088749
 30
0.0
 70
     8
  0
VERTEX
  5
45
  8
0
 10
159.1789864335087
 20
41.28628737561749
 30
0.0
 70
     8
  0
VERTEX
  5
46
  8
0
 10
159.2865987908249
 20
43.93754886509714
 30
0.0
 70
     8
  0
VERTEX
  5
47
  8
0
 10
159.4297696473714
 20
46.30145372891386
 30
0.0
 70
     8
  0
VERTEX
  5
48
  8
0
 10
159.6146288507806
 20
48.42002607616632
 30
0.0
 70
     8
  0
VERTEX
  5
49
  8
0
 10
159.8473062486852
 20
50.33529001595318
 30
0.0
 70
     8
  0
VERTEX
  5
4A
  8
0
 10
160.1339316887176
 20
52.08926965737302
 30
0.0
 70
     8
  0
VERTEX
  5
4B
  8
0
 10
160.4806350185103
 20
53.72398910952458
 30
0.0
 70
     8
  0
VERTEX
  5
4C
  8
0
 10
160.8935460856959
 20
55.28147248150643
 30
0.0
 70
     8
  0
VERTEX
  5
4D
  8
0
 10
161.3787947379068
 20
56.80374388241725
 30
0.0
 70
     8
  0
VERTEX
  5
4E
  8
0
 10
161.9393855649304
 20
58.32501949148664
 30
0.0
 70
     8
  0
VERTEX
  5
4F
  8
0
 10
162.5658221251726
 20
59.84828376846801
 30
0.0
 70
     8
  0
VERTEX
  5
50
  8
0
 10
163.2454827191945
 20
61.36871324324565
 30
0.0
 70
     8
  0
VERTEX
  5
51
  8
0
 10
163.9657456475567
 20
62.8814844457039
 30
0.0
 70
     8
  0
VERTEX
  5
52
  8
0
 10
164.7139892108202
 20
64.38177390572716
 30
0.0
 70
     8
  0
VERTEX
  5
53
  8
0
 10
165.4775917095458
 20
65.86475815319969
 30
0.0
 70
     8
  0
VERTEX
  5
54
  8
0
 10
166.2439314442944
 20
67.32561371800591
 30
0.0
 70
     8
  0
VERTEX
  5
55
  8
0
 10
167.0003867156267
 20
68.75951713003011
 30
0.0
 70
     8
  0
VERTEX
  5
56
  8
0
 10
167.7389145937522
 20
70.16416512649991
 30
0.0
 70
     8
  0
VERTEX
  5
57
  8
0
 10
168.4697872274743
 20
71.54733527401598
 30
0.0
 70
     8
  0
VERTEX
  5
58
  8
0
 10
169.207855535245
 20
72.91932534652244
 30
0.0
 70
     8
  0
VERTEX
  5
59
  8
0
 10
169.9679704355161
 20
74.2904331179632
 30
0.0
 70
     8
  0
VERTEX
  5
5A
  8
0
 10
170.7649828467395
 20
75.67095636228237
 30
0.0
 70
     8
  0
VERTEX
  5
5B
  8
0
 10
171.6137436873675
 20
77.07119285342387
 30
0.0
 70
     8
  0
VERTEX
  5
5C
  8
0
 10
172.5291038758516
 20
78.50144036533172
 30
0.0
 70
     8
  0
VERTEX
  5
5D
  8
0
 10
173.5259143306441
 20
79.97199667194991
 30
0.0
 70
     8
  0
VERTEX
  5
5E
  8
0
 10
174.6251178344821
 20
81.49878148998991
 30
0.0
 70
     8
  0
VERTEX
  5
5F
  8
0
 10
175.8720246272444
 20
83.12020230723263
 30
0.0
 70
     8
  0
VERTEX
  5
60
  8
0
 10
177.3180368130952
 20
84.88028855422647
 30
0.0
 70
     8
  0
VERTEX
  5
61
  8
0
 10
179.0145564961983
 20
86.82306966151973
 30
0.0
 70
     8
  0
VERTEX
  5
62
  8
0
 10
181.0129857807182
 20
88.99257505966071
 30
0.0
 70
     8
  0
VERTEX
  5
63
  8
0
 10
183.3647267708187
 20
91.43283417919784
 30
0.0
 70
     8
  0
VERTEX
  5
64
  8
0
 10
186.1211815706641
 20
94.18787645067948
 30
0.0
 70
     8
  0
VERTEX
  5
65
  8
0
 10
189.3337522844184
 20
97.30173130465391
 30
0.0
 70
     8
  0
VERTEX
  5
66
  8
0
 10
118.7789832687228
 20
-53.82392787503356
 30
0.0
 70
    16
  0
VERTEX
  5
67
  8
0
 10
149.572969271327
 20
-26.39097702867939
 30
0.0
 70
    16
  0
VERTEX
  5
68
  8
0
 10
159.0717865456325
 20
11.78791565795254
 30
0.0
 70
    16
  0
VERTEX
  5
69
  8
0
 10
158.8650808164659
 20
44.79968187974075
 30
0.0
 70
    16
  0
VERTEX
  5
6A
  8
0
 10
160.5418087895561
 20
56.73108107678937
 30
0.0
 70
    16
  0
VERTEX
  5
6B
  8
0
 10
167.2404524527506
 20
69.09845710760533
 30
0.0
 70
    16
  0
VERTEX
  5
6C
  8
0
 10
172.498701693202
 20
79.4321932729699
 30
0.0
 70
    16
  0
VERTEX
  5
6D
  8
0
 10
180.1130517366048
 20
88.48056431246644
 30
0.0
 70
    16
  0
VERTEX
  5
6E
  8
0
 10
189.3337522844184
 20
97.30173130465394
 30
0.0
 70
    16
  0
SEQEND
  5
6F
  8
0
  0
LINE
  5
70
  8
0
 10
76.20759383729921
 20
-111.2423008134016
 30
0.0
 11
77.33758515674364
 21
-75.88390780124882
 31
0.0
  0
LINE
  5
71
  8
0
 10
6.136418707090883
 20
-111.2423008134016
 30
0.0
 11
76.20759383729921
 21
-111.2423008134016
 31
0.0
  0
LINE
  5
72
  8
0
 10
4.965430751361708
 20
-75.88390780124882
 30
0.0
 11
6.136418707090883
 21
-111.2423008134016
 31
0.0
  0
POLYLINE
  5
73
  8
0
 66
     1
 10
0.0
 20
0.0
 30
0.0
 70
   132
  0
VERTEX
  5
74
  8
0
 10
-191.3198698141745
 20
97.30173130465394
 30
0.0
 70
    16
  0
VERTEX
  5
75
  8
0
 10
-191.3198698141745
 20
97.30173130465394
 30
0.0
 70
     8
  0
VERTEX
  5
76
  8
0
 10
-185.6996324493296
 20
94.18792957939002
 30
0.0
 70
     8
  0
VERTEX
  5
77
  8
0
 10
-180.9124804806162
 20
91.43292008229494
 30
0.0
 70
     8
  0
VERTEX
  5
78
  8
0
 10
-176.8660435240149
 20
88.99267725182423
 30
0.0
 70
     8
  0
VERTEX
  5
79
  8
0
 10
-173.4679511955058
 20
86.82317552643315
 30
0.0
 70
     8
  0
VERTEX
  5
7A
  8
0
 10
-170.6258331110695
 20
84.88038934457708
 30
0.0
 70
     8
  0
VERTEX
  5
7B
  8
0
 10
-168.2473188866862
 20
83.12029314471144
 30
0.0
 70
     8
  0
VERTEX
  5
7C
  8
0
 10
-166.2400381383364
 20
81.49886136529153
 30
0.0
 70
     8
  0
VERTEX
  5
7D
  8
0
 10
-164.5116204820006
 20
79.97206844477259
 30
0.0
 70
     8
  0
VERTEX
  5
7E
  8
0
 10
-162.9805537702569
 20
78.50150908220212
 30
0.0
 70
     8
  0
VERTEX
  5
7F
  8
0
 10
-161.6087588020757
 20
77.07125901899471
 30
0.0
 70
     8
  0
VERTEX
  5
80
  8
0
 10
-160.3690146130252
 20
75.67101425715688
 30
0.0
 70
     8
  0
VERTEX
  5
81
  8
0
 10
-159.2341002386737
 20
74.29047079869508
 30
0.0
 70
     8
  0
VERTEX
  5
82
  8
0
 10
-158.1767947145894
 20
72.91932464561594
 30
0.0
 70
     8
  0
VERTEX
  5
83
  8
0
 10
-157.1698770763406
 20
71.54727179992597
 30
0.0
 70
     8
  0
VERTEX
  5
84
  8
0
 10
-156.1861263594954
 20
70.16400826363167
 30
0.0
 70
     8
  0
VERTEX
  5
85
  8
0
 10
-155.1983215996221
 20
68.75923003873959
 30
0.0
 70
     8
  0
VERTEX
  5
86
  8
0
 10
-154.1849608926569
 20
67.32516104457071
 30
0.0
 70
     8
  0
VERTEX
  5
87
  8
0
 10
-153.1474185760083
 20
65.86413686970386
 30
0.0
 70
     8
  0
VERTEX
  5
88
  8
0
 10
-152.0927880474523
 20
64.38102102003231
 30
0.0
 70
     8
  0
VERTEX
  5
89
  8
0
 10
-151.0281627047653
 20
62.88067700144939
 30
0.0
 70
     8
  0
VERTEX
  5
8A
  8
0
 10
-149.9606359457236
 20
61.3679683198483
 30
0.0
 70
     8
  0
VERTEX
  5
8B
  8
0
 10
-148.8973011681035
 20
59.84775848112238
 30
0.0
 70
     8
  0
VERTEX
  5
8C
  8
0
 10
-147.8452517696813
 20
58.32491099116496
 30
0.0
 70
     8
  0
VERTEX
  5
8D
  8
0
 10
-146.8115811482332
 20
56.8042893558692
 30
0.0
 70
     8
  0
VERTEX
  5
8E
  8
0
 10
-145.8000115096277
 20
55.28294819802667
 30
0.0
 70
     8
  0
VERTEX
  5
8F
  8
0
 10
-144.8007802921021
 20
53.72670660802126
 30
0.0
 70
     8
  0
VERTEX
  5
90
  8
0
 10
-143.8007537419857
 20
52.09357479313522
 30
0.0
 70
     8
  0
VERTEX
  5
91
  8
0
 10
-142.786798105608
 20
50.34156296065075
 30
0.0
 70
     8
  0
VERTEX
  5
92
  8
0
 10
-141.7457796292984
 20
48.42868131784996
 30
0.0
 70
     8
  0
VERTEX
  5
93
  8
0
 10
-140.6645645593864
 20
46.31294007201507
 30
0.0
 70
     8
  0
VERTEX
  5
94
  8
0
 10
-139.5300191422012
 20
43.9523494304282
 30
0.0
 70
     8
  0
VERTEX
  5
95
  8
0
 10
-138.3290096240723
 20
41.30491960037156
 30
0.0
 70
     8
  0
VERTEX
  5
96
  8
0
 10
-137.0478933371587
 20
38.34082252570394
 30
0.0
 70
     8
  0
VERTEX
  5
97
  8
0
 10
-135.6709919569377
 20
35.07887709659076
 30
0.0
 70
     8
  0
VERTEX
  5
98
  8
0
 10
-134.1821182447159
 20
31.55006393977408
 30
0.0
 70
     8
  0
VERTEX
  5
99
  8
0
 10
-132.5650849618002
 20
27.7853636819959
 30
0.0
 70
     8
  0
VERTEX
  5
9A
  8
0
 10
-130.8037048694972
 20
23.8157569499983
 30
0.0
 70
     8
  0
VERTEX
  5
9B
  8
0
 10
-128.8817907291138
 20
19.67222437052334
 30
0.0
 70
     8
  0
VERTEX
  5
9C
  8
0
 10
-126.7831553019567
 20
15.38574657031302
 30
0.0
 70
     8
  0
VERTEX
  5
9D
  8
0
 10
-124.4916113493327
 20
10.98730417610938
 30
0.0
 70
     8
  0
VERTEX
  5
9E
  8
0
 10
-121.983239680941
 20
6.503407657472735
 30
0.0
 70
     8
  0
VERTEX
  5
9F
  8
0
 10
-119.2031933000502
 20
1.942686855236246
 30
0.0
 70
     8
  0
VERTEX
  5
A0
  8
0
 10
-116.0888932583217
 20
-2.690698546948681
 30
0.0
 70
     8
  0
VERTEX
  5
A1
  8
0
 10
-112.5777606074165
 20
-7.392588865430696
 30
0.0
 70
     8
  0
VERTEX
  5
A2
  8
0
 10
-108.6072163989959
 20
-12.15882441655836
 30
0.0
 70
     8
  0
VERTEX
  5
A3
  8
0
 10
-104.1146816847209
 20
-16.98524551668034
 30
0.0
 70
     8
  0
VERTEX
  5
A4
  8
0
 10
-99.03757751625285
 20
-21.86769248214517
 30
0.0
 70
     8
  0
VERTEX
  5
A5
  8
0
 10
-93.31332494525286
 20
-26.80200562930151
 30
0.0
 70
     8
  0
VERTEX
  5
A6
  8
0
 10
-86.83700533815397
 20
-31.8001178067088
 30
0.0
 70
     8
  0
VERTEX
  5
A7
  8
0
 10
-79.33434132047667
 20
-36.93833199177009
 30
0.0
 70
     8
  0
VERTEX
  5
A8
  8
0
 10
-70.48871583251329
 20
-42.30904369409922
 30
0.0
 70
     8
  0
VERTEX
  5
A9
  8
0
 10
-59.98351181455626
 20
-48.00464842331012
 30
0.0
 70
     8
  0
VERTEX
  5
AA
  8
0
 10
-47.50211220689786
 20
-54.11754168901662
 30
0.0
 70
     8
  0
VERTEX
  5
AB
  8
0
 10
-32.72789994983052
 20
-60.74011900083266
 30
0.0
 70
     8
  0
VERTEX
  5
AC
  8
0
 10
-15.34425798364653
 20
-67.9647758683721
 30
0.0
 70
     8
  0
VERTEX
  5
AD
  8
0
 10
4.965430751361694
 20
-75.88390780124884
 30
0.0
 70
     8
  0
VERTEX
  5
AE
  8
0
 10
-175.1396826383952
 20
88.48073656724074
 30
0.0
 70
    16
  0
VERTEX
  5
AF
  8
0
 10
-162.5223649300619
 20
79.4321932729699
 30
0.0
 70
    16
  0
VERTEX
  5
B0
  8
0
 10
-155.5319216791938
 20
69.09862936237963
 30
0.0
 70
    16
  0
VERTEX
  5
B1
  8
0
 10
-146.5398779508952
 20
56.72866950994907
 30
0.0
 70
    16
  0
VERTEX
  5
B2
  8
0
 10
-139.1780534066244
 20
44.81242873303935
 30
0.0
 70
    16
  0
VERTEX
  5
B3
  8
0
 10
-126.7219661670411
 20
11.85113316012269
 30
0.0
 70
    16
  0
VERTEX
  5
B4
  8
0
 10
-100.8837500212077
 20
-26.29313631687384
 30
0.0
 70
    16
  0
VERTEX
  5
B5
  8
0
 10
-53.37657228683273
 20
-53.75812655124884
 30
0.0
 70
    16
  0
VERTEX
  5
B6
  8
0
 10
4.965430751361708
 20
-75.88390780124882
 30
0.0
 70
    16
  0
SEQEND
  5
B7
  8
0
  0
LINE
  5
B8
  8
0
 10
210.7985172313964
 20
97.30173130465394
 30
0.0
 11
-210.9094200515897
 21
97.30173130465394
 31
0.0
  0
POLYLINE
  5
B9
  8
0
 66
     1
 10
0.0
 20
0.0
 30
0.0
 70
   132
 75
     6
  0
VERTEX
  5
BA
  8
0
 10
193.7132551871256
 20
110.1569328563032
 30
0.0
 70
    16
  0
VERTEX
  5
BB
  8
0
 10
193.7132551871256
 20
110.1569328563032
 30
0.0
 70
     8
  0
VERTEX
  5
BC
  8
0
 10
198.126416449002
 20
109.4068147887738
 30
0.0
 70
     8
  0
VERTEX
  5
BD
  8
0
 10
201.7887474102294
 20
108.3742385907257
 30
0.0
 70
     8
  0
VERTEX
  5
BE
  8
0
 10
204.7503055773692
 20
107.078035880786
 30
0.0
 70
     8
  0
VERTEX
  5
BF
  8
0
 10
207.0611484569824
 20
105.5370382775815
 30
0.0
 70
     8
  0
VERTEX
  5
C0
  8
0
 10
208.7713335556305
 20
103.7700773997391
 30
0.0
 70
     8
  0
VERTEX
  5
C1
  8
0
 10
209.9309183798746
 20
101.7959848658858
 30
0.0
 70
     8
  0
VERTEX
  5
C2
  8
0
 10
210.5899604362762
 20
99.63359229464848
 30
0.0
 70
     8
  0
VERTEX
  5
C3
  8
0
 10
210.7985172313964
 20
97.30173130465403
 30
0.0
 70
     8
  0
VERTEX
  5
C4
  8
0
 10
206.5272878477159
 20
108.5499680668067
 30
0.0
 70
    16
  0
VERTEX
  5
C5
  8
0
 10
210.7985172313964
 20
103.7292459530914
 30
0.0
 70
    16
  0
VERTEX
  5
C6
  8
0
 10
210.7985172313964
 20
97.30173130465394
 30
0.0
 70
    16
  0
SEQEND
  5
C7
  8
0
  0
LINE
  5
C8
  8
0
 10
186.0020979605631
 20
110.1569328563032
 30
0.0
 11
193.7132551871256
 21
110.1569328563032
 31
0.0
  0
LINE
  5
C9
  8
0
 10
-192.8075103293674
 20
110.1691629452789
 30
0.0
 11
186.0020979605631
 21
110.1569328563032
 31
0.0
  0
LINE
  5
CA
  8
0
 10
-193.2250559022841
 20
110.1631340281782
 30
0.0
 11
-192.8075103293674
 21
110.1691629452789
 31
0.0
  0
POLYLINE
  5
CB
  8
0
 66
     1
 10
0.0
 20
0.0
 30
0.0
 70
   132
 75
     6
  0
VERTEX
  5
CC
  8
0
 10
-210.9094200515897
 20
97.30173130465394
 30
0.0
 70
    16
  0
VERTEX
  5
CD
  8
0
 10
-210.9094200515897
 20
97.30173130465394
 30
0.0
 70
     8
  0
VERTEX
  5
CE
  8
0
 10
-210.6910736677531
 20
99.63631035387033
 30
0.0
 70
     8
  0
VERTEX
  5
CF
  8
0
 10
-210.007364862245
 20
101.8006115214644
 30
0.0
 70
     8
  0
VERTEX
  5
D0
  8
0
 10
-208.8063749694974
 20
103.7759303612793
 30
0.0
 70
     8
  0
VERTEX
  5
D1
  8
0
 10
-207.0361853239421
 20
105.5435624271583
 30
0.0
 70
     8
  0
VERTEX
  5
D2
  8
0
 10
-204.6448772600112
 20
107.0848032729445
 30
0.0
 70
     8
  0
VERTEX
  5
D3
  8
0
 10
-201.5805321121366
 20
108.3809484524811
 30
0.0
 70
     8
  0
VERTEX
  5
D4
  8
0
 10
-197.7912312147502
 20
109.4132935196113
 30
0.0
 70
     8
  0
VERTEX
  5
D5
  8
0
 10
-193.2250559022841
 20
110.1631340281782
 30
0.0
 70
     8
  0
VERTEX
  5
D6
  8
0
 10
-210.9014963319716
 20
103.7376864370324
 30
0.0
 70
    16
  0
VERTEX
  5
D7
  8
0
 10
-206.4835058805827
 20
108.5568582577789
 30
0.0
 70
    16
  0
VERTEX
  5
D8
  8
0
 10
-193.2250559022841
 20
110.1631340281782
 30
0.0
 70
    16
  0
SEQEND
  5
D9
  8
0
  0
ATTDEF
  5
DA
  8
0
  6
CONTINUOUS
 10
-0.0018
 20
-0.0065
 30
0.0
 40
0.003
  1
K-2336
  3

  2
MODELNUMBER
 70
     2
  0
ATTDEF
  5
DB
  8
0
  6
CONTINUOUS
 10
-0.0018
 20
-0.0098
 30
0.0
 40
0.003
  1
DEVONSHIRE
  3

  2
TRADENAME
 70
     2
  0
ATTDEF
  5
DC
  8
0
  6
CONTINUOUS
 10
-0.0018
 20
-0.0132
 30
0.0
 40
0.003
  1
LAVATORY
  3

  2
PRODUCT
 70
     2
  0
ATTDEF
  5
DD
  8
0
  6
CONTINUOUS
 10
-0.0018
 20
-0.0165
 30
0.0
 40
0.003
  1
VITREOUS CHINA
  3

  2
MATERIAL
 70
     2
  0
ENDSEC
  0
EOF
