  0
SECTION
  2
HEADER
  9
$ACADVER
  1
AC1009
  9
$INSBASE
 10
0.0
 20
0.0
 30
0.0
  9
$EXTMIN
 10
-9.0
 20
-7.139378948941256
 30
0.0
  9
$EXTMAX
 10
9.0
 20
1.547138743061828
 30
0.0
  9
$LIMMIN
 10
0.0
 20
0.0
  9
$LIMMAX
 10
12.0
 20
9.0
  9
$ORTHOMODE
 70
     0
  9
$REGENMODE
 70
     1
  9
$FILLMODE
 70
     1
  9
$QTEXTMODE
 70
     0
  9
$MIRRTEXT
 70
     1
  9
$DRAGMODE
 70
     2
  9
$LTSCALE
 40
1.0
  9
$OSMODE
 70
    37
  9
$ATTMODE
 70
     1
  9
$TEXTSIZE
 40
0.001
  9
$TRACEWID
 40
0.05
  9
$TEXTSTYLE
  7
STANDARD
  9
$CLAYER
  8
DMB
  9
$CELTYPE
  6
BYLAYER
  9
$CECOLOR
 62
   256
  9
$DIMSCALE
 40
1.0
  9
$DIMASZ
 40
0.18
  9
$DIMEXO
 40
0.0625
  9
$DIMDLI
 40
0.38
  9
$DIMRND
 40
0.0
  9
$DIMDLE
 40
0.0
  9
$DIMEXE
 40
0.18
  9
$DIMTP
 40
0.0
  9
$DIMTM
 40
0.0
  9
$DIMTXT
 40
0.18
  9
$DIMCEN
 40
0.09
  9
$DIMTSZ
 40
0.0
  9
$DIMTOL
 70
     0
  9
$DIMLIM
 70
     0
  9
$DIMTIH
 70
     1
  9
$DIMTOH
 70
     1
  9
$DIMSE1
 70
     0
  9
$DIMSE2
 70
     0
  9
$DIMTAD
 70
     0
  9
$DIMZIN
 70
     0
  9
$DIMBLK
  1

  9
$DIMASO
 70
     1
  9
$DIMSHO
 70
     1
  9
$DIMPOST
  1

  9
$DIMAPOST
  1

  9
$DIMALT
 70
     0
  9
$DIMALTD
 70
     2
  9
$DIMALTF
 40
25.399999999999999
  9
$DIMLFAC
 40
1.0
  9
$DIMTOFL
 70
     0
  9
$DIMTVP
 40
0.0
  9
$DIMTIX
 70
     0
  9
$DIMSOXD
 70
     0
  9
$DIMSAH
 70
     0
  9
$DIMBLK1
  1

  9
$DIMBLK2
  1

  9
$DIMSTYLE
  2
STANDARD
  9
$DIMCLRD
 70
     0
  9
$DIMCLRE
 70
     0
  9
$DIMCLRT
 70
     0
  9
$DIMTFAC
 40
1.0
  9
$DIMGAP
 40
0.09
  9
$LUNITS
 70
     2
  9
$LUPREC
 70
     4
  9
$SKETCHINC
 40
0.1
  9
$FILLETRAD
 40
0.2664
  9
$AUNITS
 70
     0
  9
$AUPREC
 70
     0
  9
$MENU
  1
.
  9
$ELEVATION
 40
0.0
  9
$PELEVATION
 40
0.0
  9
$THICKNESS
 40
0.0
  9
$LIMCHECK
 70
     0
  9
$BLIPMODE
 70
     0
  9
$CHAMFERA
 40
0.5
  9
$CHAMFERB
 40
0.5
  9
$SKPOLY
 70
     0
  9
$TDCREATE
 40
2451380.555432396
  9
$TDUPDATE
 40
2456700.4535759152
  9
$TDINDWG
 40
3.2837112036999998
  9
$TDUSRTIMER
 40
3.2837021644000002
  9
$USRTIMER
 70
     1
  9
$ANGBASE
 50
0.0
  9
$ANGDIR
 70
     0
  9
$PDMODE
 70
     0
  9
$PDSIZE
 40
0.0
  9
$PLINEWID
 40
0.0
  9
$COORDS
 70
     1
  9
$SPLFRAME
 70
     0
  9
$SPLINETYPE
 70
     6
  9
$SPLINESEGS
 70
     8
  9
$ATTDIA
 70
     0
  9
$ATTREQ
 70
     1
  9
$HANDLING
 70
     1
  9
$HANDSEED
  5
F0E
  9
$SURFTAB1
 70
     6
  9
$SURFTAB2
 70
     6
  9
$SURFTYPE
 70
     6
  9
$SURFU
 70
     6
  9
$SURFV
 70
     6
  9
$UCSNAME
  2

  9
$UCSORG
 10
0.0
 20
0.0
 30
0.0
  9
$UCSXDIR
 10
1.0
 20
0.0
 30
0.0
  9
$UCSYDIR
 10
0.0
 20
1.0
 30
0.0
  9
$PUCSNAME
  2

  9
$PUCSORG
 10
0.0
 20
0.0
 30
0.0
  9
$PUCSXDIR
 10
1.0
 20
0.0
 30
0.0
  9
$PUCSYDIR
 10
0.0
 20
1.0
 30
0.0
  9
$USERI1
 70
     0
  9
$USERI2
 70
     0
  9
$USERI3
 70
     0
  9
$USERI4
 70
     0
  9
$USERI5
 70
     0
  9
$USERR1
 40
0.0
  9
$USERR2
 40
0.0
  9
$USERR3
 40
0.0
  9
$USERR4
 40
0.0
  9
$USERR5
 40
0.0
  9
$WORLDVIEW
 70
     1
  9
$SHADEDGE
 70
     3
  9
$SHADEDIF
 70
    70
  9
$TILEMODE
 70
     1
  9
$MAXACTVP
 70
    64
  9
$PLIMCHECK
 70
     0
  9
$PEXTMIN
 10
1.0000000000000000E+020
 20
1.0000000000000000E+020
 30
1.0000000000000000E+020
  9
$PEXTMAX
 10
-1.0000000000000000E+020
 20
-1.0000000000000000E+020
 30
-1.0000000000000000E+020
  9
$PLIMMIN
 10
0.0
 20
0.0
  9
$PLIMMAX
 10
12.0
 20
9.0
  9
$UNITMODE
 70
     0
  9
$VISRETAIN
 70
     1
  9
$PLINEGEN
 70
     0
  9
$PSLTSCALE
 70
     1
  0
ENDSEC
  0
SECTION
  2
TABLES
  0
TABLE
  2
VPORT
 70
     1
  0
VPORT
  2
*ACTIVE
 70
     0
 10
0.0
 20
0.0
 11
1.0
 21
1.0
 12
-17.518435330815802
 22
28.194767947484021
 13
0.0
 23
0.0
 14
0.5
 24
0.5
 15
0.5
 25
0.5
 16
0.0
 26
0.0
 36
1.0
 17
0.0
 27
0.0
 37
0.0
 40
124.6682037996015
 41
1.1829652996845419
 42
50.0
 43
0.0
 44
0.0
 50
0.0
 51
0.0
 71
     0
 72
  5500
 73
     1
 74
     1
 75
     0
 76
     0
 77
     0
 78
     0
  0
ENDTAB
  0
TABLE
  2
LTYPE
 70
     3
  0
LTYPE
  2
CONTINUOUS
 70
     0
  3
Solid line
 72
    65
 73
     0
 40
0.0
  0
LTYPE
  2
HIDDEN2
 70
     0
  3
Hidden (.5x) _ _ _ _ _ _ _ _ _ _ _ _ _ _ _ _ _
 72
    65
 73
     2
 40
0.1875
 49
0.125
 49
-0.0625
  0
LTYPE
  2
PHANTOM2
 70
     0
  3
Phantom (.5x) ___ _ _ ___ _ _ ___ _ _ ___ _ _
 72
    65
 73
     6
 40
1.25
 49
0.625
 49
-0.125
 49
0.125
 49
-0.125
 49
0.125
 49
-0.125
  0
ENDTAB
  0
TABLE
  2
LAYER
 70
     3
  0
LAYER
  2
0
 70
     0
 62
     7
  6
CONTINUOUS
  0
LAYER
  2
DEFPOINTS
 70
     0
 62
     7
  6
CONTINUOUS
  0
LAYER
  2
DMB
 70
     0
 62
   151
  6
CONTINUOUS
  0
ENDTAB
  0
TABLE
  2
STYLE
 70
     1
  0
STYLE
  2
STANDARD
 70
     0
 40
0.0
 41
1.0
 50
0.0
 71
     0
 42
0.001
  3
txt
  4

  0
ENDTAB
  0
TABLE
  2
VIEW
 70
     0
  0
ENDTAB
  0
TABLE
  2
UCS
 70
     0
  0
ENDTAB
  0
TABLE
  2
APPID
 70
     6
  0
APPID
  2
ACAD
 70
     0
  0
APPID
  2
ACAECLAYERSTANDARD
 70
     0
  0
APPID
  2
ACAD_NAV_VCDISPLAY
 70
     0
  0
APPID
  2
ACCMTRANSPARENCY
 70
     0
  0
APPID
  2
AcDbAttr
 70
     0
  0
APPID
  2
ACAD_MLEADERVER
 70
     0
  0
ENDTAB
  0
TABLE
  2
DIMSTYLE
 70
     1
  0
DIMSTYLE
  2
STANDARD
 70
     0
  3

  4

  5

  6

  7

 40
1.0
 41
0.18
 42
0.0625
 43
0.38
 44
0.18
 45
0.0
 46
0.0
 47
0.0
 48
0.0
140
0.18
141
0.09
142
0.0
143
25.399999999999999
144
1.0
145
0.0
146
1.0
147
0.09
 71
     0
 72
     0
 73
     1
 74
     1
 75
     0
 76
     0
 77
     0
 78
     0
170
     0
171
     2
172
     0
173
     0
174
     0
175
     0
176
     0
177
     0
178
     0
  0
ENDTAB
  0
ENDSEC
  0
SECTION
  2
BLOCKS
  0
BLOCK
  8
0
  2
$MODEL_SPACE
 70
     2
 10
0.0
 20
0.0
 30
0.0
  3
$MODEL_SPACE
  1

  0
ENDBLK
  5
16
  8
0
  0
BLOCK
 67
     1
  8
0
  2
$PAPER_SPACE
 70
     0
 10
0.0
 20
0.0
 30
0.0
  3
$PAPER_SPACE
  1

  0
ENDBLK
  5
1D
 67
     1
  8
0
  0
ENDSEC
  0
SECTION
  2
ENTITIES
  0
POLYLINE
  8
0
  5
12C
  66
     1
 10
0.000000
 20
0.000000
 30
0.000000
  70
     8
  0
VERTEX
  8
0
  5
12D
 10
-6.81950
 20
0.000000
 30
0.000000
  70
    32
  0
VERTEX
  8
0
  5
12E
 10
-6.81117
 20
-0.0278071
 30
0.000000
  70
    32
  0
VERTEX
  8
0
  5
12F
 10
-6.80284
 20
-0.0556122
 30
0.000000
  70
    32
  0
VERTEX
  8
0
  5
130
 10
-6.79450
 20
-0.0834144
 30
0.000000
  70
    32
  0
VERTEX
  8
0
  5
131
 10
-6.78617
 20
-0.111213
 30
0.000000
  70
    32
  0
VERTEX
  8
0
  5
132
 10
-6.77783
 20
-0.139007
 30
0.000000
  70
    32
  0
VERTEX
  8
0
  5
133
 10
-6.76948
 20
-0.166796
 30
0.000000
  70
    32
  0
VERTEX
  8
0
  5
134
 10
-6.76113
 20
-0.194579
 30
0.000000
  70
    32
  0
VERTEX
  8
0
  5
135
 10
-6.75276
 20
-0.222356
 30
0.000000
  70
    32
  0
VERTEX
  8
0
  5
136
 10
-6.74439
 20
-0.250124
 30
0.000000
  70
    32
  0
VERTEX
  8
0
  5
137
 10
-6.73600
 20
-0.277885
 30
0.000000
  70
    32
  0
VERTEX
  8
0
  5
138
 10
-6.72760
 20
-0.305636
 30
0.000000
  70
    32
  0
VERTEX
  8
0
  5
139
 10
-6.71917
 20
-0.333378
 30
0.000000
  70
    32
  0
VERTEX
  8
0
  5
13A
 10
-6.71073
 20
-0.361109
 30
0.000000
  70
    32
  0
VERTEX
  8
0
  5
13B
 10
-6.70227
 20
-0.388828
 30
0.000000
  70
    32
  0
VERTEX
  8
0
  5
13C
 10
-6.69379
 20
-0.416536
 30
0.000000
  70
    32
  0
VERTEX
  8
0
  5
13D
 10
-6.68528
 20
-0.444230
 30
0.000000
  70
    32
  0
VERTEX
  8
0
  5
13E
 10
-6.67674
 20
-0.471911
 30
0.000000
  70
    32
  0
VERTEX
  8
0
  5
13F
 10
-6.66818
 20
-0.499577
 30
0.000000
  70
    32
  0
VERTEX
  8
0
  5
140
 10
-6.65959
 20
-0.527228
 30
0.000000
  70
    32
  0
VERTEX
  8
0
  5
141
 10
-6.65096
 20
-0.554863
 30
0.000000
  70
    32
  0
VERTEX
  8
0
  5
142
 10
-6.64230
 20
-0.582481
 30
0.000000
  70
    32
  0
VERTEX
  8
0
  5
143
 10
-6.63361
 20
-0.610081
 30
0.000000
  70
    32
  0
VERTEX
  8
0
  5
144
 10
-6.62488
 20
-0.637663
 30
0.000000
  70
    32
  0
VERTEX
  8
0
  5
145
 10
-6.61611
 20
-0.665225
 30
0.000000
  70
    32
  0
VERTEX
  8
0
  5
146
 10
-6.60730
 20
-0.692768
 30
0.000000
  70
    32
  0
VERTEX
  8
0
  5
147
 10
-6.59844
 20
-0.720290
 30
0.000000
  70
    32
  0
VERTEX
  8
0
  5
148
 10
-6.58954
 20
-0.747791
 30
0.000000
  70
    32
  0
VERTEX
  8
0
  5
149
 10
-6.58060
 20
-0.775269
 30
0.000000
  70
    32
  0
VERTEX
  8
0
  5
14A
 10
-6.57160
 20
-0.802724
 30
0.000000
  70
    32
  0
VERTEX
  8
0
  5
14B
 10
-6.56256
 20
-0.830155
 30
0.000000
  70
    32
  0
VERTEX
  8
0
  5
14C
 10
-6.55346
 20
-0.857562
 30
0.000000
  70
    32
  0
VERTEX
  8
0
  5
14D
 10
-6.54431
 20
-0.884943
 30
0.000000
  70
    32
  0
VERTEX
  8
0
  5
14E
 10
-6.53511
 20
-0.912298
 30
0.000000
  70
    32
  0
VERTEX
  8
0
  5
14F
 10
-6.52585
 20
-0.939626
 30
0.000000
  70
    32
  0
VERTEX
  8
0
  5
150
 10
-6.51652
 20
-0.966926
 30
0.000000
  70
    32
  0
VERTEX
  8
0
  5
151
 10
-6.50714
 20
-0.994198
 30
0.000000
  70
    32
  0
VERTEX
  8
0
  5
152
 10
-6.49769
 20
-1.02144
 30
0.000000
  70
    32
  0
VERTEX
  8
0
  5
153
 10
-6.48818
 20
-1.04865
 30
0.000000
  70
    32
  0
VERTEX
  8
0
  5
154
 10
-6.47861
 20
-1.07583
 30
0.000000
  70
    32
  0
VERTEX
  8
0
  5
155
 10
-6.46896
 20
-1.10298
 30
0.000000
  70
    32
  0
VERTEX
  8
0
  5
156
 10
-6.45924
 20
-1.13010
 30
0.000000
  70
    32
  0
VERTEX
  8
0
  5
157
 10
-6.44945
 20
-1.15719
 30
0.000000
  70
    32
  0
VERTEX
  8
0
  5
158
 10
-6.43959
 20
-1.18424
 30
0.000000
  70
    32
  0
VERTEX
  8
0
  5
159
 10
-6.42965
 20
-1.21125
 30
0.000000
  70
    32
  0
VERTEX
  8
0
  5
15A
 10
-6.41964
 20
-1.23823
 30
0.000000
  70
    32
  0
VERTEX
  8
0
  5
15B
 10
-6.40954
 20
-1.26517
 30
0.000000
  70
    32
  0
VERTEX
  8
0
  5
15C
 10
-6.39937
 20
-1.29208
 30
0.000000
  70
    32
  0
VERTEX
  8
0
  5
15D
 10
-6.38911
 20
-1.31895
 30
0.000000
  70
    32
  0
VERTEX
  8
0
  5
15E
 10
-6.37876
 20
-1.34578
 30
0.000000
  70
    32
  0
VERTEX
  8
0
  5
15F
 10
-6.36833
 20
-1.37257
 30
0.000000
  70
    32
  0
VERTEX
  8
0
  5
160
 10
-6.35781
 20
-1.39932
 30
0.000000
  70
    32
  0
VERTEX
  8
0
  5
161
 10
-6.34720
 20
-1.42603
 30
0.000000
  70
    32
  0
VERTEX
  8
0
  5
162
 10
-6.33650
 20
-1.45270
 30
0.000000
  70
    32
  0
VERTEX
  8
0
  5
163
 10
-6.32570
 20
-1.47932
 30
0.000000
  70
    32
  0
VERTEX
  8
0
  5
164
 10
-6.31481
 20
-1.50591
 30
0.000000
  70
    32
  0
VERTEX
  8
0
  5
165
 10
-6.30382
 20
-1.53244
 30
0.000000
  70
    32
  0
VERTEX
  8
0
  5
166
 10
-6.29273
 20
-1.55894
 30
0.000000
  70
    32
  0
VERTEX
  8
0
  5
167
 10
-6.28154
 20
-1.58538
 30
0.000000
  70
    32
  0
VERTEX
  8
0
  5
168
 10
-6.27024
 20
-1.61178
 30
0.000000
  70
    32
  0
VERTEX
  8
0
  5
169
 10
-6.25884
 20
-1.63814
 30
0.000000
  70
    32
  0
VERTEX
  8
0
  5
16A
 10
-6.24734
 20
-1.66444
 30
0.000000
  70
    32
  0
VERTEX
  8
0
  5
16B
 10
-6.23572
 20
-1.69070
 30
0.000000
  70
    32
  0
VERTEX
  8
0
  5
16C
 10
-6.22399
 20
-1.71691
 30
0.000000
  70
    32
  0
VERTEX
  8
0
  5
16D
 10
-6.21216
 20
-1.74306
 30
0.000000
  70
    32
  0
VERTEX
  8
0
  5
16E
 10
-6.20020
 20
-1.76917
 30
0.000000
  70
    32
  0
VERTEX
  8
0
  5
16F
 10
-6.18813
 20
-1.79522
 30
0.000000
  70
    32
  0
VERTEX
  8
0
  5
170
 10
-6.17595
 20
-1.82123
 30
0.000000
  70
    32
  0
VERTEX
  8
0
  5
171
 10
-6.16364
 20
-1.84717
 30
0.000000
  70
    32
  0
VERTEX
  8
0
  5
172
 10
-6.15121
 20
-1.87307
 30
0.000000
  70
    32
  0
VERTEX
  8
0
  5
173
 10
-6.13866
 20
-1.89891
 30
0.000000
  70
    32
  0
VERTEX
  8
0
  5
174
 10
-6.12599
 20
-1.92469
 30
0.000000
  70
    32
  0
VERTEX
  8
0
  5
175
 10
-6.11318
 20
-1.95042
 30
0.000000
  70
    32
  0
VERTEX
  8
0
  5
176
 10
-6.10025
 20
-1.97609
 30
0.000000
  70
    32
  0
VERTEX
  8
0
  5
177
 10
-6.08719
 20
-2.00170
 30
0.000000
  70
    32
  0
VERTEX
  8
0
  5
178
 10
-6.07399
 20
-2.02725
 30
0.000000
  70
    32
  0
VERTEX
  8
0
  5
179
 10
-6.06066
 20
-2.05274
 30
0.000000
  70
    32
  0
VERTEX
  8
0
  5
17A
 10
-6.04720
 20
-2.07817
 30
0.000000
  70
    32
  0
VERTEX
  8
0
  5
17B
 10
-6.03359
 20
-2.10354
 30
0.000000
  70
    32
  0
VERTEX
  8
0
  5
17C
 10
-6.01985
 20
-2.12885
 30
0.000000
  70
    32
  0
VERTEX
  8
0
  5
17D
 10
-6.00596
 20
-2.15410
 30
0.000000
  70
    32
  0
VERTEX
  8
0
  5
17E
 10
-5.99193
 20
-2.17928
 30
0.000000
  70
    32
  0
VERTEX
  8
0
  5
17F
 10
-5.97776
 20
-2.20440
 30
0.000000
  70
    32
  0
VERTEX
  8
0
  5
180
 10
-5.96344
 20
-2.22945
 30
0.000000
  70
    32
  0
VERTEX
  8
0
  5
181
 10
-5.94897
 20
-2.25444
 30
0.000000
  70
    32
  0
VERTEX
  8
0
  5
182
 10
-5.93434
 20
-2.27936
 30
0.000000
  70
    32
  0
VERTEX
  8
0
  5
183
 10
-5.91957
 20
-2.30421
 30
0.000000
  70
    32
  0
VERTEX
  8
0
  5
184
 10
-5.90464
 20
-2.32900
 30
0.000000
  70
    32
  0
VERTEX
  8
0
  5
185
 10
-5.88956
 20
-2.35371
 30
0.000000
  70
    32
  0
VERTEX
  8
0
  5
186
 10
-5.87431
 20
-2.37836
 30
0.000000
  70
    32
  0
VERTEX
  8
0
  5
187
 10
-5.85891
 20
-2.40294
 30
0.000000
  70
    32
  0
VERTEX
  8
0
  5
188
 10
-5.84334
 20
-2.42744
 30
0.000000
  70
    32
  0
VERTEX
  8
0
  5
189
 10
-5.82761
 20
-2.45187
 30
0.000000
  70
    32
  0
VERTEX
  8
0
  5
18A
 10
-5.81172
 20
-2.47623
 30
0.000000
  70
    32
  0
VERTEX
  8
0
  5
18B
 10
-5.79566
 20
-2.50052
 30
0.000000
  70
    32
  0
VERTEX
  8
0
  5
18C
 10
-5.77943
 20
-2.52473
 30
0.000000
  70
    32
  0
VERTEX
  8
0
  5
18D
 10
-5.76302
 20
-2.54887
 30
0.000000
  70
    32
  0
VERTEX
  8
0
  5
18E
 10
-5.74645
 20
-2.57293
 30
0.000000
  70
    32
  0
VERTEX
  8
0
  5
18F
 10
-5.72970
 20
-2.59691
 30
0.000000
  70
    32
  0
VERTEX
  8
0
  5
190
 10
-5.71277
 20
-2.62081
 30
0.000000
  70
    32
  0
VERTEX
  8
0
  5
191
 10
-5.69567
 20
-2.64464
 30
0.000000
  70
    32
  0
VERTEX
  8
0
  5
192
 10
-5.68576
 20
-2.65830
 30
0.000000
  70
    32
  0
VERTEX
  8
0
  5
193
 10
-5.68135
 20
-2.66438
 30
0.000000
  70
    32
  0
VERTEX
  8
0
  5
194
 10
-5.67693
 20
-2.67045
 30
0.000000
  70
    32
  0
VERTEX
  8
0
  5
195
 10
-5.67252
 20
-2.67653
 30
0.000000
  70
    32
  0
VERTEX
  8
0
  5
196
 10
-5.66811
 20
-2.68261
 30
0.000000
  70
    32
  0
VERTEX
  8
0
  5
197
 10
-5.66370
 20
-2.68868
 30
0.000000
  70
    32
  0
VERTEX
  8
0
  5
198
 10
-5.65929
 20
-2.69476
 30
0.000000
  70
    32
  0
VERTEX
  8
0
  5
199
 10
-5.65488
 20
-2.70084
 30
0.000000
  70
    32
  0
VERTEX
  8
0
  5
19A
 10
-5.65048
 20
-2.70692
 30
0.000000
  70
    32
  0
VERTEX
  8
0
  5
19B
 10
-5.64608
 20
-2.71300
 30
0.000000
  70
    32
  0
VERTEX
  8
0
  5
19C
 10
-5.64167
 20
-2.71908
 30
0.000000
  70
    32
  0
VERTEX
  8
0
  5
19D
 10
-5.63727
 20
-2.72516
 30
0.000000
  70
    32
  0
VERTEX
  8
0
  5
19E
 10
-5.63287
 20
-2.73125
 30
0.000000
  70
    32
  0
VERTEX
  8
0
  5
19F
 10
-5.62847
 20
-2.73733
 30
0.000000
  70
    32
  0
VERTEX
  8
0
  5
1A0
 10
-5.62408
 20
-2.74341
 30
0.000000
  70
    32
  0
VERTEX
  8
0
  5
1A1
 10
-5.61968
 20
-2.74950
 30
0.000000
  70
    32
  0
VERTEX
  8
0
  5
1A2
 10
-5.61528
 20
-2.75558
 30
0.000000
  70
    32
  0
VERTEX
  8
0
  5
1A3
 10
-5.61089
 20
-2.76167
 30
0.000000
  70
    32
  0
VERTEX
  8
0
  5
1A4
 10
-5.60650
 20
-2.76775
 30
0.000000
  70
    32
  0
VERTEX
  8
0
  5
1A5
 10
-5.60211
 20
-2.77384
 30
0.000000
  70
    32
  0
VERTEX
  8
0
  5
1A6
 10
-5.59772
 20
-2.77993
 30
0.000000
  70
    32
  0
VERTEX
  8
0
  5
1A7
 10
-5.59333
 20
-2.78602
 30
0.000000
  70
    32
  0
VERTEX
  8
0
  5
1A8
 10
-5.58894
 20
-2.79211
 30
0.000000
  70
    32
  0
VERTEX
  8
0
  5
1A9
 10
-5.58456
 20
-2.79820
 30
0.000000
  70
    32
  0
VERTEX
  8
0
  5
1AA
 10
-5.58017
 20
-2.80429
 30
0.000000
  70
    32
  0
VERTEX
  8
0
  5
1AB
 10
-5.57579
 20
-2.81038
 30
0.000000
  70
    32
  0
VERTEX
  8
0
  5
1AC
 10
-5.57141
 20
-2.81647
 30
0.000000
  70
    32
  0
VERTEX
  8
0
  5
1AD
 10
-5.56703
 20
-2.82257
 30
0.000000
  70
    32
  0
VERTEX
  8
0
  5
1AE
 10
-5.56265
 20
-2.82866
 30
0.000000
  70
    32
  0
VERTEX
  8
0
  5
1AF
 10
-5.55827
 20
-2.83475
 30
0.000000
  70
    32
  0
VERTEX
  8
0
  5
1B0
 10
-5.55389
 20
-2.84085
 30
0.000000
  70
    32
  0
VERTEX
  8
0
  5
1B1
 10
-5.54952
 20
-2.84694
 30
0.000000
  70
    32
  0
VERTEX
  8
0
  5
1B2
 10
-5.54514
 20
-2.85304
 30
0.000000
  70
    32
  0
VERTEX
  8
0
  5
1B3
 10
-5.54077
 20
-2.85914
 30
0.000000
  70
    32
  0
VERTEX
  8
0
  5
1B4
 10
-5.53640
 20
-2.86524
 30
0.000000
  70
    32
  0
VERTEX
  8
0
  5
1B5
 10
-5.53203
 20
-2.87133
 30
0.000000
  70
    32
  0
VERTEX
  8
0
  5
1B6
 10
-5.52766
 20
-2.87743
 30
0.000000
  70
    32
  0
VERTEX
  8
0
  5
1B7
 10
-5.52329
 20
-2.88353
 30
0.000000
  70
    32
  0
VERTEX
  8
0
  5
1B8
 10
-5.51892
 20
-2.88963
 30
0.000000
  70
    32
  0
VERTEX
  8
0
  5
1B9
 10
-5.51456
 20
-2.89574
 30
0.000000
  70
    32
  0
VERTEX
  8
0
  5
1BA
 10
-5.51019
 20
-2.90184
 30
0.000000
  70
    32
  0
VERTEX
  8
0
  5
1BB
 10
-5.50583
 20
-2.90794
 30
0.000000
  70
    32
  0
VERTEX
  8
0
  5
1BC
 10
-5.50147
 20
-2.91405
 30
0.000000
  70
    32
  0
VERTEX
  8
0
  5
1BD
 10
-5.49710
 20
-2.92015
 30
0.000000
  70
    32
  0
VERTEX
  8
0
  5
1BE
 10
-5.49274
 20
-2.92626
 30
0.000000
  70
    32
  0
VERTEX
  8
0
  5
1BF
 10
-5.48838
 20
-2.93236
 30
0.000000
  70
    32
  0
VERTEX
  8
0
  5
1C0
 10
-5.48403
 20
-2.93847
 30
0.000000
  70
    32
  0
VERTEX
  8
0
  5
1C1
 10
-5.47967
 20
-2.94458
 30
0.000000
  70
    32
  0
VERTEX
  8
0
  5
1C2
 10
-5.47531
 20
-2.95069
 30
0.000000
  70
    32
  0
VERTEX
  8
0
  5
1C3
 10
-5.47096
 20
-2.95679
 30
0.000000
  70
    32
  0
VERTEX
  8
0
  5
1C4
 10
-5.46661
 20
-2.96290
 30
0.000000
  70
    32
  0
VERTEX
  8
0
  5
1C5
 10
-5.46225
 20
-2.96902
 30
0.000000
  70
    32
  0
VERTEX
  8
0
  5
1C6
 10
-5.45790
 20
-2.97513
 30
0.000000
  70
    32
  0
VERTEX
  8
0
  5
1C7
 10
-5.45355
 20
-2.98124
 30
0.000000
  70
    32
  0
VERTEX
  8
0
  5
1C8
 10
-5.44920
 20
-2.98735
 30
0.000000
  70
    32
  0
VERTEX
  8
0
  5
1C9
 10
-5.44485
 20
-2.99347
 30
0.000000
  70
    32
  0
VERTEX
  8
0
  5
1CA
 10
-5.44051
 20
-2.99958
 30
0.000000
  70
    32
  0
VERTEX
  8
0
  5
1CB
 10
-5.43616
 20
-3.00570
 30
0.000000
  70
    32
  0
VERTEX
  8
0
  5
1CC
 10
-5.43182
 20
-3.01181
 30
0.000000
  70
    32
  0
VERTEX
  8
0
  5
1CD
 10
-5.42747
 20
-3.01793
 30
0.000000
  70
    32
  0
VERTEX
  8
0
  5
1CE
 10
-5.42313
 20
-3.02405
 30
0.000000
  70
    32
  0
VERTEX
  8
0
  5
1CF
 10
-5.41879
 20
-3.03017
 30
0.000000
  70
    32
  0
VERTEX
  8
0
  5
1D0
 10
-5.41445
 20
-3.03629
 30
0.000000
  70
    32
  0
VERTEX
  8
0
  5
1D1
 10
-5.41011
 20
-3.04241
 30
0.000000
  70
    32
  0
VERTEX
  8
0
  5
1D2
 10
-5.40577
 20
-3.04853
 30
0.000000
  70
    32
  0
VERTEX
  8
0
  5
1D3
 10
-5.40143
 20
-3.05465
 30
0.000000
  70
    32
  0
VERTEX
  8
0
  5
1D4
 10
-5.39709
 20
-3.06077
 30
0.000000
  70
    32
  0
VERTEX
  8
0
  5
1D5
 10
-5.39276
 20
-3.06689
 30
0.000000
  70
    32
  0
VERTEX
  8
0
  5
1D6
 10
-5.38842
 20
-3.07302
 30
0.000000
  70
    32
  0
VERTEX
  8
0
  5
1D7
 10
-5.38409
 20
-3.07914
 30
0.000000
  70
    32
  0
VERTEX
  8
0
  5
1D8
 10
-5.37975
 20
-3.08527
 30
0.000000
  70
    32
  0
VERTEX
  8
0
  5
1D9
 10
-5.37542
 20
-3.09140
 30
0.000000
  70
    32
  0
VERTEX
  8
0
  5
1DA
 10
-5.37109
 20
-3.09752
 30
0.000000
  70
    32
  0
VERTEX
  8
0
  5
1DB
 10
-5.36676
 20
-3.10365
 30
0.000000
  70
    32
  0
VERTEX
  8
0
  5
1DC
 10
-5.36243
 20
-3.10978
 30
0.000000
  70
    32
  0
VERTEX
  8
0
  5
1DD
 10
-5.35810
 20
-3.11591
 30
0.000000
  70
    32
  0
VERTEX
  8
0
  5
1DE
 10
-5.35378
 20
-3.12204
 30
0.000000
  70
    32
  0
VERTEX
  8
0
  5
1DF
 10
-5.34945
 20
-3.12818
 30
0.000000
  70
    32
  0
VERTEX
  8
0
  5
1E0
 10
-5.34512
 20
-3.13431
 30
0.000000
  70
    32
  0
VERTEX
  8
0
  5
1E1
 10
-5.34080
 20
-3.14044
 30
0.000000
  70
    32
  0
VERTEX
  8
0
  5
1E2
 10
-5.33648
 20
-3.14658
 30
0.000000
  70
    32
  0
VERTEX
  8
0
  5
1E3
 10
-5.33215
 20
-3.15271
 30
0.000000
  70
    32
  0
VERTEX
  8
0
  5
1E4
 10
-5.32783
 20
-3.15885
 30
0.000000
  70
    32
  0
VERTEX
  8
0
  5
1E5
 10
-5.32351
 20
-3.16498
 30
0.000000
  70
    32
  0
VERTEX
  8
0
  5
1E6
 10
-5.31919
 20
-3.17112
 30
0.000000
  70
    32
  0
VERTEX
  8
0
  5
1E7
 10
-5.31487
 20
-3.17726
 30
0.000000
  70
    32
  0
VERTEX
  8
0
  5
1E8
 10
-5.31055
 20
-3.18340
 30
0.000000
  70
    32
  0
VERTEX
  8
0
  5
1E9
 10
-5.30624
 20
-3.18954
 30
0.000000
  70
    32
  0
VERTEX
  8
0
  5
1EA
 10
-5.30192
 20
-3.19568
 30
0.000000
  70
    32
  0
VERTEX
  8
0
  5
1EB
 10
-5.29760
 20
-3.20182
 30
0.000000
  70
    32
  0
VERTEX
  8
0
  5
1EC
 10
-5.29329
 20
-3.20797
 30
0.000000
  70
    32
  0
VERTEX
  8
0
  5
1ED
 10
-5.28897
 20
-3.21411
 30
0.000000
  70
    32
  0
VERTEX
  8
0
  5
1EE
 10
-5.28466
 20
-3.22026
 30
0.000000
  70
    32
  0
VERTEX
  8
0
  5
1EF
 10
-5.28035
 20
-3.22640
 30
0.000000
  70
    32
  0
VERTEX
  8
0
  5
1F0
 10
-5.27604
 20
-3.23255
 30
0.000000
  70
    32
  0
VERTEX
  8
0
  5
1F1
 10
-5.27173
 20
-3.23869
 30
0.000000
  70
    32
  0
VERTEX
  8
0
  5
1F2
 10
-5.26742
 20
-3.24484
 30
0.000000
  70
    32
  0
VERTEX
  8
0
  5
1F3
 10
-5.26311
 20
-3.25099
 30
0.000000
  70
    32
  0
VERTEX
  8
0
  5
1F4
 10
-5.25880
 20
-3.25714
 30
0.000000
  70
    32
  0
VERTEX
  8
0
  5
1F5
 10
-5.25449
 20
-3.26329
 30
0.000000
  70
    32
  0
VERTEX
  8
0
  5
1F6
 10
-5.25016
 20
-3.26948
 30
0.000000
  70
    32
  0
VERTEX
  8
0
  5
1F7
 10
-5.24568
 20
-3.27584
 30
0.000000
  70
    32
  0
VERTEX
  8
0
  5
1F8
 10
-5.24119
 20
-3.28217
 30
0.000000
  70
    32
  0
VERTEX
  8
0
  5
1F9
 10
-5.23668
 20
-3.28849
 30
0.000000
  70
    32
  0
VERTEX
  8
0
  5
1FA
 10
-5.23216
 20
-3.29477
 30
0.000000
  70
    32
  0
VERTEX
  8
0
  5
1FB
 10
-5.22762
 20
-3.30103
 30
0.000000
  70
    32
  0
VERTEX
  8
0
  5
1FC
 10
-5.22307
 20
-3.30727
 30
0.000000
  70
    32
  0
VERTEX
  8
0
  5
1FD
 10
-5.21851
 20
-3.31348
 30
0.000000
  70
    32
  0
VERTEX
  8
0
  5
1FE
 10
-5.21393
 20
-3.31966
 30
0.000000
  70
    32
  0
VERTEX
  8
0
  5
1FF
 10
-5.20933
 20
-3.32583
 30
0.000000
  70
    32
  0
VERTEX
  8
0
  5
200
 10
-5.20472
 20
-3.33197
 30
0.000000
  70
    32
  0
VERTEX
  8
0
  5
201
 10
-5.20010
 20
-3.33809
 30
0.000000
  70
    32
  0
VERTEX
  8
0
  5
202
 10
-5.19546
 20
-3.34418
 30
0.000000
  70
    32
  0
VERTEX
  8
0
  5
203
 10
-5.19081
 20
-3.35025
 30
0.000000
  70
    32
  0
VERTEX
  8
0
  5
204
 10
-5.18615
 20
-3.35631
 30
0.000000
  70
    32
  0
VERTEX
  8
0
  5
205
 10
-5.18147
 20
-3.36234
 30
0.000000
  70
    32
  0
VERTEX
  8
0
  5
206
 10
-5.17678
 20
-3.36835
 30
0.000000
  70
    32
  0
VERTEX
  8
0
  5
207
 10
-5.17207
 20
-3.37433
 30
0.000000
  70
    32
  0
VERTEX
  8
0
  5
208
 10
-5.16735
 20
-3.38030
 30
0.000000
  70
    32
  0
VERTEX
  8
0
  5
209
 10
-5.16262
 20
-3.38625
 30
0.000000
  70
    32
  0
VERTEX
  8
0
  5
20A
 10
-5.15788
 20
-3.39218
 30
0.000000
  70
    32
  0
VERTEX
  8
0
  5
20B
 10
-5.15312
 20
-3.39809
 30
0.000000
  70
    32
  0
VERTEX
  8
0
  5
20C
 10
-5.14835
 20
-3.40398
 30
0.000000
  70
    32
  0
VERTEX
  8
0
  5
20D
 10
-5.14356
 20
-3.40985
 30
0.000000
  70
    32
  0
VERTEX
  8
0
  5
20E
 10
-5.13876
 20
-3.41570
 30
0.000000
  70
    32
  0
VERTEX
  8
0
  5
20F
 10
-5.13395
 20
-3.42154
 30
0.000000
  70
    32
  0
VERTEX
  8
0
  5
210
 10
-5.12913
 20
-3.42736
 30
0.000000
  70
    32
  0
VERTEX
  8
0
  5
211
 10
-5.12429
 20
-3.43316
 30
0.000000
  70
    32
  0
VERTEX
  8
0
  5
212
 10
-5.11944
 20
-3.43895
 30
0.000000
  70
    32
  0
VERTEX
  8
0
  5
213
 10
-5.11458
 20
-3.44471
 30
0.000000
  70
    32
  0
VERTEX
  8
0
  5
214
 10
-5.10971
 20
-3.45047
 30
0.000000
  70
    32
  0
VERTEX
  8
0
  5
215
 10
-5.10482
 20
-3.45620
 30
0.000000
  70
    32
  0
VERTEX
  8
0
  5
216
 10
-5.09993
 20
-3.46193
 30
0.000000
  70
    32
  0
VERTEX
  8
0
  5
217
 10
-5.09502
 20
-3.46763
 30
0.000000
  70
    32
  0
VERTEX
  8
0
  5
218
 10
-5.09009
 20
-3.47332
 30
0.000000
  70
    32
  0
VERTEX
  8
0
  5
219
 10
-5.08516
 20
-3.47900
 30
0.000000
  70
    32
  0
VERTEX
  8
0
  5
21A
 10
-5.08021
 20
-3.48467
 30
0.000000
  70
    32
  0
VERTEX
  8
0
  5
21B
 10
-5.07526
 20
-3.49032
 30
0.000000
  70
    32
  0
VERTEX
  8
0
  5
21C
 10
-5.07029
 20
-3.49596
 30
0.000000
  70
    32
  0
VERTEX
  8
0
  5
21D
 10
-5.06530
 20
-3.50158
 30
0.000000
  70
    32
  0
VERTEX
  8
0
  5
21E
 10
-5.06031
 20
-3.50719
 30
0.000000
  70
    32
  0
VERTEX
  8
0
  5
21F
 10
-5.05531
 20
-3.51279
 30
0.000000
  70
    32
  0
VERTEX
  8
0
  5
220
 10
-5.05029
 20
-3.51838
 30
0.000000
  70
    32
  0
VERTEX
  8
0
  5
221
 10
-5.04526
 20
-3.52396
 30
0.000000
  70
    32
  0
VERTEX
  8
0
  5
222
 10
-5.04023
 20
-3.52952
 30
0.000000
  70
    32
  0
VERTEX
  8
0
  5
223
 10
-5.03518
 20
-3.53508
 30
0.000000
  70
    32
  0
VERTEX
  8
0
  5
224
 10
-5.03012
 20
-3.54063
 30
0.000000
  70
    32
  0
VERTEX
  8
0
  5
225
 10
-5.02505
 20
-3.54616
 30
0.000000
  70
    32
  0
VERTEX
  8
0
  5
226
 10
-5.01996
 20
-3.55169
 30
0.000000
  70
    32
  0
VERTEX
  8
0
  5
227
 10
-5.01487
 20
-3.55720
 30
0.000000
  70
    32
  0
VERTEX
  8
0
  5
228
 10
-5.00977
 20
-3.56271
 30
0.000000
  70
    32
  0
VERTEX
  8
0
  5
229
 10
-5.00465
 20
-3.56821
 30
0.000000
  70
    32
  0
VERTEX
  8
0
  5
22A
 10
-4.99953
 20
-3.57370
 30
0.000000
  70
    32
  0
VERTEX
  8
0
  5
22B
 10
-4.99439
 20
-3.57919
 30
0.000000
  70
    32
  0
VERTEX
  8
0
  5
22C
 10
-4.98925
 20
-3.58466
 30
0.000000
  70
    32
  0
VERTEX
  8
0
  5
22D
 10
-4.98409
 20
-3.59013
 30
0.000000
  70
    32
  0
VERTEX
  8
0
  5
22E
 10
-4.97893
 20
-3.59559
 30
0.000000
  70
    32
  0
VERTEX
  8
0
  5
22F
 10
-4.97375
 20
-3.60105
 30
0.000000
  70
    32
  0
VERTEX
  8
0
  5
230
 10
-4.96857
 20
-3.60650
 30
0.000000
  70
    32
  0
VERTEX
  8
0
  5
231
 10
-4.96337
 20
-3.61194
 30
0.000000
  70
    32
  0
VERTEX
  8
0
  5
232
 10
-4.95816
 20
-3.61738
 30
0.000000
  70
    32
  0
VERTEX
  8
0
  5
233
 10
-4.95295
 20
-3.62282
 30
0.000000
  70
    32
  0
VERTEX
  8
0
  5
234
 10
-4.94772
 20
-3.62825
 30
0.000000
  70
    32
  0
VERTEX
  8
0
  5
235
 10
-4.94249
 20
-3.63367
 30
0.000000
  70
    32
  0
VERTEX
  8
0
  5
236
 10
-4.93725
 20
-3.63909
 30
0.000000
  70
    32
  0
VERTEX
  8
0
  5
237
 10
-4.93199
 20
-3.64451
 30
0.000000
  70
    32
  0
VERTEX
  8
0
  5
238
 10
-4.92673
 20
-3.64993
 30
0.000000
  70
    32
  0
VERTEX
  8
0
  5
239
 10
-4.92146
 20
-3.65534
 30
0.000000
  70
    32
  0
VERTEX
  8
0
  5
23A
 10
-4.91618
 20
-3.66075
 30
0.000000
  70
    32
  0
VERTEX
  8
0
  5
23B
 10
-4.91089
 20
-3.66616
 30
0.000000
  70
    32
  0
VERTEX
  8
0
  5
23C
 10
-4.90559
 20
-3.67157
 30
0.000000
  70
    32
  0
VERTEX
  8
0
  5
23D
 10
-4.90028
 20
-3.67697
 30
0.000000
  70
    32
  0
VERTEX
  8
0
  5
23E
 10
-4.89497
 20
-3.68238
 30
0.000000
  70
    32
  0
VERTEX
  8
0
  5
23F
 10
-4.88964
 20
-3.68778
 30
0.000000
  70
    32
  0
VERTEX
  8
0
  5
240
 10
-4.88431
 20
-3.69318
 30
0.000000
  70
    32
  0
VERTEX
  8
0
  5
241
 10
-4.87897
 20
-3.69859
 30
0.000000
  70
    32
  0
VERTEX
  8
0
  5
242
 10
-4.87362
 20
-3.70399
 30
0.000000
  70
    32
  0
VERTEX
  8
0
  5
243
 10
-4.86826
 20
-3.70939
 30
0.000000
  70
    32
  0
VERTEX
  8
0
  5
244
 10
-4.86289
 20
-3.71480
 30
0.000000
  70
    32
  0
VERTEX
  8
0
  5
245
 10
-4.85752
 20
-3.72021
 30
0.000000
  70
    32
  0
VERTEX
  8
0
  5
246
 10
-4.85213
 20
-3.72562
 30
0.000000
  70
    32
  0
VERTEX
  8
0
  5
247
 10
-4.84674
 20
-3.73103
 30
0.000000
  70
    32
  0
VERTEX
  8
0
  5
248
 10
-4.84134
 20
-3.73644
 30
0.000000
  70
    32
  0
VERTEX
  8
0
  5
249
 10
-4.83594
 20
-3.74186
 30
0.000000
  70
    32
  0
VERTEX
  8
0
  5
24A
 10
-4.83052
 20
-3.74728
 30
0.000000
  70
    32
  0
VERTEX
  8
0
  5
24B
 10
-4.82510
 20
-3.75271
 30
0.000000
  70
    32
  0
VERTEX
  8
0
  5
24C
 10
-4.81967
 20
-3.75814
 30
0.000000
  70
    32
  0
VERTEX
  8
0
  5
24D
 10
-4.81424
 20
-3.76357
 30
0.000000
  70
    32
  0
VERTEX
  8
0
  5
24E
 10
-4.80879
 20
-3.76901
 30
0.000000
  70
    32
  0
VERTEX
  8
0
  5
24F
 10
-4.80334
 20
-3.77445
 30
0.000000
  70
    32
  0
VERTEX
  8
0
  5
250
 10
-4.79788
 20
-3.77990
 30
0.000000
  70
    32
  0
VERTEX
  8
0
  5
251
 10
-4.79242
 20
-3.78535
 30
0.000000
  70
    32
  0
VERTEX
  8
0
  5
252
 10
-4.78694
 20
-3.79081
 30
0.000000
  70
    32
  0
VERTEX
  8
0
  5
253
 10
-4.78146
 20
-3.79628
 30
0.000000
  70
    32
  0
VERTEX
  8
0
  5
254
 10
-4.77598
 20
-3.80175
 30
0.000000
  70
    32
  0
VERTEX
  8
0
  5
255
 10
-4.77048
 20
-3.80723
 30
0.000000
  70
    32
  0
VERTEX
  8
0
  5
256
 10
-4.76498
 20
-3.81272
 30
0.000000
  70
    32
  0
VERTEX
  8
0
  5
257
 10
-4.75948
 20
-3.81822
 30
0.000000
  70
    32
  0
VERTEX
  8
0
  5
258
 10
-4.75396
 20
-3.82373
 30
0.000000
  70
    32
  0
VERTEX
  8
0
  5
259
 10
-4.74844
 20
-3.82924
 30
0.000000
  70
    32
  0
VERTEX
  8
0
  5
25A
 10
-4.74292
 20
-3.83476
 30
0.000000
  70
    32
  0
VERTEX
  8
0
  5
25B
 10
-4.73448
 20
-3.84319
 30
0.000000
  70
    32
  0
VERTEX
  8
0
  5
25C
 10
-4.72482
 20
-3.85277
 30
0.000000
  70
    32
  0
VERTEX
  8
0
  5
25D
 10
-4.71511
 20
-3.86233
 30
0.000000
  70
    32
  0
VERTEX
  8
0
  5
25E
 10
-4.70535
 20
-3.87187
 30
0.000000
  70
    32
  0
VERTEX
  8
0
  5
25F
 10
-4.69554
 20
-3.88139
 30
0.000000
  70
    32
  0
VERTEX
  8
0
  5
260
 10
-4.68568
 20
-3.89090
 30
0.000000
  70
    32
  0
VERTEX
  8
0
  5
261
 10
-4.67577
 20
-3.90039
 30
0.000000
  70
    32
  0
VERTEX
  8
0
  5
262
 10
-4.66581
 20
-3.90985
 30
0.000000
  70
    32
  0
VERTEX
  8
0
  5
263
 10
-4.65580
 20
-3.91931
 30
0.000000
  70
    32
  0
VERTEX
  8
0
  5
264
 10
-4.64574
 20
-3.92874
 30
0.000000
  70
    32
  0
VERTEX
  8
0
  5
265
 10
-4.63564
 20
-3.93815
 30
0.000000
  70
    32
  0
VERTEX
  8
0
  5
266
 10
-4.62549
 20
-3.94755
 30
0.000000
  70
    32
  0
VERTEX
  8
0
  5
267
 10
-4.61529
 20
-3.95692
 30
0.000000
  70
    32
  0
VERTEX
  8
0
  5
268
 10
-4.60505
 20
-3.96628
 30
0.000000
  70
    32
  0
VERTEX
  8
0
  5
269
 10
-4.59477
 20
-3.97561
 30
0.000000
  70
    32
  0
VERTEX
  8
0
  5
26A
 10
-4.58444
 20
-3.98493
 30
0.000000
  70
    32
  0
VERTEX
  8
0
  5
26B
 10
-4.57407
 20
-3.99423
 30
0.000000
  70
    32
  0
VERTEX
  8
0
  5
26C
 10
-4.56366
 20
-4.00351
 30
0.000000
  70
    32
  0
VERTEX
  8
0
  5
26D
 10
-4.55320
 20
-4.01277
 30
0.000000
  70
    32
  0
VERTEX
  8
0
  5
26E
 10
-4.54271
 20
-4.02201
 30
0.000000
  70
    32
  0
VERTEX
  8
0
  5
26F
 10
-4.53217
 20
-4.03122
 30
0.000000
  70
    32
  0
VERTEX
  8
0
  5
270
 10
-4.52160
 20
-4.04042
 30
0.000000
  70
    32
  0
VERTEX
  8
0
  5
271
 10
-4.51098
 20
-4.04960
 30
0.000000
  70
    32
  0
VERTEX
  8
0
  5
272
 10
-4.50033
 20
-4.05876
 30
0.000000
  70
    32
  0
VERTEX
  8
0
  5
273
 10
-4.48964
 20
-4.06789
 30
0.000000
  70
    32
  0
VERTEX
  8
0
  5
274
 10
-4.47891
 20
-4.07701
 30
0.000000
  70
    32
  0
VERTEX
  8
0
  5
275
 10
-4.46815
 20
-4.08610
 30
0.000000
  70
    32
  0
VERTEX
  8
0
  5
276
 10
-4.45735
 20
-4.09518
 30
0.000000
  70
    32
  0
VERTEX
  8
0
  5
277
 10
-4.44652
 20
-4.10423
 30
0.000000
  70
    32
  0
VERTEX
  8
0
  5
278
 10
-4.43565
 20
-4.11326
 30
0.000000
  70
    32
  0
VERTEX
  8
0
  5
279
 10
-4.42475
 20
-4.12227
 30
0.000000
  70
    32
  0
VERTEX
  8
0
  5
27A
 10
-4.41382
 20
-4.13126
 30
0.000000
  70
    32
  0
VERTEX
  8
0
  5
27B
 10
-4.40286
 20
-4.14022
 30
0.000000
  70
    32
  0
VERTEX
  8
0
  5
27C
 10
-4.39186
 20
-4.14916
 30
0.000000
  70
    32
  0
VERTEX
  8
0
  5
27D
 10
-4.38083
 20
-4.15809
 30
0.000000
  70
    32
  0
VERTEX
  8
0
  5
27E
 10
-4.36978
 20
-4.16698
 30
0.000000
  70
    32
  0
VERTEX
  8
0
  5
27F
 10
-4.35869
 20
-4.17586
 30
0.000000
  70
    32
  0
VERTEX
  8
0
  5
280
 10
-4.34758
 20
-4.18472
 30
0.000000
  70
    32
  0
VERTEX
  8
0
  5
281
 10
-4.33643
 20
-4.19355
 30
0.000000
  70
    32
  0
VERTEX
  8
0
  5
282
 10
-4.32526
 20
-4.20235
 30
0.000000
  70
    32
  0
VERTEX
  8
0
  5
283
 10
-4.31407
 20
-4.21114
 30
0.000000
  70
    32
  0
VERTEX
  8
0
  5
284
 10
-4.30285
 20
-4.21990
 30
0.000000
  70
    32
  0
VERTEX
  8
0
  5
285
 10
-4.29160
 20
-4.22864
 30
0.000000
  70
    32
  0
VERTEX
  8
0
  5
286
 10
-4.28033
 20
-4.23736
 30
0.000000
  70
    32
  0
VERTEX
  8
0
  5
287
 10
-4.26903
 20
-4.24605
 30
0.000000
  70
    32
  0
VERTEX
  8
0
  5
288
 10
-4.25771
 20
-4.25471
 30
0.000000
  70
    32
  0
VERTEX
  8
0
  5
289
 10
-4.24637
 20
-4.26336
 30
0.000000
  70
    32
  0
VERTEX
  8
0
  5
28A
 10
-4.23501
 20
-4.27198
 30
0.000000
  70
    32
  0
VERTEX
  8
0
  5
28B
 10
-4.22363
 20
-4.28057
 30
0.000000
  70
    32
  0
VERTEX
  8
0
  5
28C
 10
-4.21222
 20
-4.28914
 30
0.000000
  70
    32
  0
VERTEX
  8
0
  5
28D
 10
-4.20080
 20
-4.29769
 30
0.000000
  70
    32
  0
VERTEX
  8
0
  5
28E
 10
-4.18936
 20
-4.30621
 30
0.000000
  70
    32
  0
VERTEX
  8
0
  5
28F
 10
-4.17790
 20
-4.31471
 30
0.000000
  70
    32
  0
VERTEX
  8
0
  5
290
 10
-4.16642
 20
-4.32318
 30
0.000000
  70
    32
  0
VERTEX
  8
0
  5
291
 10
-4.15492
 20
-4.33163
 30
0.000000
  70
    32
  0
VERTEX
  8
0
  5
292
 10
-4.14341
 20
-4.34005
 30
0.000000
  70
    32
  0
VERTEX
  8
0
  5
293
 10
-4.13188
 20
-4.34845
 30
0.000000
  70
    32
  0
VERTEX
  8
0
  5
294
 10
-4.12034
 20
-4.35682
 30
0.000000
  70
    32
  0
VERTEX
  8
0
  5
295
 10
-4.10878
 20
-4.36517
 30
0.000000
  70
    32
  0
VERTEX
  8
0
  5
296
 10
-4.09721
 20
-4.37349
 30
0.000000
  70
    32
  0
VERTEX
  8
0
  5
297
 10
-4.08563
 20
-4.38178
 30
0.000000
  70
    32
  0
VERTEX
  8
0
  5
298
 10
-4.07404
 20
-4.39005
 30
0.000000
  70
    32
  0
VERTEX
  8
0
  5
299
 10
-4.06243
 20
-4.39829
 30
0.000000
  70
    32
  0
VERTEX
  8
0
  5
29A
 10
-4.05081
 20
-4.40650
 30
0.000000
  70
    32
  0
VERTEX
  8
0
  5
29B
 10
-4.03919
 20
-4.41469
 30
0.000000
  70
    32
  0
VERTEX
  8
0
  5
29C
 10
-4.02755
 20
-4.42285
 30
0.000000
  70
    32
  0
VERTEX
  8
0
  5
29D
 10
-4.01590
 20
-4.43099
 30
0.000000
  70
    32
  0
VERTEX
  8
0
  5
29E
 10
-4.00425
 20
-4.43910
 30
0.000000
  70
    32
  0
VERTEX
  8
0
  5
29F
 10
-3.99259
 20
-4.44718
 30
0.000000
  70
    32
  0
VERTEX
  8
0
  5
2A0
 10
-3.98092
 20
-4.45523
 30
0.000000
  70
    32
  0
VERTEX
  8
0
  5
2A1
 10
-3.96925
 20
-4.46326
 30
0.000000
  70
    32
  0
VERTEX
  8
0
  5
2A2
 10
-3.95757
 20
-4.47126
 30
0.000000
  70
    32
  0
VERTEX
  8
0
  5
2A3
 10
-3.94588
 20
-4.47923
 30
0.000000
  70
    32
  0
VERTEX
  8
0
  5
2A4
 10
-3.93419
 20
-4.48717
 30
0.000000
  70
    32
  0
VERTEX
  8
0
  5
2A5
 10
-3.92250
 20
-4.49509
 30
0.000000
  70
    32
  0
VERTEX
  8
0
  5
2A6
 10
-3.91081
 20
-4.50297
 30
0.000000
  70
    32
  0
VERTEX
  8
0
  5
2A7
 10
-3.89911
 20
-4.51083
 30
0.000000
  70
    32
  0
VERTEX
  8
0
  5
2A8
 10
-3.88742
 20
-4.51866
 30
0.000000
  70
    32
  0
VERTEX
  8
0
  5
2A9
 10
-3.87572
 20
-4.52646
 30
0.000000
  70
    32
  0
VERTEX
  8
0
  5
2AA
 10
-3.86402
 20
-4.53424
 30
0.000000
  70
    32
  0
VERTEX
  8
0
  5
2AB
 10
-3.85233
 20
-4.54198
 30
0.000000
  70
    32
  0
VERTEX
  8
0
  5
2AC
 10
-3.84063
 20
-4.54970
 30
0.000000
  70
    32
  0
VERTEX
  8
0
  5
2AD
 10
-3.82894
 20
-4.55738
 30
0.000000
  70
    32
  0
VERTEX
  8
0
  5
2AE
 10
-3.81725
 20
-4.56504
 30
0.000000
  70
    32
  0
VERTEX
  8
0
  5
2AF
 10
-3.80556
 20
-4.57267
 30
0.000000
  70
    32
  0
VERTEX
  8
0
  5
2B0
 10
-3.79388
 20
-4.58027
 30
0.000000
  70
    32
  0
VERTEX
  8
0
  5
2B1
 10
-3.78220
 20
-4.58783
 30
0.000000
  70
    32
  0
VERTEX
  8
0
  5
2B2
 10
-3.77053
 20
-4.59537
 30
0.000000
  70
    32
  0
VERTEX
  8
0
  5
2B3
 10
-3.75886
 20
-4.60288
 30
0.000000
  70
    32
  0
VERTEX
  8
0
  5
2B4
 10
-3.74721
 20
-4.61036
 30
0.000000
  70
    32
  0
VERTEX
  8
0
  5
2B5
 10
-3.73556
 20
-4.61781
 30
0.000000
  70
    32
  0
VERTEX
  8
0
  5
2B6
 10
-3.72391
 20
-4.62522
 30
0.000000
  70
    32
  0
VERTEX
  8
0
  5
2B7
 10
-3.71228
 20
-4.63261
 30
0.000000
  70
    32
  0
VERTEX
  8
0
  5
2B8
 10
-3.70066
 20
-4.63997
 30
0.000000
  70
    32
  0
VERTEX
  8
0
  5
2B9
 10
-3.68904
 20
-4.64729
 30
0.000000
  70
    32
  0
VERTEX
  8
0
  5
2BA
 10
-3.67744
 20
-4.65459
 30
0.000000
  70
    32
  0
VERTEX
  8
0
  5
2BB
 10
-3.66585
 20
-4.66185
 30
0.000000
  70
    32
  0
VERTEX
  8
0
  5
2BC
 10
-3.65427
 20
-4.66908
 30
0.000000
  70
    32
  0
VERTEX
  8
0
  5
2BD
 10
-3.64271
 20
-4.67628
 30
0.000000
  70
    32
  0
VERTEX
  8
0
  5
2BE
 10
-3.63115
 20
-4.68345
 30
0.000000
  70
    32
  0
VERTEX
  8
0
  5
2BF
 10
-3.61598
 20
-4.69283
 30
0.000000
  70
    32
  0
VERTEX
  8
0
  5
2C0
 10
-3.59168
 20
-4.70776
 30
0.000000
  70
    32
  0
VERTEX
  8
0
  5
2C1
 10
-3.56733
 20
-4.72259
 30
0.000000
  70
    32
  0
VERTEX
  8
0
  5
2C2
 10
-3.54293
 20
-4.73733
 30
0.000000
  70
    32
  0
VERTEX
  8
0
  5
2C3
 10
-3.51846
 20
-4.75198
 30
0.000000
  70
    32
  0
VERTEX
  8
0
  5
2C4
 10
-3.49395
 20
-4.76653
 30
0.000000
  70
    32
  0
VERTEX
  8
0
  5
2C5
 10
-3.46938
 20
-4.78098
 30
0.000000
  70
    32
  0
VERTEX
  8
0
  5
2C6
 10
-3.44475
 20
-4.79534
 30
0.000000
  70
    32
  0
VERTEX
  8
0
  5
2C7
 10
-3.42007
 20
-4.80960
 30
0.000000
  70
    32
  0
VERTEX
  8
0
  5
2C8
 10
-3.39534
 20
-4.82376
 30
0.000000
  70
    32
  0
VERTEX
  8
0
  5
2C9
 10
-3.37056
 20
-4.83782
 30
0.000000
  70
    32
  0
VERTEX
  8
0
  5
2CA
 10
-3.34572
 20
-4.85179
 30
0.000000
  70
    32
  0
VERTEX
  8
0
  5
2CB
 10
-3.32083
 20
-4.86565
 30
0.000000
  70
    32
  0
VERTEX
  8
0
  5
2CC
 10
-3.29588
 20
-4.87941
 30
0.000000
  70
    32
  0
VERTEX
  8
0
  5
2CD
 10
-3.27089
 20
-4.89307
 30
0.000000
  70
    32
  0
VERTEX
  8
0
  5
2CE
 10
-3.24584
 20
-4.90663
 30
0.000000
  70
    32
  0
VERTEX
  8
0
  5
2CF
 10
-3.22074
 20
-4.92008
 30
0.000000
  70
    32
  0
VERTEX
  8
0
  5
2D0
 10
-3.19559
 20
-4.93344
 30
0.000000
  70
    32
  0
VERTEX
  8
0
  5
2D1
 10
-3.17039
 20
-4.94668
 30
0.000000
  70
    32
  0
VERTEX
  8
0
  5
2D2
 10
-3.14514
 20
-4.95982
 30
0.000000
  70
    32
  0
VERTEX
  8
0
  5
2D3
 10
-3.11983
 20
-4.97286
 30
0.000000
  70
    32
  0
VERTEX
  8
0
  5
2D4
 10
-3.09448
 20
-4.98578
 30
0.000000
  70
    32
  0
VERTEX
  8
0
  5
2D5
 10
-3.06907
 20
-4.99860
 30
0.000000
  70
    32
  0
VERTEX
  8
0
  5
2D6
 10
-3.04362
 20
-5.01132
 30
0.000000
  70
    32
  0
VERTEX
  8
0
  5
2D7
 10
-3.01812
 20
-5.02392
 30
0.000000
  70
    32
  0
VERTEX
  8
0
  5
2D8
 10
-2.99256
 20
-5.03641
 30
0.000000
  70
    32
  0
VERTEX
  8
0
  5
2D9
 10
-2.96696
 20
-5.04879
 30
0.000000
  70
    32
  0
VERTEX
  8
0
  5
2DA
 10
-2.94131
 20
-5.06106
 30
0.000000
  70
    32
  0
VERTEX
  8
0
  5
2DB
 10
-2.91561
 20
-5.07322
 30
0.000000
  70
    32
  0
VERTEX
  8
0
  5
2DC
 10
-2.88986
 20
-5.08527
 30
0.000000
  70
    32
  0
VERTEX
  8
0
  5
2DD
 10
-2.86407
 20
-5.09720
 30
0.000000
  70
    32
  0
VERTEX
  8
0
  5
2DE
 10
-2.83822
 20
-5.10902
 30
0.000000
  70
    32
  0
VERTEX
  8
0
  5
2DF
 10
-2.81233
 20
-5.12072
 30
0.000000
  70
    32
  0
VERTEX
  8
0
  5
2E0
 10
-2.78639
 20
-5.13231
 30
0.000000
  70
    32
  0
VERTEX
  8
0
  5
2E1
 10
-2.76041
 20
-5.14378
 30
0.000000
  70
    32
  0
VERTEX
  8
0
  5
2E2
 10
-2.73438
 20
-5.15513
 30
0.000000
  70
    32
  0
VERTEX
  8
0
  5
2E3
 10
-2.70830
 20
-5.16636
 30
0.000000
  70
    32
  0
VERTEX
  8
0
  5
2E4
 10
-2.68217
 20
-5.17748
 30
0.000000
  70
    32
  0
VERTEX
  8
0
  5
2E5
 10
-2.65600
 20
-5.18848
 30
0.000000
  70
    32
  0
VERTEX
  8
0
  5
2E6
 10
-2.62979
 20
-5.19935
 30
0.000000
  70
    32
  0
VERTEX
  8
0
  5
2E7
 10
-2.60352
 20
-5.21011
 30
0.000000
  70
    32
  0
VERTEX
  8
0
  5
2E8
 10
-2.57722
 20
-5.22074
 30
0.000000
  70
    32
  0
VERTEX
  8
0
  5
2E9
 10
-2.55086
 20
-5.23125
 30
0.000000
  70
    32
  0
VERTEX
  8
0
  5
2EA
 10
-2.52447
 20
-5.24164
 30
0.000000
  70
    32
  0
VERTEX
  8
0
  5
2EB
 10
-2.49803
 20
-5.25191
 30
0.000000
  70
    32
  0
VERTEX
  8
0
  5
2EC
 10
-2.47154
 20
-5.26205
 30
0.000000
  70
    32
  0
VERTEX
  8
0
  5
2ED
 10
-2.44501
 20
-5.27206
 30
0.000000
  70
    32
  0
VERTEX
  8
0
  5
2EE
 10
-2.41844
 20
-5.28195
 30
0.000000
  70
    32
  0
VERTEX
  8
0
  5
2EF
 10
-2.39182
 20
-5.29171
 30
0.000000
  70
    32
  0
VERTEX
  8
0
  5
2F0
 10
-2.36517
 20
-5.30134
 30
0.000000
  70
    32
  0
VERTEX
  8
0
  5
2F1
 10
-2.33846
 20
-5.31085
 30
0.000000
  70
    32
  0
VERTEX
  8
0
  5
2F2
 10
-2.31172
 20
-5.32022
 30
0.000000
  70
    32
  0
VERTEX
  8
0
  5
2F3
 10
-2.28493
 20
-5.32947
 30
0.000000
  70
    32
  0
VERTEX
  8
0
  5
2F4
 10
-2.25811
 20
-5.33859
 30
0.000000
  70
    32
  0
VERTEX
  8
0
  5
2F5
 10
-2.23123
 20
-5.34757
 30
0.000000
  70
    32
  0
VERTEX
  8
0
  5
2F6
 10
-2.20432
 20
-5.35642
 30
0.000000
  70
    32
  0
VERTEX
  8
0
  5
2F7
 10
-2.17737
 20
-5.36514
 30
0.000000
  70
    32
  0
VERTEX
  8
0
  5
2F8
 10
-2.15038
 20
-5.37373
 30
0.000000
  70
    32
  0
VERTEX
  8
0
  5
2F9
 10
-2.12334
 20
-5.38218
 30
0.000000
  70
    32
  0
VERTEX
  8
0
  5
2FA
 10
-2.09627
 20
-5.39050
 30
0.000000
  70
    32
  0
VERTEX
  8
0
  5
2FB
 10
-2.06915
 20
-5.39868
 30
0.000000
  70
    32
  0
VERTEX
  8
0
  5
2FC
 10
-2.04200
 20
-5.40672
 30
0.000000
  70
    32
  0
VERTEX
  8
0
  5
2FD
 10
-2.01480
 20
-5.41463
 30
0.000000
  70
    32
  0
VERTEX
  8
0
  5
2FE
 10
-1.98757
 20
-5.42240
 30
0.000000
  70
    32
  0
VERTEX
  8
0
  5
2FF
 10
-1.96029
 20
-5.43003
 30
0.000000
  70
    32
  0
VERTEX
  8
0
  5
300
 10
-1.93298
 20
-5.43752
 30
0.000000
  70
    32
  0
VERTEX
  8
0
  5
301
 10
-1.90563
 20
-5.44488
 30
0.000000
  70
    32
  0
VERTEX
  8
0
  5
302
 10
-1.87824
 20
-5.45209
 30
0.000000
  70
    32
  0
VERTEX
  8
0
  5
303
 10
-1.85081
 20
-5.45915
 30
0.000000
  70
    32
  0
VERTEX
  8
0
  5
304
 10
-1.82335
 20
-5.46608
 30
0.000000
  70
    32
  0
VERTEX
  8
0
  5
305
 10
-1.79585
 20
-5.47286
 30
0.000000
  70
    32
  0
VERTEX
  8
0
  5
306
 10
-1.76831
 20
-5.47950
 30
0.000000
  70
    32
  0
VERTEX
  8
0
  5
307
 10
-1.74073
 20
-5.48600
 30
0.000000
  70
    32
  0
VERTEX
  8
0
  5
308
 10
-1.71312
 20
-5.49235
 30
0.000000
  70
    32
  0
VERTEX
  8
0
  5
309
 10
-1.68546
 20
-5.49855
 30
0.000000
  70
    32
  0
VERTEX
  8
0
  5
30A
 10
-1.65778
 20
-5.50461
 30
0.000000
  70
    32
  0
VERTEX
  8
0
  5
30B
 10
-1.63006
 20
-5.51052
 30
0.000000
  70
    32
  0
VERTEX
  8
0
  5
30C
 10
-1.60230
 20
-5.51628
 30
0.000000
  70
    32
  0
VERTEX
  8
0
  5
30D
 10
-1.57450
 20
-5.52189
 30
0.000000
  70
    32
  0
VERTEX
  8
0
  5
30E
 10
-1.54667
 20
-5.52735
 30
0.000000
  70
    32
  0
VERTEX
  8
0
  5
30F
 10
-1.51881
 20
-5.53266
 30
0.000000
  70
    32
  0
VERTEX
  8
0
  5
310
 10
-1.49091
 20
-5.53782
 30
0.000000
  70
    32
  0
VERTEX
  8
0
  5
311
 10
-1.46298
 20
-5.54283
 30
0.000000
  70
    32
  0
VERTEX
  8
0
  5
312
 10
-1.43501
 20
-5.54769
 30
0.000000
  70
    32
  0
VERTEX
  8
0
  5
313
 10
-1.40701
 20
-5.55239
 30
0.000000
  70
    32
  0
VERTEX
  8
0
  5
314
 10
-1.37898
 20
-5.55694
 30
0.000000
  70
    32
  0
VERTEX
  8
0
  5
315
 10
-1.35091
 20
-5.56133
 30
0.000000
  70
    32
  0
VERTEX
  8
0
  5
316
 10
-1.32281
 20
-5.56557
 30
0.000000
  70
    32
  0
VERTEX
  8
0
  5
317
 10
-1.29467
 20
-5.56965
 30
0.000000
  70
    32
  0
VERTEX
  8
0
  5
318
 10
-1.26651
 20
-5.57357
 30
0.000000
  70
    32
  0
VERTEX
  8
0
  5
319
 10
-1.23831
 20
-5.57734
 30
0.000000
  70
    32
  0
VERTEX
  8
0
  5
31A
 10
-1.21008
 20
-5.58095
 30
0.000000
  70
    32
  0
VERTEX
  8
0
  5
31B
 10
-1.18181
 20
-5.58439
 30
0.000000
  70
    32
  0
VERTEX
  8
0
  5
31C
 10
-1.15352
 20
-5.58768
 30
0.000000
  70
    32
  0
VERTEX
  8
0
  5
31D
 10
-1.12519
 20
-5.59081
 30
0.000000
  70
    32
  0
VERTEX
  8
0
  5
31E
 10
-1.09684
 20
-5.59377
 30
0.000000
  70
    32
  0
VERTEX
  8
0
  5
31F
 10
-1.06845
 20
-5.59658
 30
0.000000
  70
    32
  0
VERTEX
  8
0
  5
320
 10
-1.04003
 20
-5.59922
 30
0.000000
  70
    32
  0
VERTEX
  8
0
  5
321
 10
-1.01158
 20
-5.60169
 30
0.000000
  70
    32
  0
VERTEX
  8
0
  5
322
 10
-0.983105
 20
-5.60401
 30
0.000000
  70
    32
  0
VERTEX
  8
0
  5
323
 10
-0.954597
 20
-5.60615
 30
0.000000
  70
    32
  0
VERTEX
  8
0
  5
324
 10
-0.922540
 20
-5.60843
 30
0.000000
  70
    32
  0
VERTEX
  8
0
  5
325
 10
-0.889890
 20
-5.61069
 30
0.000000
  70
    32
  0
VERTEX
  8
0
  5
326
 10
-0.857237
 20
-5.61290
 30
0.000000
  70
    32
  0
VERTEX
  8
0
  5
327
 10
-0.824582
 20
-5.61506
 30
0.000000
  70
    32
  0
VERTEX
  8
0
  5
328
 10
-0.791923
 20
-5.61717
 30
0.000000
  70
    32
  0
VERTEX
  8
0
  5
329
 10
-0.759262
 20
-5.61923
 30
0.000000
  70
    32
  0
VERTEX
  8
0
  5
32A
 10
-0.726598
 20
-5.62124
 30
0.000000
  70
    32
  0
VERTEX
  8
0
  5
32B
 10
-0.693931
 20
-5.62321
 30
0.000000
  70
    32
  0
VERTEX
  8
0
  5
32C
 10
-0.661261
 20
-5.62513
 30
0.000000
  70
    32
  0
VERTEX
  8
0
  5
32D
 10
-0.628588
 20
-5.62700
 30
0.000000
  70
    32
  0
VERTEX
  8
0
  5
32E
 10
-0.595913
 20
-5.62883
 30
0.000000
  70
    32
  0
VERTEX
  8
0
  5
32F
 10
-0.563236
 20
-5.63062
 30
0.000000
  70
    32
  0
VERTEX
  8
0
  5
330
 10
-0.530556
 20
-5.63236
 30
0.000000
  70
    32
  0
VERTEX
  8
0
  5
331
 10
-0.497873
 20
-5.63405
 30
0.000000
  70
    32
  0
VERTEX
  8
0
  5
332
 10
-0.465188
 20
-5.63571
 30
0.000000
  70
    32
  0
VERTEX
  8
0
  5
333
 10
-0.432500
 20
-5.63732
 30
0.000000
  70
    32
  0
VERTEX
  8
0
  5
334
 10
-0.399810
 20
-5.63889
 30
0.000000
  70
    32
  0
VERTEX
  8
0
  5
335
 10
-0.367118
 20
-5.64042
 30
0.000000
  70
    32
  0
VERTEX
  8
0
  5
336
 10
-0.334423
 20
-5.64191
 30
0.000000
  70
    32
  0
VERTEX
  8
0
  5
337
 10
-0.301727
 20
-5.64336
 30
0.000000
  70
    32
  0
VERTEX
  8
0
  5
338
 10
-0.269028
 20
-5.64477
 30
0.000000
  70
    32
  0
VERTEX
  8
0
  5
339
 10
-0.236327
 20
-5.64615
 30
0.000000
  70
    32
  0
VERTEX
  8
0
  5
33A
 10
-0.203624
 20
-5.64748
 30
0.000000
  70
    32
  0
VERTEX
  8
0
  5
33B
 10
-0.170919
 20
-5.64878
 30
0.000000
  70
    32
  0
VERTEX
  8
0
  5
33C
 10
-0.138211
 20
-5.65005
 30
0.000000
  70
    32
  0
VERTEX
  8
0
  5
33D
 10
-0.105502
 20
-5.65128
 30
0.000000
  70
    32
  0
VERTEX
  8
0
  5
33E
 10
-0.0727913
 20
-5.65247
 30
0.000000
  70
    32
  0
VERTEX
  8
0
  5
33F
 10
-0.0400784
 20
-5.65364
 30
0.000000
  70
    32
  0
VERTEX
  8
0
  5
340
 10
-0.00736377
 20
-5.65476
 30
0.000000
  70
    32
  0
VERTEX
  8
0
  5
341
 10
0.0253526
 20
-5.65586
 30
0.000000
  70
    32
  0
VERTEX
  8
0
  5
342
 10
0.0580708
 20
-5.65693
 30
0.000000
  70
    32
  0
VERTEX
  8
0
  5
343
 10
0.0907906
 20
-5.65796
 30
0.000000
  70
    32
  0
VERTEX
  8
0
  5
344
 10
0.123512
 20
-5.65896
 30
0.000000
  70
    32
  0
VERTEX
  8
0
  5
345
 10
0.156235
 20
-5.65994
 30
0.000000
  70
    32
  0
VERTEX
  8
0
  5
346
 10
0.188960
 20
-5.66088
 30
0.000000
  70
    32
  0
VERTEX
  8
0
  5
347
 10
0.221686
 20
-5.66180
 30
0.000000
  70
    32
  0
VERTEX
  8
0
  5
348
 10
0.254413
 20
-5.66268
 30
0.000000
  70
    32
  0
VERTEX
  8
0
  5
349
 10
0.287142
 20
-5.66355
 30
0.000000
  70
    32
  0
VERTEX
  8
0
  5
34A
 10
0.319872
 20
-5.66438
 30
0.000000
  70
    32
  0
VERTEX
  8
0
  5
34B
 10
0.352604
 20
-5.66519
 30
0.000000
  70
    32
  0
VERTEX
  8
0
  5
34C
 10
0.385336
 20
-5.66598
 30
0.000000
  70
    32
  0
VERTEX
  8
0
  5
34D
 10
0.418070
 20
-5.66674
 30
0.000000
  70
    32
  0
VERTEX
  8
0
  5
34E
 10
0.450805
 20
-5.66747
 30
0.000000
  70
    32
  0
VERTEX
  8
0
  5
34F
 10
0.483542
 20
-5.66819
 30
0.000000
  70
    32
  0
VERTEX
  8
0
  5
350
 10
0.516279
 20
-5.66888
 30
0.000000
  70
    32
  0
VERTEX
  8
0
  5
351
 10
0.549017
 20
-5.66955
 30
0.000000
  70
    32
  0
VERTEX
  8
0
  5
352
 10
0.581756
 20
-5.67020
 30
0.000000
  70
    32
  0
VERTEX
  8
0
  5
353
 10
0.614497
 20
-5.67083
 30
0.000000
  70
    32
  0
VERTEX
  8
0
  5
354
 10
0.647238
 20
-5.67144
 30
0.000000
  70
    32
  0
VERTEX
  8
0
  5
355
 10
0.679980
 20
-5.67204
 30
0.000000
  70
    32
  0
VERTEX
  8
0
  5
356
 10
0.712722
 20
-5.67261
 30
0.000000
  70
    32
  0
VERTEX
  8
0
  5
357
 10
0.745466
 20
-5.67317
 30
0.000000
  70
    32
  0
VERTEX
  8
0
  5
358
 10
0.778210
 20
-5.67371
 30
0.000000
  70
    32
  0
VERTEX
  8
0
  5
359
 10
0.810955
 20
-5.67423
 30
0.000000
  70
    32
  0
VERTEX
  8
0
  5
35A
 10
0.843700
 20
-5.67474
 30
0.000000
  70
    32
  0
VERTEX
  8
0
  5
35B
 10
0.876446
 20
-5.67523
 30
0.000000
  70
    32
  0
VERTEX
  8
0
  5
35C
 10
0.909193
 20
-5.67571
 30
0.000000
  70
    32
  0
VERTEX
  8
0
  5
35D
 10
0.941940
 20
-5.67618
 30
0.000000
  70
    32
  0
VERTEX
  8
0
  5
35E
 10
0.974687
 20
-5.67663
 30
0.000000
  70
    32
  0
VERTEX
  8
0
  5
35F
 10
1.00743
 20
-5.67707
 30
0.000000
  70
    32
  0
VERTEX
  8
0
  5
360
 10
1.04018
 20
-5.67751
 30
0.000000
  70
    32
  0
VERTEX
  8
0
  5
361
 10
1.07293
 20
-5.67793
 30
0.000000
  70
    32
  0
VERTEX
  8
0
  5
362
 10
1.10568
 20
-5.67834
 30
0.000000
  70
    32
  0
VERTEX
  8
0
  5
363
 10
1.13843
 20
-5.67874
 30
0.000000
  70
    32
  0
VERTEX
  8
0
  5
364
 10
1.17118
 20
-5.67913
 30
0.000000
  70
    32
  0
VERTEX
  8
0
  5
365
 10
1.20393
 20
-5.67952
 30
0.000000
  70
    32
  0
VERTEX
  8
0
  5
366
 10
1.23668
 20
-5.67989
 30
0.000000
  70
    32
  0
VERTEX
  8
0
  5
367
 10
1.26942
 20
-5.68027
 30
0.000000
  70
    32
  0
VERTEX
  8
0
  5
368
 10
1.30217
 20
-5.68063
 30
0.000000
  70
    32
  0
VERTEX
  8
0
  5
369
 10
1.33492
 20
-5.68099
 30
0.000000
  70
    32
  0
VERTEX
  8
0
  5
36A
 10
1.36767
 20
-5.68135
 30
0.000000
  70
    32
  0
VERTEX
  8
0
  5
36B
 10
1.40042
 20
-5.68170
 30
0.000000
  70
    32
  0
VERTEX
  8
0
  5
36C
 10
1.43317
 20
-5.68205
 30
0.000000
  70
    32
  0
VERTEX
  8
0
  5
36D
 10
1.46592
 20
-5.68240
 30
0.000000
  70
    32
  0
VERTEX
  8
0
  5
36E
 10
1.49866
 20
-5.68275
 30
0.000000
  70
    32
  0
VERTEX
  8
0
  5
36F
 10
1.53141
 20
-5.68309
 30
0.000000
  70
    32
  0
VERTEX
  8
0
  5
370
 10
1.56416
 20
-5.68343
 30
0.000000
  70
    32
  0
VERTEX
  8
0
  5
371
 10
1.59691
 20
-5.68378
 30
0.000000
  70
    32
  0
VERTEX
  8
0
  5
372
 10
1.62965
 20
-5.68413
 30
0.000000
  70
    32
  0
VERTEX
  8
0
  5
373
 10
1.66240
 20
-5.68447
 30
0.000000
  70
    32
  0
VERTEX
  8
0
  5
374
 10
1.69514
 20
-5.68482
 30
0.000000
  70
    32
  0
VERTEX
  8
0
  5
375
 10
1.72789
 20
-5.68518
 30
0.000000
  70
    32
  0
VERTEX
  8
0
  5
376
 10
1.76063
 20
-5.68553
 30
0.000000
  70
    32
  0
VERTEX
  8
0
  5
377
 10
1.79337
 20
-5.68590
 30
0.000000
  70
    32
  0
VERTEX
  8
0
  5
378
 10
1.82612
 20
-5.68626
 30
0.000000
  70
    32
  0
VERTEX
  8
0
  5
379
 10
1.85886
 20
-5.68664
 30
0.000000
  70
    32
  0
VERTEX
  8
0
  5
37A
 10
1.89160
 20
-5.68702
 30
0.000000
  70
    32
  0
VERTEX
  8
0
  5
37B
 10
1.92434
 20
-5.68740
 30
0.000000
  70
    32
  0
VERTEX
  8
0
  5
37C
 10
1.95707
 20
-5.68780
 30
0.000000
  70
    32
  0
VERTEX
  8
0
  5
37D
 10
1.98981
 20
-5.68820
 30
0.000000
  70
    32
  0
VERTEX
  8
0
  5
37E
 10
2.02255
 20
-5.68861
 30
0.000000
  70
    32
  0
VERTEX
  8
0
  5
37F
 10
2.05528
 20
-5.68903
 30
0.000000
  70
    32
  0
VERTEX
  8
0
  5
380
 10
2.08802
 20
-5.68947
 30
0.000000
  70
    32
  0
VERTEX
  8
0
  5
381
 10
2.12075
 20
-5.68991
 30
0.000000
  70
    32
  0
VERTEX
  8
0
  5
382
 10
2.15348
 20
-5.69037
 30
0.000000
  70
    32
  0
VERTEX
  8
0
  5
383
 10
2.18621
 20
-5.69084
 30
0.000000
  70
    32
  0
VERTEX
  8
0
  5
384
 10
2.21894
 20
-5.69132
 30
0.000000
  70
    32
  0
VERTEX
  8
0
  5
385
 10
2.25167
 20
-5.69182
 30
0.000000
  70
    32
  0
VERTEX
  8
0
  5
386
 10
2.28440
 20
-5.69233
 30
0.000000
  70
    32
  0
VERTEX
  8
0
  5
387
 10
2.31712
 20
-5.69285
 30
0.000000
  70
    32
  0
VERTEX
  8
0
  5
388
 10
2.33768
 20
-5.69320
 30
0.000000
  70
    32
  0
VERTEX
  8
0
  5
389
 10
2.34201
 20
-5.69327
 30
0.000000
  70
    32
  0
VERTEX
  8
0
  5
38A
 10
2.34634
 20
-5.69335
 30
0.000000
  70
    32
  0
VERTEX
  8
0
  5
38B
 10
2.35067
 20
-5.69343
 30
0.000000
  70
    32
  0
VERTEX
  8
0
  5
38C
 10
2.35500
 20
-5.69351
 30
0.000000
  70
    32
  0
VERTEX
  8
0
  5
38D
 10
2.35934
 20
-5.69358
 30
0.000000
  70
    32
  0
VERTEX
  8
0
  5
38E
 10
2.36367
 20
-5.69366
 30
0.000000
  70
    32
  0
VERTEX
  8
0
  5
38F
 10
2.36800
 20
-5.69374
 30
0.000000
  70
    32
  0
VERTEX
  8
0
  5
390
 10
2.37233
 20
-5.69382
 30
0.000000
  70
    32
  0
VERTEX
  8
0
  5
391
 10
2.37666
 20
-5.69390
 30
0.000000
  70
    32
  0
VERTEX
  8
0
  5
392
 10
2.38099
 20
-5.69397
 30
0.000000
  70
    32
  0
VERTEX
  8
0
  5
393
 10
2.38532
 20
-5.69405
 30
0.000000
  70
    32
  0
VERTEX
  8
0
  5
394
 10
2.38965
 20
-5.69413
 30
0.000000
  70
    32
  0
VERTEX
  8
0
  5
395
 10
2.39398
 20
-5.69421
 30
0.000000
  70
    32
  0
VERTEX
  8
0
  5
396
 10
2.39831
 20
-5.69428
 30
0.000000
  70
    32
  0
VERTEX
  8
0
  5
397
 10
2.40264
 20
-5.69436
 30
0.000000
  70
    32
  0
VERTEX
  8
0
  5
398
 10
2.40697
 20
-5.69444
 30
0.000000
  70
    32
  0
VERTEX
  8
0
  5
399
 10
2.41129
 20
-5.69452
 30
0.000000
  70
    32
  0
VERTEX
  8
0
  5
39A
 10
2.41562
 20
-5.69459
 30
0.000000
  70
    32
  0
VERTEX
  8
0
  5
39B
 10
2.41995
 20
-5.69467
 30
0.000000
  70
    32
  0
VERTEX
  8
0
  5
39C
 10
2.42428
 20
-5.69475
 30
0.000000
  70
    32
  0
VERTEX
  8
0
  5
39D
 10
2.42861
 20
-5.69483
 30
0.000000
  70
    32
  0
VERTEX
  8
0
  5
39E
 10
2.43294
 20
-5.69490
 30
0.000000
  70
    32
  0
VERTEX
  8
0
  5
39F
 10
2.43726
 20
-5.69498
 30
0.000000
  70
    32
  0
VERTEX
  8
0
  5
3A0
 10
2.44159
 20
-5.69506
 30
0.000000
  70
    32
  0
VERTEX
  8
0
  5
3A1
 10
2.44592
 20
-5.69514
 30
0.000000
  70
    32
  0
VERTEX
  8
0
  5
3A2
 10
2.45025
 20
-5.69521
 30
0.000000
  70
    32
  0
VERTEX
  8
0
  5
3A3
 10
2.45457
 20
-5.69529
 30
0.000000
  70
    32
  0
VERTEX
  8
0
  5
3A4
 10
2.45890
 20
-5.69537
 30
0.000000
  70
    32
  0
VERTEX
  8
0
  5
3A5
 10
2.46323
 20
-5.69544
 30
0.000000
  70
    32
  0
VERTEX
  8
0
  5
3A6
 10
2.46756
 20
-5.69552
 30
0.000000
  70
    32
  0
VERTEX
  8
0
  5
3A7
 10
2.47188
 20
-5.69560
 30
0.000000
  70
    32
  0
VERTEX
  8
0
  5
3A8
 10
2.47621
 20
-5.69568
 30
0.000000
  70
    32
  0
VERTEX
  8
0
  5
3A9
 10
2.48054
 20
-5.69575
 30
0.000000
  70
    32
  0
VERTEX
  8
0
  5
3AA
 10
2.48486
 20
-5.69583
 30
0.000000
  70
    32
  0
VERTEX
  8
0
  5
3AB
 10
2.48919
 20
-5.69591
 30
0.000000
  70
    32
  0
VERTEX
  8
0
  5
3AC
 10
2.49352
 20
-5.69598
 30
0.000000
  70
    32
  0
VERTEX
  8
0
  5
3AD
 10
2.49784
 20
-5.69606
 30
0.000000
  70
    32
  0
VERTEX
  8
0
  5
3AE
 10
2.50217
 20
-5.69614
 30
0.000000
  70
    32
  0
VERTEX
  8
0
  5
3AF
 10
2.50649
 20
-5.69621
 30
0.000000
  70
    32
  0
VERTEX
  8
0
  5
3B0
 10
2.51082
 20
-5.69629
 30
0.000000
  70
    32
  0
VERTEX
  8
0
  5
3B1
 10
2.51515
 20
-5.69637
 30
0.000000
  70
    32
  0
VERTEX
  8
0
  5
3B2
 10
2.51947
 20
-5.69644
 30
0.000000
  70
    32
  0
VERTEX
  8
0
  5
3B3
 10
2.52380
 20
-5.69652
 30
0.000000
  70
    32
  0
VERTEX
  8
0
  5
3B4
 10
2.52813
 20
-5.69660
 30
0.000000
  70
    32
  0
VERTEX
  8
0
  5
3B5
 10
2.53245
 20
-5.69667
 30
0.000000
  70
    32
  0
VERTEX
  8
0
  5
3B6
 10
2.53678
 20
-5.69675
 30
0.000000
  70
    32
  0
VERTEX
  8
0
  5
3B7
 10
2.54110
 20
-5.69683
 30
0.000000
  70
    32
  0
VERTEX
  8
0
  5
3B8
 10
2.54543
 20
-5.69690
 30
0.000000
  70
    32
  0
VERTEX
  8
0
  5
3B9
 10
2.54975
 20
-5.69698
 30
0.000000
  70
    32
  0
VERTEX
  8
0
  5
3BA
 10
2.55408
 20
-5.69705
 30
0.000000
  70
    32
  0
VERTEX
  8
0
  5
3BB
 10
2.55841
 20
-5.69713
 30
0.000000
  70
    32
  0
VERTEX
  8
0
  5
3BC
 10
2.56273
 20
-5.69721
 30
0.000000
  70
    32
  0
VERTEX
  8
0
  5
3BD
 10
2.56706
 20
-5.69728
 30
0.000000
  70
    32
  0
VERTEX
  8
0
  5
3BE
 10
2.57138
 20
-5.69736
 30
0.000000
  70
    32
  0
VERTEX
  8
0
  5
3BF
 10
2.57571
 20
-5.69743
 30
0.000000
  70
    32
  0
VERTEX
  8
0
  5
3C0
 10
2.58004
 20
-5.69751
 30
0.000000
  70
    32
  0
VERTEX
  8
0
  5
3C1
 10
2.58436
 20
-5.69758
 30
0.000000
  70
    32
  0
VERTEX
  8
0
  5
3C2
 10
2.58869
 20
-5.69766
 30
0.000000
  70
    32
  0
VERTEX
  8
0
  5
3C3
 10
2.59302
 20
-5.69774
 30
0.000000
  70
    32
  0
VERTEX
  8
0
  5
3C4
 10
2.59734
 20
-5.69781
 30
0.000000
  70
    32
  0
VERTEX
  8
0
  5
3C5
 10
2.60167
 20
-5.69789
 30
0.000000
  70
    32
  0
VERTEX
  8
0
  5
3C6
 10
2.60599
 20
-5.69796
 30
0.000000
  70
    32
  0
VERTEX
  8
0
  5
3C7
 10
2.61032
 20
-5.69804
 30
0.000000
  70
    32
  0
VERTEX
  8
0
  5
3C8
 10
2.61465
 20
-5.69811
 30
0.000000
  70
    32
  0
VERTEX
  8
0
  5
3C9
 10
2.61897
 20
-5.69819
 30
0.000000
  70
    32
  0
VERTEX
  8
0
  5
3CA
 10
2.62330
 20
-5.69826
 30
0.000000
  70
    32
  0
VERTEX
  8
0
  5
3CB
 10
2.62763
 20
-5.69834
 30
0.000000
  70
    32
  0
VERTEX
  8
0
  5
3CC
 10
2.63195
 20
-5.69841
 30
0.000000
  70
    32
  0
VERTEX
  8
0
  5
3CD
 10
2.63628
 20
-5.69849
 30
0.000000
  70
    32
  0
VERTEX
  8
0
  5
3CE
 10
2.64061
 20
-5.69856
 30
0.000000
  70
    32
  0
VERTEX
  8
0
  5
3CF
 10
2.64493
 20
-5.69864
 30
0.000000
  70
    32
  0
VERTEX
  8
0
  5
3D0
 10
2.64926
 20
-5.69871
 30
0.000000
  70
    32
  0
VERTEX
  8
0
  5
3D1
 10
2.65359
 20
-5.69878
 30
0.000000
  70
    32
  0
VERTEX
  8
0
  5
3D2
 10
2.65792
 20
-5.69886
 30
0.000000
  70
    32
  0
VERTEX
  8
0
  5
3D3
 10
2.66224
 20
-5.69893
 30
0.000000
  70
    32
  0
VERTEX
  8
0
  5
3D4
 10
2.66657
 20
-5.69901
 30
0.000000
  70
    32
  0
VERTEX
  8
0
  5
3D5
 10
2.67090
 20
-5.69908
 30
0.000000
  70
    32
  0
VERTEX
  8
0
  5
3D6
 10
2.67523
 20
-5.69915
 30
0.000000
  70
    32
  0
VERTEX
  8
0
  5
3D7
 10
2.67956
 20
-5.69923
 30
0.000000
  70
    32
  0
VERTEX
  8
0
  5
3D8
 10
2.68388
 20
-5.69930
 30
0.000000
  70
    32
  0
VERTEX
  8
0
  5
3D9
 10
2.68821
 20
-5.69938
 30
0.000000
  70
    32
  0
VERTEX
  8
0
  5
3DA
 10
2.69254
 20
-5.69945
 30
0.000000
  70
    32
  0
VERTEX
  8
0
  5
3DB
 10
2.69687
 20
-5.69952
 30
0.000000
  70
    32
  0
VERTEX
  8
0
  5
3DC
 10
2.70120
 20
-5.69959
 30
0.000000
  70
    32
  0
VERTEX
  8
0
  5
3DD
 10
2.70553
 20
-5.69967
 30
0.000000
  70
    32
  0
VERTEX
  8
0
  5
3DE
 10
2.70986
 20
-5.69974
 30
0.000000
  70
    32
  0
VERTEX
  8
0
  5
3DF
 10
2.71419
 20
-5.69981
 30
0.000000
  70
    32
  0
VERTEX
  8
0
  5
3E0
 10
2.71852
 20
-5.69989
 30
0.000000
  70
    32
  0
VERTEX
  8
0
  5
3E1
 10
2.72285
 20
-5.69996
 30
0.000000
  70
    32
  0
VERTEX
  8
0
  5
3E2
 10
2.72718
 20
-5.70003
 30
0.000000
  70
    32
  0
VERTEX
  8
0
  5
3E3
 10
2.73151
 20
-5.70010
 30
0.000000
  70
    32
  0
VERTEX
  8
0
  5
3E4
 10
2.73584
 20
-5.70018
 30
0.000000
  70
    32
  0
VERTEX
  8
0
  5
3E5
 10
2.74017
 20
-5.70025
 30
0.000000
  70
    32
  0
VERTEX
  8
0
  5
3E6
 10
2.74450
 20
-5.70032
 30
0.000000
  70
    32
  0
VERTEX
  8
0
  5
3E7
 10
2.74883
 20
-5.70039
 30
0.000000
  70
    32
  0
VERTEX
  8
0
  5
3E8
 10
2.75316
 20
-5.70046
 30
0.000000
  70
    32
  0
VERTEX
  8
0
  5
3E9
 10
2.75749
 20
-5.70054
 30
0.000000
  70
    32
  0
VERTEX
  8
0
  5
3EA
 10
2.76182
 20
-5.70061
 30
0.000000
  70
    32
  0
VERTEX
  8
0
  5
3EB
 10
2.76616
 20
-5.70068
 30
0.000000
  70
    32
  0
VERTEX
  8
0
  5
3EC
 10
2.77049
 20
-5.70075
 30
0.000000
  70
    32
  0
SEQEND
  8
0
  5
3ED
  0
POLYLINE
  8
0
  5
3EE
  66
     1
 10
0.000000
 20
0.000000
 30
0.000000
  70
     8
  0
VERTEX
  8
0
  5
3EF
 10
2.77049
 20
-5.70075
 30
0.000000
  70
    32
  0
VERTEX
  8
0
  5
3F0
 10
2.76836
 20
-5.70182
 30
0.000000
  70
    32
  0
VERTEX
  8
0
  5
3F1
 10
2.76626
 20
-5.70288
 30
0.000000
  70
    32
  0
VERTEX
  8
0
  5
3F2
 10
2.76416
 20
-5.70394
 30
0.000000
  70
    32
  0
VERTEX
  8
0
  5
3F3
 10
2.76208
 20
-5.70501
 30
0.000000
  70
    32
  0
VERTEX
  8
0
  5
3F4
 10
2.76001
 20
-5.70607
 30
0.000000
  70
    32
  0
VERTEX
  8
0
  5
3F5
 10
2.75796
 20
-5.70713
 30
0.000000
  70
    32
  0
VERTEX
  8
0
  5
3F6
 10
2.75592
 20
-5.70820
 30
0.000000
  70
    32
  0
VERTEX
  8
0
  5
3F7
 10
2.75389
 20
-5.70926
 30
0.000000
  70
    32
  0
VERTEX
  8
0
  5
3F8
 10
2.75188
 20
-5.71032
 30
0.000000
  70
    32
  0
VERTEX
  8
0
  5
3F9
 10
2.74988
 20
-5.71138
 30
0.000000
  70
    32
  0
VERTEX
  8
0
  5
3FA
 10
2.74789
 20
-5.71245
 30
0.000000
  70
    32
  0
VERTEX
  8
0
  5
3FB
 10
2.74591
 20
-5.71351
 30
0.000000
  70
    32
  0
VERTEX
  8
0
  5
3FC
 10
2.74395
 20
-5.71458
 30
0.000000
  70
    32
  0
VERTEX
  8
0
  5
3FD
 10
2.74200
 20
-5.71564
 30
0.000000
  70
    32
  0
VERTEX
  8
0
  5
3FE
 10
2.74006
 20
-5.71670
 30
0.000000
  70
    32
  0
VERTEX
  8
0
  5
3FF
 10
2.73813
 20
-5.71777
 30
0.000000
  70
    32
  0
VERTEX
  8
0
  5
400
 10
2.73622
 20
-5.71884
 30
0.000000
  70
    32
  0
VERTEX
  8
0
  5
401
 10
2.73431
 20
-5.71990
 30
0.000000
  70
    32
  0
VERTEX
  8
0
  5
402
 10
2.73242
 20
-5.72097
 30
0.000000
  70
    32
  0
VERTEX
  8
0
  5
403
 10
2.73054
 20
-5.72204
 30
0.000000
  70
    32
  0
VERTEX
  8
0
  5
404
 10
2.72867
 20
-5.72311
 30
0.000000
  70
    32
  0
VERTEX
  8
0
  5
405
 10
2.72681
 20
-5.72418
 30
0.000000
  70
    32
  0
VERTEX
  8
0
  5
406
 10
2.72496
 20
-5.72526
 30
0.000000
  70
    32
  0
VERTEX
  8
0
  5
407
 10
2.72312
 20
-5.72633
 30
0.000000
  70
    32
  0
VERTEX
  8
0
  5
408
 10
2.72129
 20
-5.72741
 30
0.000000
  70
    32
  0
VERTEX
  8
0
  5
409
 10
2.71947
 20
-5.72848
 30
0.000000
  70
    32
  0
VERTEX
  8
0
  5
40A
 10
2.71766
 20
-5.72956
 30
0.000000
  70
    32
  0
VERTEX
  8
0
  5
40B
 10
2.71586
 20
-5.73064
 30
0.000000
  70
    32
  0
VERTEX
  8
0
  5
40C
 10
2.71408
 20
-5.73173
 30
0.000000
  70
    32
  0
VERTEX
  8
0
  5
40D
 10
2.71230
 20
-5.73281
 30
0.000000
  70
    32
  0
VERTEX
  8
0
  5
40E
 10
2.71053
 20
-5.73390
 30
0.000000
  70
    32
  0
VERTEX
  8
0
  5
40F
 10
2.70876
 20
-5.73498
 30
0.000000
  70
    32
  0
VERTEX
  8
0
  5
410
 10
2.70701
 20
-5.73607
 30
0.000000
  70
    32
  0
VERTEX
  8
0
  5
411
 10
2.70527
 20
-5.73717
 30
0.000000
  70
    32
  0
VERTEX
  8
0
  5
412
 10
2.70353
 20
-5.73826
 30
0.000000
  70
    32
  0
VERTEX
  8
0
  5
413
 10
2.70181
 20
-5.73936
 30
0.000000
  70
    32
  0
VERTEX
  8
0
  5
414
 10
2.70009
 20
-5.74046
 30
0.000000
  70
    32
  0
VERTEX
  8
0
  5
415
 10
2.69838
 20
-5.74156
 30
0.000000
  70
    32
  0
VERTEX
  8
0
  5
416
 10
2.69667
 20
-5.74267
 30
0.000000
  70
    32
  0
VERTEX
  8
0
  5
417
 10
2.69498
 20
-5.74378
 30
0.000000
  70
    32
  0
VERTEX
  8
0
  5
418
 10
2.69329
 20
-5.74489
 30
0.000000
  70
    32
  0
VERTEX
  8
0
  5
419
 10
2.69161
 20
-5.74600
 30
0.000000
  70
    32
  0
VERTEX
  8
0
  5
41A
 10
2.68994
 20
-5.74712
 30
0.000000
  70
    32
  0
VERTEX
  8
0
  5
41B
 10
2.68827
 20
-5.74824
 30
0.000000
  70
    32
  0
VERTEX
  8
0
  5
41C
 10
2.68661
 20
-5.74936
 30
0.000000
  70
    32
  0
VERTEX
  8
0
  5
41D
 10
2.68496
 20
-5.75049
 30
0.000000
  70
    32
  0
VERTEX
  8
0
  5
41E
 10
2.68332
 20
-5.75162
 30
0.000000
  70
    32
  0
VERTEX
  8
0
  5
41F
 10
2.68168
 20
-5.75275
 30
0.000000
  70
    32
  0
VERTEX
  8
0
  5
420
 10
2.68004
 20
-5.75389
 30
0.000000
  70
    32
  0
VERTEX
  8
0
  5
421
 10
2.67842
 20
-5.75503
 30
0.000000
  70
    32
  0
VERTEX
  8
0
  5
422
 10
2.67679
 20
-5.75617
 30
0.000000
  70
    32
  0
VERTEX
  8
0
  5
423
 10
2.67518
 20
-5.75732
 30
0.000000
  70
    32
  0
VERTEX
  8
0
  5
424
 10
2.67357
 20
-5.75847
 30
0.000000
  70
    32
  0
VERTEX
  8
0
  5
425
 10
2.67196
 20
-5.75963
 30
0.000000
  70
    32
  0
VERTEX
  8
0
  5
426
 10
2.67036
 20
-5.76079
 30
0.000000
  70
    32
  0
VERTEX
  8
0
  5
427
 10
2.66877
 20
-5.76195
 30
0.000000
  70
    32
  0
VERTEX
  8
0
  5
428
 10
2.66718
 20
-5.76312
 30
0.000000
  70
    32
  0
VERTEX
  8
0
  5
429
 10
2.66559
 20
-5.76430
 30
0.000000
  70
    32
  0
VERTEX
  8
0
  5
42A
 10
2.66401
 20
-5.76547
 30
0.000000
  70
    32
  0
VERTEX
  8
0
  5
42B
 10
2.66243
 20
-5.76665
 30
0.000000
  70
    32
  0
VERTEX
  8
0
  5
42C
 10
2.66086
 20
-5.76784
 30
0.000000
  70
    32
  0
VERTEX
  8
0
  5
42D
 10
2.65929
 20
-5.76903
 30
0.000000
  70
    32
  0
VERTEX
  8
0
  5
42E
 10
2.65772
 20
-5.77023
 30
0.000000
  70
    32
  0
VERTEX
  8
0
  5
42F
 10
2.65616
 20
-5.77143
 30
0.000000
  70
    32
  0
VERTEX
  8
0
  5
430
 10
2.65460
 20
-5.77264
 30
0.000000
  70
    32
  0
VERTEX
  8
0
  5
431
 10
2.65305
 20
-5.77385
 30
0.000000
  70
    32
  0
VERTEX
  8
0
  5
432
 10
2.65150
 20
-5.77506
 30
0.000000
  70
    32
  0
VERTEX
  8
0
  5
433
 10
2.64995
 20
-5.77628
 30
0.000000
  70
    32
  0
VERTEX
  8
0
  5
434
 10
2.64840
 20
-5.77751
 30
0.000000
  70
    32
  0
VERTEX
  8
0
  5
435
 10
2.64686
 20
-5.77874
 30
0.000000
  70
    32
  0
VERTEX
  8
0
  5
436
 10
2.64531
 20
-5.77998
 30
0.000000
  70
    32
  0
VERTEX
  8
0
  5
437
 10
2.64377
 20
-5.78122
 30
0.000000
  70
    32
  0
VERTEX
  8
0
  5
438
 10
2.64224
 20
-5.78247
 30
0.000000
  70
    32
  0
VERTEX
  8
0
  5
439
 10
2.64070
 20
-5.78373
 30
0.000000
  70
    32
  0
VERTEX
  8
0
  5
43A
 10
2.63917
 20
-5.78499
 30
0.000000
  70
    32
  0
VERTEX
  8
0
  5
43B
 10
2.63763
 20
-5.78625
 30
0.000000
  70
    32
  0
VERTEX
  8
0
  5
43C
 10
2.63610
 20
-5.78752
 30
0.000000
  70
    32
  0
VERTEX
  8
0
  5
43D
 10
2.63457
 20
-5.78880
 30
0.000000
  70
    32
  0
VERTEX
  8
0
  5
43E
 10
2.63304
 20
-5.79009
 30
0.000000
  70
    32
  0
VERTEX
  8
0
  5
43F
 10
2.63151
 20
-5.79138
 30
0.000000
  70
    32
  0
VERTEX
  8
0
  5
440
 10
2.62999
 20
-5.79268
 30
0.000000
  70
    32
  0
VERTEX
  8
0
  5
441
 10
2.62846
 20
-5.79398
 30
0.000000
  70
    32
  0
VERTEX
  8
0
  5
442
 10
2.62693
 20
-5.79529
 30
0.000000
  70
    32
  0
VERTEX
  8
0
  5
443
 10
2.62540
 20
-5.79661
 30
0.000000
  70
    32
  0
VERTEX
  8
0
  5
444
 10
2.62388
 20
-5.79793
 30
0.000000
  70
    32
  0
VERTEX
  8
0
  5
445
 10
2.62235
 20
-5.79926
 30
0.000000
  70
    32
  0
VERTEX
  8
0
  5
446
 10
2.62082
 20
-5.80060
 30
0.000000
  70
    32
  0
VERTEX
  8
0
  5
447
 10
2.61929
 20
-5.80194
 30
0.000000
  70
    32
  0
VERTEX
  8
0
  5
448
 10
2.61776
 20
-5.80329
 30
0.000000
  70
    32
  0
VERTEX
  8
0
  5
449
 10
2.61623
 20
-5.80465
 30
0.000000
  70
    32
  0
VERTEX
  8
0
  5
44A
 10
2.61470
 20
-5.80602
 30
0.000000
  70
    32
  0
VERTEX
  8
0
  5
44B
 10
2.61317
 20
-5.80739
 30
0.000000
  70
    32
  0
VERTEX
  8
0
  5
44C
 10
2.61164
 20
-5.80877
 30
0.000000
  70
    32
  0
VERTEX
  8
0
  5
44D
 10
2.61010
 20
-5.81016
 30
0.000000
  70
    32
  0
VERTEX
  8
0
  5
44E
 10
2.60856
 20
-5.81155
 30
0.000000
  70
    32
  0
VERTEX
  8
0
  5
44F
 10
2.60702
 20
-5.81296
 30
0.000000
  70
    32
  0
VERTEX
  8
0
  5
450
 10
2.60548
 20
-5.81437
 30
0.000000
  70
    32
  0
VERTEX
  8
0
  5
451
 10
2.60394
 20
-5.81579
 30
0.000000
  70
    32
  0
VERTEX
  8
0
  5
452
 10
2.60239
 20
-5.81721
 30
0.000000
  70
    32
  0
VERTEX
  8
0
  5
453
 10
2.60084
 20
-5.81865
 30
0.000000
  70
    32
  0
VERTEX
  8
0
  5
454
 10
2.59929
 20
-5.82009
 30
0.000000
  70
    32
  0
VERTEX
  8
0
  5
455
 10
2.59774
 20
-5.82154
 30
0.000000
  70
    32
  0
VERTEX
  8
0
  5
456
 10
2.59618
 20
-5.82300
 30
0.000000
  70
    32
  0
VERTEX
  8
0
  5
457
 10
2.59462
 20
-5.82447
 30
0.000000
  70
    32
  0
VERTEX
  8
0
  5
458
 10
2.59305
 20
-5.82595
 30
0.000000
  70
    32
  0
VERTEX
  8
0
  5
459
 10
2.59148
 20
-5.82743
 30
0.000000
  70
    32
  0
VERTEX
  8
0
  5
45A
 10
2.58991
 20
-5.82892
 30
0.000000
  70
    32
  0
VERTEX
  8
0
  5
45B
 10
2.58833
 20
-5.83043
 30
0.000000
  70
    32
  0
VERTEX
  8
0
  5
45C
 10
2.58675
 20
-5.83194
 30
0.000000
  70
    32
  0
VERTEX
  8
0
  5
45D
 10
2.58517
 20
-5.83346
 30
0.000000
  70
    32
  0
VERTEX
  8
0
  5
45E
 10
2.58358
 20
-5.83499
 30
0.000000
  70
    32
  0
VERTEX
  8
0
  5
45F
 10
2.58198
 20
-5.83652
 30
0.000000
  70
    32
  0
VERTEX
  8
0
  5
460
 10
2.58038
 20
-5.83807
 30
0.000000
  70
    32
  0
VERTEX
  8
0
  5
461
 10
2.57878
 20
-5.83963
 30
0.000000
  70
    32
  0
VERTEX
  8
0
  5
462
 10
2.57717
 20
-5.84119
 30
0.000000
  70
    32
  0
VERTEX
  8
0
  5
463
 10
2.57556
 20
-5.84277
 30
0.000000
  70
    32
  0
VERTEX
  8
0
  5
464
 10
2.57393
 20
-5.84435
 30
0.000000
  70
    32
  0
VERTEX
  8
0
  5
465
 10
2.57231
 20
-5.84595
 30
0.000000
  70
    32
  0
VERTEX
  8
0
  5
466
 10
2.57068
 20
-5.84755
 30
0.000000
  70
    32
  0
VERTEX
  8
0
  5
467
 10
2.56904
 20
-5.84916
 30
0.000000
  70
    32
  0
VERTEX
  8
0
  5
468
 10
2.56739
 20
-5.85079
 30
0.000000
  70
    32
  0
VERTEX
  8
0
  5
469
 10
2.56574
 20
-5.85242
 30
0.000000
  70
    32
  0
VERTEX
  8
0
  5
46A
 10
2.56408
 20
-5.85407
 30
0.000000
  70
    32
  0
VERTEX
  8
0
  5
46B
 10
2.56242
 20
-5.85572
 30
0.000000
  70
    32
  0
VERTEX
  8
0
  5
46C
 10
2.56075
 20
-5.85738
 30
0.000000
  70
    32
  0
VERTEX
  8
0
  5
46D
 10
2.55907
 20
-5.85906
 30
0.000000
  70
    32
  0
VERTEX
  8
0
  5
46E
 10
2.55738
 20
-5.86074
 30
0.000000
  70
    32
  0
SEQEND
  8
0
  5
46F
  0
POLYLINE
  8
0
  5
470
  66
     1
 10
0.000000
 20
0.000000
 30
0.000000
  70
     8
  0
VERTEX
  8
0
  5
471
 10
2.77049
 20
-5.70075
 30
0.000000
  70
    32
  0
VERTEX
  8
0
  5
472
 10
2.78285
 20
-5.69836
 30
0.000000
  70
    32
  0
VERTEX
  8
0
  5
473
 10
2.79516
 20
-5.69585
 30
0.000000
  70
    32
  0
VERTEX
  8
0
  5
474
 10
2.80742
 20
-5.69321
 30
0.000000
  70
    32
  0
VERTEX
  8
0
  5
475
 10
2.81963
 20
-5.69046
 30
0.000000
  70
    32
  0
VERTEX
  8
0
  5
476
 10
2.83178
 20
-5.68757
 30
0.000000
  70
    32
  0
VERTEX
  8
0
  5
477
 10
2.84389
 20
-5.68457
 30
0.000000
  70
    32
  0
VERTEX
  8
0
  5
478
 10
2.85595
 20
-5.68145
 30
0.000000
  70
    32
  0
VERTEX
  8
0
  5
479
 10
2.86795
 20
-5.67820
 30
0.000000
  70
    32
  0
VERTEX
  8
0
  5
47A
 10
2.87990
 20
-5.67484
 30
0.000000
  70
    32
  0
VERTEX
  8
0
  5
47B
 10
2.89180
 20
-5.67136
 30
0.000000
  70
    32
  0
VERTEX
  8
0
  5
47C
 10
2.90364
 20
-5.66775
 30
0.000000
  70
    32
  0
VERTEX
  8
0
  5
47D
 10
2.91542
 20
-5.66404
 30
0.000000
  70
    32
  0
VERTEX
  8
0
  5
47E
 10
2.92715
 20
-5.66020
 30
0.000000
  70
    32
  0
VERTEX
  8
0
  5
47F
 10
2.93883
 20
-5.65625
 30
0.000000
  70
    32
  0
VERTEX
  8
0
  5
480
 10
2.95044
 20
-5.65218
 30
0.000000
  70
    32
  0
VERTEX
  8
0
  5
481
 10
2.96200
 20
-5.64800
 30
0.000000
  70
    32
  0
VERTEX
  8
0
  5
482
 10
2.97350
 20
-5.64370
 30
0.000000
  70
    32
  0
VERTEX
  8
0
  5
483
 10
2.98494
 20
-5.63930
 30
0.000000
  70
    32
  0
VERTEX
  8
0
  5
484
 10
2.99632
 20
-5.63477
 30
0.000000
  70
    32
  0
VERTEX
  8
0
  5
485
 10
3.00765
 20
-5.63014
 30
0.000000
  70
    32
  0
VERTEX
  8
0
  5
486
 10
3.01891
 20
-5.62540
 30
0.000000
  70
    32
  0
VERTEX
  8
0
  5
487
 10
3.03010
 20
-5.62054
 30
0.000000
  70
    32
  0
VERTEX
  8
0
  5
488
 10
3.04124
 20
-5.61558
 30
0.000000
  70
    32
  0
VERTEX
  8
0
  5
489
 10
3.05231
 20
-5.61050
 30
0.000000
  70
    32
  0
VERTEX
  8
0
  5
48A
 10
3.06332
 20
-5.60532
 30
0.000000
  70
    32
  0
VERTEX
  8
0
  5
48B
 10
3.07427
 20
-5.60003
 30
0.000000
  70
    32
  0
VERTEX
  8
0
  5
48C
 10
3.08515
 20
-5.59464
 30
0.000000
  70
    32
  0
VERTEX
  8
0
  5
48D
 10
3.09596
 20
-5.58913
 30
0.000000
  70
    32
  0
VERTEX
  8
0
  5
48E
 10
3.10671
 20
-5.58352
 30
0.000000
  70
    32
  0
VERTEX
  8
0
  5
48F
 10
3.11740
 20
-5.57781
 30
0.000000
  70
    32
  0
VERTEX
  8
0
  5
490
 10
3.12801
 20
-5.57199
 30
0.000000
  70
    32
  0
VERTEX
  8
0
  5
491
 10
3.13856
 20
-5.56607
 30
0.000000
  70
    32
  0
VERTEX
  8
0
  5
492
 10
3.14904
 20
-5.56005
 30
0.000000
  70
    32
  0
VERTEX
  8
0
  5
493
 10
3.15944
 20
-5.55392
 30
0.000000
  70
    32
  0
VERTEX
  8
0
  5
494
 10
3.16978
 20
-5.54770
 30
0.000000
  70
    32
  0
VERTEX
  8
0
  5
495
 10
3.18005
 20
-5.54137
 30
0.000000
  70
    32
  0
VERTEX
  8
0
  5
496
 10
3.19025
 20
-5.53494
 30
0.000000
  70
    32
  0
VERTEX
  8
0
  5
497
 10
3.20037
 20
-5.52842
 30
0.000000
  70
    32
  0
VERTEX
  8
0
  5
498
 10
3.21043
 20
-5.52179
 30
0.000000
  70
    32
  0
VERTEX
  8
0
  5
499
 10
3.22041
 20
-5.51507
 30
0.000000
  70
    32
  0
VERTEX
  8
0
  5
49A
 10
3.23031
 20
-5.50825
 30
0.000000
  70
    32
  0
VERTEX
  8
0
  5
49B
 10
3.24015
 20
-5.50133
 30
0.000000
  70
    32
  0
VERTEX
  8
0
  5
49C
 10
3.24990
 20
-5.49432
 30
0.000000
  70
    32
  0
VERTEX
  8
0
  5
49D
 10
3.25958
 20
-5.48721
 30
0.000000
  70
    32
  0
VERTEX
  8
0
  5
49E
 10
3.26919
 20
-5.48001
 30
0.000000
  70
    32
  0
VERTEX
  8
0
  5
49F
 10
3.27872
 20
-5.47272
 30
0.000000
  70
    32
  0
VERTEX
  8
0
  5
4A0
 10
3.28817
 20
-5.46533
 30
0.000000
  70
    32
  0
VERTEX
  8
0
  5
4A1
 10
3.29754
 20
-5.45785
 30
0.000000
  70
    32
  0
VERTEX
  8
0
  5
4A2
 10
3.30683
 20
-5.45028
 30
0.000000
  70
    32
  0
VERTEX
  8
0
  5
4A3
 10
3.31604
 20
-5.44262
 30
0.000000
  70
    32
  0
VERTEX
  8
0
  5
4A4
 10
3.32518
 20
-5.43487
 30
0.000000
  70
    32
  0
VERTEX
  8
0
  5
4A5
 10
3.33423
 20
-5.42703
 30
0.000000
  70
    32
  0
VERTEX
  8
0
  5
4A6
 10
3.34320
 20
-5.41910
 30
0.000000
  70
    32
  0
VERTEX
  8
0
  5
4A7
 10
3.35209
 20
-5.41108
 30
0.000000
  70
    32
  0
VERTEX
  8
0
  5
4A8
 10
3.36090
 20
-5.40297
 30
0.000000
  70
    32
  0
VERTEX
  8
0
  5
4A9
 10
3.36962
 20
-5.39478
 30
0.000000
  70
    32
  0
VERTEX
  8
0
  5
4AA
 10
3.37826
 20
-5.38650
 30
0.000000
  70
    32
  0
VERTEX
  8
0
  5
4AB
 10
3.38682
 20
-5.37814
 30
0.000000
  70
    32
  0
VERTEX
  8
0
  5
4AC
 10
3.39528
 20
-5.36970
 30
0.000000
  70
    32
  0
VERTEX
  8
0
  5
4AD
 10
3.40367
 20
-5.36117
 30
0.000000
  70
    32
  0
VERTEX
  8
0
  5
4AE
 10
3.41197
 20
-5.35255
 30
0.000000
  70
    32
  0
VERTEX
  8
0
  5
4AF
 10
3.42017
 20
-5.34386
 30
0.000000
  70
    32
  0
VERTEX
  8
0
  5
4B0
 10
3.42830
 20
-5.33508
 30
0.000000
  70
    32
  0
VERTEX
  8
0
  5
4B1
 10
3.43633
 20
-5.32622
 30
0.000000
  70
    32
  0
VERTEX
  8
0
  5
4B2
 10
3.44428
 20
-5.31728
 30
0.000000
  70
    32
  0
VERTEX
  8
0
  5
4B3
 10
3.45213
 20
-5.30826
 30
0.000000
  70
    32
  0
VERTEX
  8
0
  5
4B4
 10
3.45989
 20
-5.29917
 30
0.000000
  70
    32
  0
VERTEX
  8
0
  5
4B5
 10
3.46757
 20
-5.28999
 30
0.000000
  70
    32
  0
VERTEX
  8
0
  5
4B6
 10
3.47515
 20
-5.28074
 30
0.000000
  70
    32
  0
VERTEX
  8
0
  5
4B7
 10
3.48264
 20
-5.27141
 30
0.000000
  70
    32
  0
VERTEX
  8
0
  5
4B8
 10
3.49004
 20
-5.26201
 30
0.000000
  70
    32
  0
VERTEX
  8
0
  5
4B9
 10
3.49734
 20
-5.25253
 30
0.000000
  70
    32
  0
VERTEX
  8
0
  5
4BA
 10
3.50455
 20
-5.24297
 30
0.000000
  70
    32
  0
VERTEX
  8
0
  5
4BB
 10
3.51166
 20
-5.23335
 30
0.000000
  70
    32
  0
VERTEX
  8
0
  5
4BC
 10
3.51868
 20
-5.22365
 30
0.000000
  70
    32
  0
VERTEX
  8
0
  5
4BD
 10
3.52560
 20
-5.21387
 30
0.000000
  70
    32
  0
VERTEX
  8
0
  5
4BE
 10
3.53243
 20
-5.20403
 30
0.000000
  70
    32
  0
VERTEX
  8
0
  5
4BF
 10
3.53916
 20
-5.19411
 30
0.000000
  70
    32
  0
VERTEX
  8
0
  5
4C0
 10
3.54579
 20
-5.18412
 30
0.000000
  70
    32
  0
VERTEX
  8
0
  5
4C1
 10
3.55232
 20
-5.17407
 30
0.000000
  70
    32
  0
VERTEX
  8
0
  5
4C2
 10
3.55875
 20
-5.16394
 30
0.000000
  70
    32
  0
VERTEX
  8
0
  5
4C3
 10
3.56509
 20
-5.15375
 30
0.000000
  70
    32
  0
VERTEX
  8
0
  5
4C4
 10
3.57132
 20
-5.14349
 30
0.000000
  70
    32
  0
VERTEX
  8
0
  5
4C5
 10
3.57745
 20
-5.13316
 30
0.000000
  70
    32
  0
VERTEX
  8
0
  5
4C6
 10
3.58348
 20
-5.12276
 30
0.000000
  70
    32
  0
VERTEX
  8
0
  5
4C7
 10
3.58941
 20
-5.11231
 30
0.000000
  70
    32
  0
VERTEX
  8
0
  5
4C8
 10
3.59523
 20
-5.10178
 30
0.000000
  70
    32
  0
VERTEX
  8
0
  5
4C9
 10
3.60095
 20
-5.09119
 30
0.000000
  70
    32
  0
VERTEX
  8
0
  5
4CA
 10
3.60656
 20
-5.08054
 30
0.000000
  70
    32
  0
VERTEX
  8
0
  5
4CB
 10
3.61207
 20
-5.06983
 30
0.000000
  70
    32
  0
VERTEX
  8
0
  5
4CC
 10
3.61748
 20
-5.05905
 30
0.000000
  70
    32
  0
VERTEX
  8
0
  5
4CD
 10
3.62278
 20
-5.04822
 30
0.000000
  70
    32
  0
VERTEX
  8
0
  5
4CE
 10
3.62797
 20
-5.03732
 30
0.000000
  70
    32
  0
VERTEX
  8
0
  5
4CF
 10
3.63305
 20
-5.02636
 30
0.000000
  70
    32
  0
VERTEX
  8
0
  5
4D0
 10
3.63803
 20
-5.01535
 30
0.000000
  70
    32
  0
VERTEX
  8
0
  5
4D1
 10
3.64290
 20
-5.00427
 30
0.000000
  70
    32
  0
VERTEX
  8
0
  5
4D2
 10
3.64765
 20
-4.99314
 30
0.000000
  70
    32
  0
VERTEX
  8
0
  5
4D3
 10
3.65230
 20
-4.98195
 30
0.000000
  70
    32
  0
VERTEX
  8
0
  5
4D4
 10
3.65684
 20
-4.97071
 30
0.000000
  70
    32
  0
VERTEX
  8
0
  5
4D5
 10
3.66126
 20
-4.95940
 30
0.000000
  70
    32
  0
VERTEX
  8
0
  5
4D6
 10
3.66557
 20
-4.94805
 30
0.000000
  70
    32
  0
VERTEX
  8
0
  5
4D7
 10
3.66978
 20
-4.93664
 30
0.000000
  70
    32
  0
VERTEX
  8
0
  5
4D8
 10
3.67386
 20
-4.92518
 30
0.000000
  70
    32
  0
VERTEX
  8
0
  5
4D9
 10
3.67784
 20
-4.91366
 30
0.000000
  70
    32
  0
VERTEX
  8
0
  5
4DA
 10
3.68169
 20
-4.90209
 30
0.000000
  70
    32
  0
VERTEX
  8
0
  5
4DB
 10
3.68544
 20
-4.89047
 30
0.000000
  70
    32
  0
VERTEX
  8
0
  5
4DC
 10
3.68906
 20
-4.87880
 30
0.000000
  70
    32
  0
VERTEX
  8
0
  5
4DD
 10
3.69257
 20
-4.86708
 30
0.000000
  70
    32
  0
VERTEX
  8
0
  5
4DE
 10
3.69597
 20
-4.85532
 30
0.000000
  70
    32
  0
VERTEX
  8
0
  5
4DF
 10
3.69924
 20
-4.84350
 30
0.000000
  70
    32
  0
VERTEX
  8
0
  5
4E0
 10
3.70240
 20
-4.83163
 30
0.000000
  70
    32
  0
VERTEX
  8
0
  5
4E1
 10
3.70544
 20
-4.81972
 30
0.000000
  70
    32
  0
VERTEX
  8
0
  5
4E2
 10
3.70836
 20
-4.80776
 30
0.000000
  70
    32
  0
VERTEX
  8
0
  5
4E3
 10
3.71116
 20
-4.79576
 30
0.000000
  70
    32
  0
VERTEX
  8
0
  5
4E4
 10
3.71383
 20
-4.78371
 30
0.000000
  70
    32
  0
VERTEX
  8
0
  5
4E5
 10
3.71639
 20
-4.77162
 30
0.000000
  70
    32
  0
VERTEX
  8
0
  5
4E6
 10
3.71882
 20
-4.75948
 30
0.000000
  70
    32
  0
VERTEX
  8
0
  5
4E7
 10
3.72113
 20
-4.74730
 30
0.000000
  70
    32
  0
VERTEX
  8
0
  5
4E8
 10
3.72332
 20
-4.73508
 30
0.000000
  70
    32
  0
VERTEX
  8
0
  5
4E9
 10
3.72538
 20
-4.72281
 30
0.000000
  70
    32
  0
VERTEX
  8
0
  5
4EA
 10
3.72732
 20
-4.71051
 30
0.000000
  70
    32
  0
VERTEX
  8
0
  5
4EB
 10
3.72913
 20
-4.69817
 30
0.000000
  70
    32
  0
VERTEX
  8
0
  5
4EC
 10
3.73082
 20
-4.68578
 30
0.000000
  70
    32
  0
VERTEX
  8
0
  5
4ED
 10
3.73238
 20
-4.67336
 30
0.000000
  70
    32
  0
VERTEX
  8
0
  5
4EE
 10
3.73381
 20
-4.66090
 30
0.000000
  70
    32
  0
VERTEX
  8
0
  5
4EF
 10
3.73512
 20
-4.64840
 30
0.000000
  70
    32
  0
VERTEX
  8
0
  5
4F0
 10
3.73629
 20
-4.63587
 30
0.000000
  70
    32
  0
SEQEND
  8
0
  5
4F1
  0
POLYLINE
  8
0
  5
4F2
  66
     1
 10
0.000000
 20
0.000000
 30
0.000000
  70
     8
  0
VERTEX
  8
0
  5
4F3
 10
-8.52457
 20
1.06553
 30
0.000000
  70
    32
  0
VERTEX
  8
0
  5
4F4
 10
-8.52287
 20
1.06525
 30
0.000000
  70
    32
  0
VERTEX
  8
0
  5
4F5
 10
-8.52120
 20
1.06499
 30
0.000000
  70
    32
  0
VERTEX
  8
0
  5
4F6
 10
-8.51955
 20
1.06477
 30
0.000000
  70
    32
  0
VERTEX
  8
0
  5
4F7
 10
-8.51792
 20
1.06457
 30
0.000000
  70
    32
  0
VERTEX
  8
0
  5
4F8
 10
-8.51632
 20
1.06439
 30
0.000000
  70
    32
  0
VERTEX
  8
0
  5
4F9
 10
-8.51474
 20
1.06425
 30
0.000000
  70
    32
  0
VERTEX
  8
0
  5
4FA
 10
-8.51319
 20
1.06413
 30
0.000000
  70
    32
  0
VERTEX
  8
0
  5
4FB
 10
-8.51165
 20
1.06404
 30
0.000000
  70
    32
  0
VERTEX
  8
0
  5
4FC
 10
-8.51014
 20
1.06397
 30
0.000000
  70
    32
  0
VERTEX
  8
0
  5
4FD
 10
-8.50866
 20
1.06393
 30
0.000000
  70
    32
  0
VERTEX
  8
0
  5
4FE
 10
-8.50719
 20
1.06392
 30
0.000000
  70
    32
  0
VERTEX
  8
0
  5
4FF
 10
-8.50575
 20
1.06393
 30
0.000000
  70
    32
  0
VERTEX
  8
0
  5
500
 10
-8.50432
 20
1.06397
 30
0.000000
  70
    32
  0
VERTEX
  8
0
  5
501
 10
-8.50292
 20
1.06403
 30
0.000000
  70
    32
  0
VERTEX
  8
0
  5
502
 10
-8.50154
 20
1.06412
 30
0.000000
  70
    32
  0
VERTEX
  8
0
  5
503
 10
-8.50018
 20
1.06423
 30
0.000000
  70
    32
  0
VERTEX
  8
0
  5
504
 10
-8.49885
 20
1.06437
 30
0.000000
  70
    32
  0
VERTEX
  8
0
  5
505
 10
-8.49753
 20
1.06453
 30
0.000000
  70
    32
  0
VERTEX
  8
0
  5
506
 10
-8.49623
 20
1.06472
 30
0.000000
  70
    32
  0
VERTEX
  8
0
  5
507
 10
-8.49495
 20
1.06492
 30
0.000000
  70
    32
  0
VERTEX
  8
0
  5
508
 10
-8.49369
 20
1.06516
 30
0.000000
  70
    32
  0
VERTEX
  8
0
  5
509
 10
-8.49245
 20
1.06541
 30
0.000000
  70
    32
  0
VERTEX
  8
0
  5
50A
 10
-8.49123
 20
1.06569
 30
0.000000
  70
    32
  0
VERTEX
  8
0
  5
50B
 10
-8.49003
 20
1.06599
 30
0.000000
  70
    32
  0
VERTEX
  8
0
  5
50C
 10
-8.48885
 20
1.06631
 30
0.000000
  70
    32
  0
VERTEX
  8
0
  5
50D
 10
-8.48768
 20
1.06666
 30
0.000000
  70
    32
  0
VERTEX
  8
0
  5
50E
 10
-8.48654
 20
1.06702
 30
0.000000
  70
    32
  0
VERTEX
  8
0
  5
50F
 10
-8.48541
 20
1.06741
 30
0.000000
  70
    32
  0
VERTEX
  8
0
  5
510
 10
-8.48429
 20
1.06782
 30
0.000000
  70
    32
  0
VERTEX
  8
0
  5
511
 10
-8.48320
 20
1.06825
 30
0.000000
  70
    32
  0
VERTEX
  8
0
  5
512
 10
-8.48212
 20
1.06870
 30
0.000000
  70
    32
  0
VERTEX
  8
0
  5
513
 10
-8.48106
 20
1.06918
 30
0.000000
  70
    32
  0
VERTEX
  8
0
  5
514
 10
-8.48002
 20
1.06967
 30
0.000000
  70
    32
  0
VERTEX
  8
0
  5
515
 10
-8.47899
 20
1.07018
 30
0.000000
  70
    32
  0
VERTEX
  8
0
  5
516
 10
-8.47798
 20
1.07072
 30
0.000000
  70
    32
  0
VERTEX
  8
0
  5
517
 10
-8.47698
 20
1.07127
 30
0.000000
  70
    32
  0
VERTEX
  8
0
  5
518
 10
-8.47600
 20
1.07184
 30
0.000000
  70
    32
  0
VERTEX
  8
0
  5
519
 10
-8.47503
 20
1.07243
 30
0.000000
  70
    32
  0
VERTEX
  8
0
  5
51A
 10
-8.47408
 20
1.07304
 30
0.000000
  70
    32
  0
VERTEX
  8
0
  5
51B
 10
-8.47314
 20
1.07367
 30
0.000000
  70
    32
  0
VERTEX
  8
0
  5
51C
 10
-8.47222
 20
1.07432
 30
0.000000
  70
    32
  0
VERTEX
  8
0
  5
51D
 10
-8.47131
 20
1.07499
 30
0.000000
  70
    32
  0
VERTEX
  8
0
  5
51E
 10
-8.47042
 20
1.07567
 30
0.000000
  70
    32
  0
VERTEX
  8
0
  5
51F
 10
-8.46954
 20
1.07637
 30
0.000000
  70
    32
  0
VERTEX
  8
0
  5
520
 10
-8.46867
 20
1.07709
 30
0.000000
  70
    32
  0
VERTEX
  8
0
  5
521
 10
-8.46782
 20
1.07783
 30
0.000000
  70
    32
  0
VERTEX
  8
0
  5
522
 10
-8.46697
 20
1.07858
 30
0.000000
  70
    32
  0
VERTEX
  8
0
  5
523
 10
-8.46614
 20
1.07935
 30
0.000000
  70
    32
  0
VERTEX
  8
0
  5
524
 10
-8.46533
 20
1.08014
 30
0.000000
  70
    32
  0
VERTEX
  8
0
  5
525
 10
-8.46452
 20
1.08094
 30
0.000000
  70
    32
  0
VERTEX
  8
0
  5
526
 10
-8.46373
 20
1.08176
 30
0.000000
  70
    32
  0
VERTEX
  8
0
  5
527
 10
-8.46295
 20
1.08260
 30
0.000000
  70
    32
  0
VERTEX
  8
0
  5
528
 10
-8.46218
 20
1.08345
 30
0.000000
  70
    32
  0
VERTEX
  8
0
  5
529
 10
-8.46142
 20
1.08431
 30
0.000000
  70
    32
  0
VERTEX
  8
0
  5
52A
 10
-8.46067
 20
1.08519
 30
0.000000
  70
    32
  0
VERTEX
  8
0
  5
52B
 10
-8.45993
 20
1.08609
 30
0.000000
  70
    32
  0
VERTEX
  8
0
  5
52C
 10
-8.45921
 20
1.08700
 30
0.000000
  70
    32
  0
VERTEX
  8
0
  5
52D
 10
-8.45849
 20
1.08792
 30
0.000000
  70
    32
  0
VERTEX
  8
0
  5
52E
 10
-8.45778
 20
1.08886
 30
0.000000
  70
    32
  0
VERTEX
  8
0
  5
52F
 10
-8.45708
 20
1.08981
 30
0.000000
  70
    32
  0
VERTEX
  8
0
  5
530
 10
-8.45639
 20
1.09078
 30
0.000000
  70
    32
  0
VERTEX
  8
0
  5
531
 10
-8.45571
 20
1.09176
 30
0.000000
  70
    32
  0
VERTEX
  8
0
  5
532
 10
-8.45504
 20
1.09275
 30
0.000000
  70
    32
  0
VERTEX
  8
0
  5
533
 10
-8.45438
 20
1.09376
 30
0.000000
  70
    32
  0
VERTEX
  8
0
  5
534
 10
-8.45372
 20
1.09477
 30
0.000000
  70
    32
  0
VERTEX
  8
0
  5
535
 10
-8.45307
 20
1.09580
 30
0.000000
  70
    32
  0
VERTEX
  8
0
  5
536
 10
-8.45244
 20
1.09685
 30
0.000000
  70
    32
  0
VERTEX
  8
0
  5
537
 10
-8.45180
 20
1.09790
 30
0.000000
  70
    32
  0
VERTEX
  8
0
  5
538
 10
-8.45118
 20
1.09897
 30
0.000000
  70
    32
  0
VERTEX
  8
0
  5
539
 10
-8.45056
 20
1.10004
 30
0.000000
  70
    32
  0
VERTEX
  8
0
  5
53A
 10
-8.44995
 20
1.10113
 30
0.000000
  70
    32
  0
VERTEX
  8
0
  5
53B
 10
-8.44934
 20
1.10223
 30
0.000000
  70
    32
  0
VERTEX
  8
0
  5
53C
 10
-8.44875
 20
1.10334
 30
0.000000
  70
    32
  0
VERTEX
  8
0
  5
53D
 10
-8.44815
 20
1.10446
 30
0.000000
  70
    32
  0
VERTEX
  8
0
  5
53E
 10
-8.44756
 20
1.10559
 30
0.000000
  70
    32
  0
VERTEX
  8
0
  5
53F
 10
-8.44698
 20
1.10673
 30
0.000000
  70
    32
  0
VERTEX
  8
0
  5
540
 10
-8.44641
 20
1.10788
 30
0.000000
  70
    32
  0
VERTEX
  8
0
  5
541
 10
-8.44583
 20
1.10904
 30
0.000000
  70
    32
  0
VERTEX
  8
0
  5
542
 10
-8.44527
 20
1.11020
 30
0.000000
  70
    32
  0
VERTEX
  8
0
  5
543
 10
-8.44470
 20
1.11138
 30
0.000000
  70
    32
  0
VERTEX
  8
0
  5
544
 10
-8.44414
 20
1.11257
 30
0.000000
  70
    32
  0
VERTEX
  8
0
  5
545
 10
-8.44359
 20
1.11376
 30
0.000000
  70
    32
  0
VERTEX
  8
0
  5
546
 10
-8.44304
 20
1.11496
 30
0.000000
  70
    32
  0
VERTEX
  8
0
  5
547
 10
-8.44249
 20
1.11617
 30
0.000000
  70
    32
  0
VERTEX
  8
0
  5
548
 10
-8.44194
 20
1.11739
 30
0.000000
  70
    32
  0
VERTEX
  8
0
  5
549
 10
-8.44140
 20
1.11861
 30
0.000000
  70
    32
  0
VERTEX
  8
0
  5
54A
 10
-8.44086
 20
1.11985
 30
0.000000
  70
    32
  0
VERTEX
  8
0
  5
54B
 10
-8.44032
 20
1.12109
 30
0.000000
  70
    32
  0
VERTEX
  8
0
  5
54C
 10
-8.43978
 20
1.12233
 30
0.000000
  70
    32
  0
VERTEX
  8
0
  5
54D
 10
-8.43925
 20
1.12358
 30
0.000000
  70
    32
  0
VERTEX
  8
0
  5
54E
 10
-8.43872
 20
1.12484
 30
0.000000
  70
    32
  0
VERTEX
  8
0
  5
54F
 10
-8.43819
 20
1.12611
 30
0.000000
  70
    32
  0
VERTEX
  8
0
  5
550
 10
-8.43765
 20
1.12738
 30
0.000000
  70
    32
  0
VERTEX
  8
0
  5
551
 10
-8.43712
 20
1.12865
 30
0.000000
  70
    32
  0
VERTEX
  8
0
  5
552
 10
-8.43660
 20
1.12993
 30
0.000000
  70
    32
  0
VERTEX
  8
0
  5
553
 10
-8.43607
 20
1.13122
 30
0.000000
  70
    32
  0
VERTEX
  8
0
  5
554
 10
-8.43554
 20
1.13251
 30
0.000000
  70
    32
  0
VERTEX
  8
0
  5
555
 10
-8.43501
 20
1.13380
 30
0.000000
  70
    32
  0
VERTEX
  8
0
  5
556
 10
-8.43448
 20
1.13510
 30
0.000000
  70
    32
  0
VERTEX
  8
0
  5
557
 10
-8.43395
 20
1.13640
 30
0.000000
  70
    32
  0
VERTEX
  8
0
  5
558
 10
-8.43341
 20
1.13771
 30
0.000000
  70
    32
  0
VERTEX
  8
0
  5
559
 10
-8.43288
 20
1.13902
 30
0.000000
  70
    32
  0
VERTEX
  8
0
  5
55A
 10
-8.43234
 20
1.14034
 30
0.000000
  70
    32
  0
VERTEX
  8
0
  5
55B
 10
-8.43181
 20
1.14165
 30
0.000000
  70
    32
  0
VERTEX
  8
0
  5
55C
 10
-8.43127
 20
1.14297
 30
0.000000
  70
    32
  0
VERTEX
  8
0
  5
55D
 10
-8.43073
 20
1.14429
 30
0.000000
  70
    32
  0
VERTEX
  8
0
  5
55E
 10
-8.43018
 20
1.14562
 30
0.000000
  70
    32
  0
VERTEX
  8
0
  5
55F
 10
-8.42963
 20
1.14694
 30
0.000000
  70
    32
  0
VERTEX
  8
0
  5
560
 10
-8.42908
 20
1.14827
 30
0.000000
  70
    32
  0
VERTEX
  8
0
  5
561
 10
-8.42853
 20
1.14960
 30
0.000000
  70
    32
  0
VERTEX
  8
0
  5
562
 10
-8.42797
 20
1.15093
 30
0.000000
  70
    32
  0
VERTEX
  8
0
  5
563
 10
-8.42741
 20
1.15226
 30
0.000000
  70
    32
  0
VERTEX
  8
0
  5
564
 10
-8.42685
 20
1.15359
 30
0.000000
  70
    32
  0
VERTEX
  8
0
  5
565
 10
-8.42628
 20
1.15493
 30
0.000000
  70
    32
  0
VERTEX
  8
0
  5
566
 10
-8.42570
 20
1.15626
 30
0.000000
  70
    32
  0
VERTEX
  8
0
  5
567
 10
-8.42512
 20
1.15759
 30
0.000000
  70
    32
  0
VERTEX
  8
0
  5
568
 10
-8.42454
 20
1.15893
 30
0.000000
  70
    32
  0
VERTEX
  8
0
  5
569
 10
-8.42394
 20
1.16026
 30
0.000000
  70
    32
  0
VERTEX
  8
0
  5
56A
 10
-8.42335
 20
1.16159
 30
0.000000
  70
    32
  0
VERTEX
  8
0
  5
56B
 10
-8.42275
 20
1.16292
 30
0.000000
  70
    32
  0
VERTEX
  8
0
  5
56C
 10
-8.42214
 20
1.16425
 30
0.000000
  70
    32
  0
VERTEX
  8
0
  5
56D
 10
-8.42152
 20
1.16558
 30
0.000000
  70
    32
  0
VERTEX
  8
0
  5
56E
 10
-8.42090
 20
1.16691
 30
0.000000
  70
    32
  0
VERTEX
  8
0
  5
56F
 10
-8.42027
 20
1.16823
 30
0.000000
  70
    32
  0
VERTEX
  8
0
  5
570
 10
-8.41964
 20
1.16955
 30
0.000000
  70
    32
  0
VERTEX
  8
0
  5
571
 10
-8.41899
 20
1.17087
 30
0.000000
  70
    32
  0
VERTEX
  8
0
  5
572
 10
-8.41834
 20
1.17219
 30
0.000000
  70
    32
  0
SEQEND
  8
0
  5
573
  0
POLYLINE
  8
0
  5
574
  66
     1
 10
0.000000
 20
0.000000
 30
0.000000
  70
     8
  0
VERTEX
  8
0
  5
575
 10
-8.36479
 20
1.27864
 30
0.000000
  70
    32
  0
VERTEX
  8
0
  5
576
 10
-8.36572
 20
1.27808
 30
0.000000
  70
    32
  0
VERTEX
  8
0
  5
577
 10
-8.36665
 20
1.27751
 30
0.000000
  70
    32
  0
VERTEX
  8
0
  5
578
 10
-8.36756
 20
1.27694
 30
0.000000
  70
    32
  0
VERTEX
  8
0
  5
579
 10
-8.36847
 20
1.27636
 30
0.000000
  70
    32
  0
VERTEX
  8
0
  5
57A
 10
-8.36938
 20
1.27578
 30
0.000000
  70
    32
  0
VERTEX
  8
0
  5
57B
 10
-8.37028
 20
1.27520
 30
0.000000
  70
    32
  0
VERTEX
  8
0
  5
57C
 10
-8.37117
 20
1.27460
 30
0.000000
  70
    32
  0
VERTEX
  8
0
  5
57D
 10
-8.37206
 20
1.27401
 30
0.000000
  70
    32
  0
VERTEX
  8
0
  5
57E
 10
-8.37294
 20
1.27341
 30
0.000000
  70
    32
  0
VERTEX
  8
0
  5
57F
 10
-8.37381
 20
1.27280
 30
0.000000
  70
    32
  0
VERTEX
  8
0
  5
580
 10
-8.37468
 20
1.27219
 30
0.000000
  70
    32
  0
VERTEX
  8
0
  5
581
 10
-8.37554
 20
1.27157
 30
0.000000
  70
    32
  0
VERTEX
  8
0
  5
582
 10
-8.37639
 20
1.27095
 30
0.000000
  70
    32
  0
VERTEX
  8
0
  5
583
 10
-8.37724
 20
1.27032
 30
0.000000
  70
    32
  0
VERTEX
  8
0
  5
584
 10
-8.37808
 20
1.26969
 30
0.000000
  70
    32
  0
VERTEX
  8
0
  5
585
 10
-8.37892
 20
1.26906
 30
0.000000
  70
    32
  0
VERTEX
  8
0
  5
586
 10
-8.37975
 20
1.26842
 30
0.000000
  70
    32
  0
VERTEX
  8
0
  5
587
 10
-8.38057
 20
1.26777
 30
0.000000
  70
    32
  0
VERTEX
  8
0
  5
588
 10
-8.38138
 20
1.26712
 30
0.000000
  70
    32
  0
VERTEX
  8
0
  5
589
 10
-8.38219
 20
1.26646
 30
0.000000
  70
    32
  0
VERTEX
  8
0
  5
58A
 10
-8.38299
 20
1.26580
 30
0.000000
  70
    32
  0
VERTEX
  8
0
  5
58B
 10
-8.38378
 20
1.26514
 30
0.000000
  70
    32
  0
VERTEX
  8
0
  5
58C
 10
-8.38457
 20
1.26447
 30
0.000000
  70
    32
  0
VERTEX
  8
0
  5
58D
 10
-8.38535
 20
1.26379
 30
0.000000
  70
    32
  0
VERTEX
  8
0
  5
58E
 10
-8.38612
 20
1.26311
 30
0.000000
  70
    32
  0
VERTEX
  8
0
  5
58F
 10
-8.38689
 20
1.26243
 30
0.000000
  70
    32
  0
VERTEX
  8
0
  5
590
 10
-8.38765
 20
1.26174
 30
0.000000
  70
    32
  0
VERTEX
  8
0
  5
591
 10
-8.38840
 20
1.26105
 30
0.000000
  70
    32
  0
VERTEX
  8
0
  5
592
 10
-8.38914
 20
1.26035
 30
0.000000
  70
    32
  0
VERTEX
  8
0
  5
593
 10
-8.38988
 20
1.25965
 30
0.000000
  70
    32
  0
VERTEX
  8
0
  5
594
 10
-8.39061
 20
1.25894
 30
0.000000
  70
    32
  0
VERTEX
  8
0
  5
595
 10
-8.39133
 20
1.25823
 30
0.000000
  70
    32
  0
VERTEX
  8
0
  5
596
 10
-8.39204
 20
1.25751
 30
0.000000
  70
    32
  0
VERTEX
  8
0
  5
597
 10
-8.39275
 20
1.25679
 30
0.000000
  70
    32
  0
VERTEX
  8
0
  5
598
 10
-8.39345
 20
1.25607
 30
0.000000
  70
    32
  0
VERTEX
  8
0
  5
599
 10
-8.39414
 20
1.25534
 30
0.000000
  70
    32
  0
VERTEX
  8
0
  5
59A
 10
-8.39482
 20
1.25460
 30
0.000000
  70
    32
  0
VERTEX
  8
0
  5
59B
 10
-8.39550
 20
1.25386
 30
0.000000
  70
    32
  0
VERTEX
  8
0
  5
59C
 10
-8.39616
 20
1.25312
 30
0.000000
  70
    32
  0
VERTEX
  8
0
  5
59D
 10
-8.39682
 20
1.25237
 30
0.000000
  70
    32
  0
VERTEX
  8
0
  5
59E
 10
-8.39747
 20
1.25162
 30
0.000000
  70
    32
  0
VERTEX
  8
0
  5
59F
 10
-8.39812
 20
1.25086
 30
0.000000
  70
    32
  0
VERTEX
  8
0
  5
5A0
 10
-8.39875
 20
1.25010
 30
0.000000
  70
    32
  0
VERTEX
  8
0
  5
5A1
 10
-8.39938
 20
1.24933
 30
0.000000
  70
    32
  0
VERTEX
  8
0
  5
5A2
 10
-8.40000
 20
1.24856
 30
0.000000
  70
    32
  0
VERTEX
  8
0
  5
5A3
 10
-8.40061
 20
1.24779
 30
0.000000
  70
    32
  0
VERTEX
  8
0
  5
5A4
 10
-8.40122
 20
1.24701
 30
0.000000
  70
    32
  0
VERTEX
  8
0
  5
5A5
 10
-8.40181
 20
1.24622
 30
0.000000
  70
    32
  0
VERTEX
  8
0
  5
5A6
 10
-8.40240
 20
1.24544
 30
0.000000
  70
    32
  0
VERTEX
  8
0
  5
5A7
 10
-8.40298
 20
1.24465
 30
0.000000
  70
    32
  0
VERTEX
  8
0
  5
5A8
 10
-8.40355
 20
1.24385
 30
0.000000
  70
    32
  0
VERTEX
  8
0
  5
5A9
 10
-8.40411
 20
1.24305
 30
0.000000
  70
    32
  0
VERTEX
  8
0
  5
5AA
 10
-8.40466
 20
1.24224
 30
0.000000
  70
    32
  0
VERTEX
  8
0
  5
5AB
 10
-8.40521
 20
1.24144
 30
0.000000
  70
    32
  0
VERTEX
  8
0
  5
5AC
 10
-8.40574
 20
1.24062
 30
0.000000
  70
    32
  0
VERTEX
  8
0
  5
5AD
 10
-8.40627
 20
1.23980
 30
0.000000
  70
    32
  0
VERTEX
  8
0
  5
5AE
 10
-8.40679
 20
1.23898
 30
0.000000
  70
    32
  0
VERTEX
  8
0
  5
5AF
 10
-8.40730
 20
1.23816
 30
0.000000
  70
    32
  0
VERTEX
  8
0
  5
5B0
 10
-8.40780
 20
1.23733
 30
0.000000
  70
    32
  0
VERTEX
  8
0
  5
5B1
 10
-8.40829
 20
1.23649
 30
0.000000
  70
    32
  0
VERTEX
  8
0
  5
5B2
 10
-8.40877
 20
1.23566
 30
0.000000
  70
    32
  0
VERTEX
  8
0
  5
5B3
 10
-8.40925
 20
1.23481
 30
0.000000
  70
    32
  0
VERTEX
  8
0
  5
5B4
 10
-8.40971
 20
1.23397
 30
0.000000
  70
    32
  0
VERTEX
  8
0
  5
5B5
 10
-8.41017
 20
1.23312
 30
0.000000
  70
    32
  0
VERTEX
  8
0
  5
5B6
 10
-8.41061
 20
1.23226
 30
0.000000
  70
    32
  0
VERTEX
  8
0
  5
5B7
 10
-8.41105
 20
1.23141
 30
0.000000
  70
    32
  0
VERTEX
  8
0
  5
5B8
 10
-8.41148
 20
1.23054
 30
0.000000
  70
    32
  0
VERTEX
  8
0
  5
5B9
 10
-8.41190
 20
1.22968
 30
0.000000
  70
    32
  0
VERTEX
  8
0
  5
5BA
 10
-8.41231
 20
1.22881
 30
0.000000
  70
    32
  0
VERTEX
  8
0
  5
5BB
 10
-8.41271
 20
1.22793
 30
0.000000
  70
    32
  0
VERTEX
  8
0
  5
5BC
 10
-8.41310
 20
1.22706
 30
0.000000
  70
    32
  0
VERTEX
  8
0
  5
5BD
 10
-8.41348
 20
1.22617
 30
0.000000
  70
    32
  0
VERTEX
  8
0
  5
5BE
 10
-8.41385
 20
1.22529
 30
0.000000
  70
    32
  0
VERTEX
  8
0
  5
5BF
 10
-8.41421
 20
1.22440
 30
0.000000
  70
    32
  0
VERTEX
  8
0
  5
5C0
 10
-8.41457
 20
1.22351
 30
0.000000
  70
    32
  0
VERTEX
  8
0
  5
5C1
 10
-8.41491
 20
1.22261
 30
0.000000
  70
    32
  0
VERTEX
  8
0
  5
5C2
 10
-8.41524
 20
1.22171
 30
0.000000
  70
    32
  0
VERTEX
  8
0
  5
5C3
 10
-8.41556
 20
1.22080
 30
0.000000
  70
    32
  0
VERTEX
  8
0
  5
5C4
 10
-8.41588
 20
1.21989
 30
0.000000
  70
    32
  0
VERTEX
  8
0
  5
5C5
 10
-8.41618
 20
1.21898
 30
0.000000
  70
    32
  0
VERTEX
  8
0
  5
5C6
 10
-8.41648
 20
1.21807
 30
0.000000
  70
    32
  0
VERTEX
  8
0
  5
5C7
 10
-8.41676
 20
1.21715
 30
0.000000
  70
    32
  0
VERTEX
  8
0
  5
5C8
 10
-8.41703
 20
1.21622
 30
0.000000
  70
    32
  0
VERTEX
  8
0
  5
5C9
 10
-8.41730
 20
1.21530
 30
0.000000
  70
    32
  0
VERTEX
  8
0
  5
5CA
 10
-8.41755
 20
1.21436
 30
0.000000
  70
    32
  0
VERTEX
  8
0
  5
5CB
 10
-8.41779
 20
1.21343
 30
0.000000
  70
    32
  0
VERTEX
  8
0
  5
5CC
 10
-8.41802
 20
1.21249
 30
0.000000
  70
    32
  0
VERTEX
  8
0
  5
5CD
 10
-8.41825
 20
1.21155
 30
0.000000
  70
    32
  0
VERTEX
  8
0
  5
5CE
 10
-8.41846
 20
1.21060
 30
0.000000
  70
    32
  0
VERTEX
  8
0
  5
5CF
 10
-8.41866
 20
1.20966
 30
0.000000
  70
    32
  0
VERTEX
  8
0
  5
5D0
 10
-8.41885
 20
1.20870
 30
0.000000
  70
    32
  0
VERTEX
  8
0
  5
5D1
 10
-8.41903
 20
1.20775
 30
0.000000
  70
    32
  0
VERTEX
  8
0
  5
5D2
 10
-8.41920
 20
1.20679
 30
0.000000
  70
    32
  0
VERTEX
  8
0
  5
5D3
 10
-8.41936
 20
1.20582
 30
0.000000
  70
    32
  0
VERTEX
  8
0
  5
5D4
 10
-8.41951
 20
1.20486
 30
0.000000
  70
    32
  0
VERTEX
  8
0
  5
5D5
 10
-8.41965
 20
1.20389
 30
0.000000
  70
    32
  0
VERTEX
  8
0
  5
5D6
 10
-8.41978
 20
1.20291
 30
0.000000
  70
    32
  0
VERTEX
  8
0
  5
5D7
 10
-8.41989
 20
1.20194
 30
0.000000
  70
    32
  0
VERTEX
  8
0
  5
5D8
 10
-8.42000
 20
1.20096
 30
0.000000
  70
    32
  0
VERTEX
  8
0
  5
5D9
 10
-8.42009
 20
1.19997
 30
0.000000
  70
    32
  0
VERTEX
  8
0
  5
5DA
 10
-8.42018
 20
1.19899
 30
0.000000
  70
    32
  0
VERTEX
  8
0
  5
5DB
 10
-8.42025
 20
1.19800
 30
0.000000
  70
    32
  0
VERTEX
  8
0
  5
5DC
 10
-8.42031
 20
1.19700
 30
0.000000
  70
    32
  0
VERTEX
  8
0
  5
5DD
 10
-8.42036
 20
1.19600
 30
0.000000
  70
    32
  0
VERTEX
  8
0
  5
5DE
 10
-8.42040
 20
1.19500
 30
0.000000
  70
    32
  0
VERTEX
  8
0
  5
5DF
 10
-8.42043
 20
1.19400
 30
0.000000
  70
    32
  0
VERTEX
  8
0
  5
5E0
 10
-8.42045
 20
1.19299
 30
0.000000
  70
    32
  0
VERTEX
  8
0
  5
5E1
 10
-8.42045
 20
1.19198
 30
0.000000
  70
    32
  0
VERTEX
  8
0
  5
5E2
 10
-8.42045
 20
1.19097
 30
0.000000
  70
    32
  0
VERTEX
  8
0
  5
5E3
 10
-8.42043
 20
1.18995
 30
0.000000
  70
    32
  0
VERTEX
  8
0
  5
5E4
 10
-8.42040
 20
1.18893
 30
0.000000
  70
    32
  0
VERTEX
  8
0
  5
5E5
 10
-8.42036
 20
1.18791
 30
0.000000
  70
    32
  0
VERTEX
  8
0
  5
5E6
 10
-8.42031
 20
1.18688
 30
0.000000
  70
    32
  0
VERTEX
  8
0
  5
5E7
 10
-8.42025
 20
1.18585
 30
0.000000
  70
    32
  0
VERTEX
  8
0
  5
5E8
 10
-8.42017
 20
1.18482
 30
0.000000
  70
    32
  0
VERTEX
  8
0
  5
5E9
 10
-8.42008
 20
1.18379
 30
0.000000
  70
    32
  0
VERTEX
  8
0
  5
5EA
 10
-8.41999
 20
1.18275
 30
0.000000
  70
    32
  0
VERTEX
  8
0
  5
5EB
 10
-8.41988
 20
1.18170
 30
0.000000
  70
    32
  0
VERTEX
  8
0
  5
5EC
 10
-8.41975
 20
1.18066
 30
0.000000
  70
    32
  0
VERTEX
  8
0
  5
5ED
 10
-8.41962
 20
1.17961
 30
0.000000
  70
    32
  0
VERTEX
  8
0
  5
5EE
 10
-8.41947
 20
1.17856
 30
0.000000
  70
    32
  0
VERTEX
  8
0
  5
5EF
 10
-8.41931
 20
1.17751
 30
0.000000
  70
    32
  0
VERTEX
  8
0
  5
5F0
 10
-8.41914
 20
1.17645
 30
0.000000
  70
    32
  0
VERTEX
  8
0
  5
5F1
 10
-8.41896
 20
1.17539
 30
0.000000
  70
    32
  0
VERTEX
  8
0
  5
5F2
 10
-8.41877
 20
1.17433
 30
0.000000
  70
    32
  0
VERTEX
  8
0
  5
5F3
 10
-8.41856
 20
1.17326
 30
0.000000
  70
    32
  0
VERTEX
  8
0
  5
5F4
 10
-8.41834
 20
1.17219
 30
0.000000
  70
    32
  0
SEQEND
  8
0
  5
5F5
  0
POLYLINE
  8
0
  5
5F6
  66
     1
 10
0.000000
 20
0.000000
 30
0.000000
  70
     8
  0
VERTEX
  8
0
  5
5F7
 10
-8.04503
 20
1.54507
 30
0.000000
  70
    32
  0
VERTEX
  8
0
  5
5F8
 10
-8.04609
 20
1.54529
 30
0.000000
  70
    32
  0
VERTEX
  8
0
  5
5F9
 10
-8.04716
 20
1.54550
 30
0.000000
  70
    32
  0
VERTEX
  8
0
  5
5FA
 10
-8.04822
 20
1.54569
 30
0.000000
  70
    32
  0
VERTEX
  8
0
  5
5FB
 10
-8.04928
 20
1.54588
 30
0.000000
  70
    32
  0
VERTEX
  8
0
  5
5FC
 10
-8.05034
 20
1.54605
 30
0.000000
  70
    32
  0
VERTEX
  8
0
  5
5FD
 10
-8.05139
 20
1.54621
 30
0.000000
  70
    32
  0
VERTEX
  8
0
  5
5FE
 10
-8.05245
 20
1.54635
 30
0.000000
  70
    32
  0
VERTEX
  8
0
  5
5FF
 10
-8.05349
 20
1.54649
 30
0.000000
  70
    32
  0
VERTEX
  8
0
  5
600
 10
-8.05454
 20
1.54661
 30
0.000000
  70
    32
  0
VERTEX
  8
0
  5
601
 10
-8.05558
 20
1.54672
 30
0.000000
  70
    32
  0
VERTEX
  8
0
  5
602
 10
-8.05662
 20
1.54682
 30
0.000000
  70
    32
  0
VERTEX
  8
0
  5
603
 10
-8.05766
 20
1.54691
 30
0.000000
  70
    32
  0
VERTEX
  8
0
  5
604
 10
-8.05869
 20
1.54698
 30
0.000000
  70
    32
  0
VERTEX
  8
0
  5
605
 10
-8.05972
 20
1.54705
 30
0.000000
  70
    32
  0
VERTEX
  8
0
  5
606
 10
-8.06074
 20
1.54710
 30
0.000000
  70
    32
  0
VERTEX
  8
0
  5
607
 10
-8.06177
 20
1.54714
 30
0.000000
  70
    32
  0
VERTEX
  8
0
  5
608
 10
-8.06279
 20
1.54717
 30
0.000000
  70
    32
  0
VERTEX
  8
0
  5
609
 10
-8.06380
 20
1.54719
 30
0.000000
  70
    32
  0
VERTEX
  8
0
  5
60A
 10
-8.06482
 20
1.54720
 30
0.000000
  70
    32
  0
VERTEX
  8
0
  5
60B
 10
-8.06583
 20
1.54719
 30
0.000000
  70
    32
  0
VERTEX
  8
0
  5
60C
 10
-8.06683
 20
1.54718
 30
0.000000
  70
    32
  0
VERTEX
  8
0
  5
60D
 10
-8.06784
 20
1.54715
 30
0.000000
  70
    32
  0
VERTEX
  8
0
  5
60E
 10
-8.06884
 20
1.54711
 30
0.000000
  70
    32
  0
VERTEX
  8
0
  5
60F
 10
-8.06984
 20
1.54706
 30
0.000000
  70
    32
  0
VERTEX
  8
0
  5
610
 10
-8.07083
 20
1.54700
 30
0.000000
  70
    32
  0
VERTEX
  8
0
  5
611
 10
-8.07182
 20
1.54693
 30
0.000000
  70
    32
  0
VERTEX
  8
0
  5
612
 10
-8.07281
 20
1.54685
 30
0.000000
  70
    32
  0
VERTEX
  8
0
  5
613
 10
-8.07379
 20
1.54676
 30
0.000000
  70
    32
  0
VERTEX
  8
0
  5
614
 10
-8.07477
 20
1.54665
 30
0.000000
  70
    32
  0
VERTEX
  8
0
  5
615
 10
-8.07575
 20
1.54654
 30
0.000000
  70
    32
  0
VERTEX
  8
0
  5
616
 10
-8.07672
 20
1.54641
 30
0.000000
  70
    32
  0
VERTEX
  8
0
  5
617
 10
-8.07769
 20
1.54628
 30
0.000000
  70
    32
  0
VERTEX
  8
0
  5
618
 10
-8.07866
 20
1.54613
 30
0.000000
  70
    32
  0
VERTEX
  8
0
  5
619
 10
-8.07962
 20
1.54597
 30
0.000000
  70
    32
  0
VERTEX
  8
0
  5
61A
 10
-8.08058
 20
1.54581
 30
0.000000
  70
    32
  0
VERTEX
  8
0
  5
61B
 10
-8.08154
 20
1.54563
 30
0.000000
  70
    32
  0
VERTEX
  8
0
  5
61C
 10
-8.08249
 20
1.54544
 30
0.000000
  70
    32
  0
VERTEX
  8
0
  5
61D
 10
-8.08344
 20
1.54524
 30
0.000000
  70
    32
  0
VERTEX
  8
0
  5
61E
 10
-8.08438
 20
1.54503
 30
0.000000
  70
    32
  0
VERTEX
  8
0
  5
61F
 10
-8.08533
 20
1.54481
 30
0.000000
  70
    32
  0
VERTEX
  8
0
  5
620
 10
-8.08626
 20
1.54458
 30
0.000000
  70
    32
  0
VERTEX
  8
0
  5
621
 10
-8.08720
 20
1.54434
 30
0.000000
  70
    32
  0
VERTEX
  8
0
  5
622
 10
-8.08813
 20
1.54409
 30
0.000000
  70
    32
  0
VERTEX
  8
0
  5
623
 10
-8.08906
 20
1.54382
 30
0.000000
  70
    32
  0
VERTEX
  8
0
  5
624
 10
-8.08998
 20
1.54355
 30
0.000000
  70
    32
  0
VERTEX
  8
0
  5
625
 10
-8.09090
 20
1.54327
 30
0.000000
  70
    32
  0
VERTEX
  8
0
  5
626
 10
-8.09182
 20
1.54298
 30
0.000000
  70
    32
  0
VERTEX
  8
0
  5
627
 10
-8.09273
 20
1.54268
 30
0.000000
  70
    32
  0
VERTEX
  8
0
  5
628
 10
-8.09364
 20
1.54237
 30
0.000000
  70
    32
  0
VERTEX
  8
0
  5
629
 10
-8.09454
 20
1.54205
 30
0.000000
  70
    32
  0
VERTEX
  8
0
  5
62A
 10
-8.09544
 20
1.54172
 30
0.000000
  70
    32
  0
VERTEX
  8
0
  5
62B
 10
-8.09634
 20
1.54138
 30
0.000000
  70
    32
  0
VERTEX
  8
0
  5
62C
 10
-8.09723
 20
1.54103
 30
0.000000
  70
    32
  0
VERTEX
  8
0
  5
62D
 10
-8.09812
 20
1.54067
 30
0.000000
  70
    32
  0
VERTEX
  8
0
  5
62E
 10
-8.09901
 20
1.54030
 30
0.000000
  70
    32
  0
VERTEX
  8
0
  5
62F
 10
-8.09989
 20
1.53992
 30
0.000000
  70
    32
  0
VERTEX
  8
0
  5
630
 10
-8.10077
 20
1.53953
 30
0.000000
  70
    32
  0
VERTEX
  8
0
  5
631
 10
-8.10164
 20
1.53913
 30
0.000000
  70
    32
  0
VERTEX
  8
0
  5
632
 10
-8.10251
 20
1.53873
 30
0.000000
  70
    32
  0
VERTEX
  8
0
  5
633
 10
-8.10338
 20
1.53831
 30
0.000000
  70
    32
  0
VERTEX
  8
0
  5
634
 10
-8.10424
 20
1.53789
 30
0.000000
  70
    32
  0
VERTEX
  8
0
  5
635
 10
-8.10510
 20
1.53745
 30
0.000000
  70
    32
  0
VERTEX
  8
0
  5
636
 10
-8.10595
 20
1.53701
 30
0.000000
  70
    32
  0
VERTEX
  8
0
  5
637
 10
-8.10680
 20
1.53655
 30
0.000000
  70
    32
  0
VERTEX
  8
0
  5
638
 10
-8.10765
 20
1.53609
 30
0.000000
  70
    32
  0
VERTEX
  8
0
  5
639
 10
-8.10849
 20
1.53562
 30
0.000000
  70
    32
  0
VERTEX
  8
0
  5
63A
 10
-8.10933
 20
1.53514
 30
0.000000
  70
    32
  0
VERTEX
  8
0
  5
63B
 10
-8.11016
 20
1.53465
 30
0.000000
  70
    32
  0
VERTEX
  8
0
  5
63C
 10
-8.11099
 20
1.53415
 30
0.000000
  70
    32
  0
VERTEX
  8
0
  5
63D
 10
-8.11182
 20
1.53364
 30
0.000000
  70
    32
  0
VERTEX
  8
0
  5
63E
 10
-8.11264
 20
1.53313
 30
0.000000
  70
    32
  0
VERTEX
  8
0
  5
63F
 10
-8.11346
 20
1.53260
 30
0.000000
  70
    32
  0
VERTEX
  8
0
  5
640
 10
-8.11427
 20
1.53207
 30
0.000000
  70
    32
  0
VERTEX
  8
0
  5
641
 10
-8.11508
 20
1.53153
 30
0.000000
  70
    32
  0
VERTEX
  8
0
  5
642
 10
-8.11588
 20
1.53098
 30
0.000000
  70
    32
  0
VERTEX
  8
0
  5
643
 10
-8.11668
 20
1.53042
 30
0.000000
  70
    32
  0
VERTEX
  8
0
  5
644
 10
-8.11748
 20
1.52985
 30
0.000000
  70
    32
  0
VERTEX
  8
0
  5
645
 10
-8.11827
 20
1.52928
 30
0.000000
  70
    32
  0
VERTEX
  8
0
  5
646
 10
-8.11906
 20
1.52869
 30
0.000000
  70
    32
  0
VERTEX
  8
0
  5
647
 10
-8.11984
 20
1.52810
 30
0.000000
  70
    32
  0
VERTEX
  8
0
  5
648
 10
-8.12062
 20
1.52750
 30
0.000000
  70
    32
  0
VERTEX
  8
0
  5
649
 10
-8.12140
 20
1.52689
 30
0.000000
  70
    32
  0
VERTEX
  8
0
  5
64A
 10
-8.12217
 20
1.52627
 30
0.000000
  70
    32
  0
VERTEX
  8
0
  5
64B
 10
-8.12293
 20
1.52565
 30
0.000000
  70
    32
  0
VERTEX
  8
0
  5
64C
 10
-8.12369
 20
1.52501
 30
0.000000
  70
    32
  0
VERTEX
  8
0
  5
64D
 10
-8.12445
 20
1.52437
 30
0.000000
  70
    32
  0
VERTEX
  8
0
  5
64E
 10
-8.12520
 20
1.52372
 30
0.000000
  70
    32
  0
VERTEX
  8
0
  5
64F
 10
-8.12595
 20
1.52306
 30
0.000000
  70
    32
  0
VERTEX
  8
0
  5
650
 10
-8.12669
 20
1.52240
 30
0.000000
  70
    32
  0
VERTEX
  8
0
  5
651
 10
-8.12743
 20
1.52172
 30
0.000000
  70
    32
  0
VERTEX
  8
0
  5
652
 10
-8.12817
 20
1.52104
 30
0.000000
  70
    32
  0
VERTEX
  8
0
  5
653
 10
-8.12890
 20
1.52035
 30
0.000000
  70
    32
  0
VERTEX
  8
0
  5
654
 10
-8.12962
 20
1.51966
 30
0.000000
  70
    32
  0
VERTEX
  8
0
  5
655
 10
-8.13035
 20
1.51895
 30
0.000000
  70
    32
  0
VERTEX
  8
0
  5
656
 10
-8.13106
 20
1.51824
 30
0.000000
  70
    32
  0
VERTEX
  8
0
  5
657
 10
-8.13177
 20
1.51752
 30
0.000000
  70
    32
  0
VERTEX
  8
0
  5
658
 10
-8.13248
 20
1.51680
 30
0.000000
  70
    32
  0
VERTEX
  8
0
  5
659
 10
-8.13318
 20
1.51606
 30
0.000000
  70
    32
  0
VERTEX
  8
0
  5
65A
 10
-8.13388
 20
1.51532
 30
0.000000
  70
    32
  0
VERTEX
  8
0
  5
65B
 10
-8.13458
 20
1.51457
 30
0.000000
  70
    32
  0
VERTEX
  8
0
  5
65C
 10
-8.13526
 20
1.51381
 30
0.000000
  70
    32
  0
VERTEX
  8
0
  5
65D
 10
-8.13595
 20
1.51305
 30
0.000000
  70
    32
  0
VERTEX
  8
0
  5
65E
 10
-8.13663
 20
1.51228
 30
0.000000
  70
    32
  0
VERTEX
  8
0
  5
65F
 10
-8.13730
 20
1.51150
 30
0.000000
  70
    32
  0
VERTEX
  8
0
  5
660
 10
-8.13797
 20
1.51072
 30
0.000000
  70
    32
  0
VERTEX
  8
0
  5
661
 10
-8.13864
 20
1.50992
 30
0.000000
  70
    32
  0
VERTEX
  8
0
  5
662
 10
-8.13930
 20
1.50912
 30
0.000000
  70
    32
  0
VERTEX
  8
0
  5
663
 10
-8.13995
 20
1.50832
 30
0.000000
  70
    32
  0
VERTEX
  8
0
  5
664
 10
-8.14060
 20
1.50750
 30
0.000000
  70
    32
  0
VERTEX
  8
0
  5
665
 10
-8.14125
 20
1.50668
 30
0.000000
  70
    32
  0
VERTEX
  8
0
  5
666
 10
-8.14189
 20
1.50586
 30
0.000000
  70
    32
  0
VERTEX
  8
0
  5
667
 10
-8.14253
 20
1.50502
 30
0.000000
  70
    32
  0
VERTEX
  8
0
  5
668
 10
-8.14316
 20
1.50418
 30
0.000000
  70
    32
  0
VERTEX
  8
0
  5
669
 10
-8.14378
 20
1.50334
 30
0.000000
  70
    32
  0
VERTEX
  8
0
  5
66A
 10
-8.14441
 20
1.50248
 30
0.000000
  70
    32
  0
VERTEX
  8
0
  5
66B
 10
-8.14502
 20
1.50162
 30
0.000000
  70
    32
  0
VERTEX
  8
0
  5
66C
 10
-8.14563
 20
1.50076
 30
0.000000
  70
    32
  0
VERTEX
  8
0
  5
66D
 10
-8.14624
 20
1.49988
 30
0.000000
  70
    32
  0
VERTEX
  8
0
  5
66E
 10
-8.14684
 20
1.49900
 30
0.000000
  70
    32
  0
VERTEX
  8
0
  5
66F
 10
-8.14744
 20
1.49812
 30
0.000000
  70
    32
  0
VERTEX
  8
0
  5
670
 10
-8.14803
 20
1.49723
 30
0.000000
  70
    32
  0
VERTEX
  8
0
  5
671
 10
-8.14862
 20
1.49633
 30
0.000000
  70
    32
  0
VERTEX
  8
0
  5
672
 10
-8.14920
 20
1.49542
 30
0.000000
  70
    32
  0
VERTEX
  8
0
  5
673
 10
-8.14977
 20
1.49451
 30
0.000000
  70
    32
  0
VERTEX
  8
0
  5
674
 10
-8.15034
 20
1.49359
 30
0.000000
  70
    32
  0
VERTEX
  8
0
  5
675
 10
-8.15091
 20
1.49267
 30
0.000000
  70
    32
  0
VERTEX
  8
0
  5
676
 10
-8.15147
 20
1.49174
 30
0.000000
  70
    32
  0
SEQEND
  8
0
  5
677
  0
POLYLINE
  8
0
  5
678
  66
     1
 10
0.000000
 20
0.000000
 30
0.000000
  70
     8
  0
VERTEX
  8
0
  5
679
 10
-0.266328
 20
-6.97960
 30
0.000000
  70
    32
  0
VERTEX
  8
0
  5
67A
 10
-0.267549
 20
-6.97594
 30
0.000000
  70
    32
  0
VERTEX
  8
0
  5
67B
 10
-0.268752
 20
-6.97234
 30
0.000000
  70
    32
  0
VERTEX
  8
0
  5
67C
 10
-0.269940
 20
-6.96879
 30
0.000000
  70
    32
  0
VERTEX
  8
0
  5
67D
 10
-0.271111
 20
-6.96530
 30
0.000000
  70
    32
  0
VERTEX
  8
0
  5
67E
 10
-0.272268
 20
-6.96186
 30
0.000000
  70
    32
  0
VERTEX
  8
0
  5
67F
 10
-0.273410
 20
-6.95847
 30
0.000000
  70
    32
  0
VERTEX
  8
0
  5
680
 10
-0.274538
 20
-6.95514
 30
0.000000
  70
    32
  0
VERTEX
  8
0
  5
681
 10
-0.275653
 20
-6.95185
 30
0.000000
  70
    32
  0
VERTEX
  8
0
  5
682
 10
-0.276755
 20
-6.94862
 30
0.000000
  70
    32
  0
VERTEX
  8
0
  5
683
 10
-0.277844
 20
-6.94544
 30
0.000000
  70
    32
  0
VERTEX
  8
0
  5
684
 10
-0.278922
 20
-6.94231
 30
0.000000
  70
    32
  0
VERTEX
  8
0
  5
685
 10
-0.279989
 20
-6.93923
 30
0.000000
  70
    32
  0
VERTEX
  8
0
  5
686
 10
-0.281046
 20
-6.93620
 30
0.000000
  70
    32
  0
VERTEX
  8
0
  5
687
 10
-0.282093
 20
-6.93322
 30
0.000000
  70
    32
  0
VERTEX
  8
0
  5
688
 10
-0.283130
 20
-6.93028
 30
0.000000
  70
    32
  0
VERTEX
  8
0
  5
689
 10
-0.284158
 20
-6.92740
 30
0.000000
  70
    32
  0
VERTEX
  8
0
  5
68A
 10
-0.285179
 20
-6.92456
 30
0.000000
  70
    32
  0
VERTEX
  8
0
  5
68B
 10
-0.286192
 20
-6.92176
 30
0.000000
  70
    32
  0
VERTEX
  8
0
  5
68C
 10
-0.287198
 20
-6.91902
 30
0.000000
  70
    32
  0
VERTEX
  8
0
  5
68D
 10
-0.288197
 20
-6.91631
 30
0.000000
  70
    32
  0
VERTEX
  8
0
  5
68E
 10
-0.289190
 20
-6.91365
 30
0.000000
  70
    32
  0
VERTEX
  8
0
  5
68F
 10
-0.290179
 20
-6.91104
 30
0.000000
  70
    32
  0
VERTEX
  8
0
  5
690
 10
-0.291162
 20
-6.90847
 30
0.000000
  70
    32
  0
VERTEX
  8
0
  5
691
 10
-0.292142
 20
-6.90594
 30
0.000000
  70
    32
  0
VERTEX
  8
0
  5
692
 10
-0.293118
 20
-6.90346
 30
0.000000
  70
    32
  0
VERTEX
  8
0
  5
693
 10
-0.294091
 20
-6.90101
 30
0.000000
  70
    32
  0
VERTEX
  8
0
  5
694
 10
-0.295061
 20
-6.89861
 30
0.000000
  70
    32
  0
VERTEX
  8
0
  5
695
 10
-0.296030
 20
-6.89624
 30
0.000000
  70
    32
  0
VERTEX
  8
0
  5
696
 10
-0.296998
 20
-6.89392
 30
0.000000
  70
    32
  0
VERTEX
  8
0
  5
697
 10
-0.297964
 20
-6.89164
 30
0.000000
  70
    32
  0
VERTEX
  8
0
  5
698
 10
-0.298931
 20
-6.88939
 30
0.000000
  70
    32
  0
VERTEX
  8
0
  5
699
 10
-0.299899
 20
-6.88719
 30
0.000000
  70
    32
  0
VERTEX
  8
0
  5
69A
 10
-0.300867
 20
-6.88502
 30
0.000000
  70
    32
  0
VERTEX
  8
0
  5
69B
 10
-0.301837
 20
-6.88289
 30
0.000000
  70
    32
  0
VERTEX
  8
0
  5
69C
 10
-0.302810
 20
-6.88079
 30
0.000000
  70
    32
  0
VERTEX
  8
0
  5
69D
 10
-0.303785
 20
-6.87873
 30
0.000000
  70
    32
  0
VERTEX
  8
0
  5
69E
 10
-0.304763
 20
-6.87671
 30
0.000000
  70
    32
  0
VERTEX
  8
0
  5
69F
 10
-0.305746
 20
-6.87472
 30
0.000000
  70
    32
  0
VERTEX
  8
0
  5
6A0
 10
-0.306733
 20
-6.87276
 30
0.000000
  70
    32
  0
VERTEX
  8
0
  5
6A1
 10
-0.307725
 20
-6.87084
 30
0.000000
  70
    32
  0
VERTEX
  8
0
  5
6A2
 10
-0.308723
 20
-6.86895
 30
0.000000
  70
    32
  0
VERTEX
  8
0
  5
6A3
 10
-0.309728
 20
-6.86709
 30
0.000000
  70
    32
  0
VERTEX
  8
0
  5
6A4
 10
-0.310739
 20
-6.86527
 30
0.000000
  70
    32
  0
VERTEX
  8
0
  5
6A5
 10
-0.311758
 20
-6.86347
 30
0.000000
  70
    32
  0
VERTEX
  8
0
  5
6A6
 10
-0.312784
 20
-6.86171
 30
0.000000
  70
    32
  0
VERTEX
  8
0
  5
6A7
 10
-0.313820
 20
-6.85997
 30
0.000000
  70
    32
  0
VERTEX
  8
0
  5
6A8
 10
-0.314864
 20
-6.85827
 30
0.000000
  70
    32
  0
VERTEX
  8
0
  5
6A9
 10
-0.315918
 20
-6.85660
 30
0.000000
  70
    32
  0
VERTEX
  8
0
  5
6AA
 10
-0.316983
 20
-6.85495
 30
0.000000
  70
    32
  0
VERTEX
  8
0
  5
6AB
 10
-0.318059
 20
-6.85333
 30
0.000000
  70
    32
  0
VERTEX
  8
0
  5
6AC
 10
-0.319146
 20
-6.85174
 30
0.000000
  70
    32
  0
VERTEX
  8
0
  5
6AD
 10
-0.320245
 20
-6.85017
 30
0.000000
  70
    32
  0
VERTEX
  8
0
  5
6AE
 10
-0.321357
 20
-6.84863
 30
0.000000
  70
    32
  0
VERTEX
  8
0
  5
6AF
 10
-0.322482
 20
-6.84712
 30
0.000000
  70
    32
  0
VERTEX
  8
0
  5
6B0
 10
-0.323620
 20
-6.84563
 30
0.000000
  70
    32
  0
VERTEX
  8
0
  5
6B1
 10
-0.324774
 20
-6.84416
 30
0.000000
  70
    32
  0
VERTEX
  8
0
  5
6B2
 10
-0.325942
 20
-6.84272
 30
0.000000
  70
    32
  0
VERTEX
  8
0
  5
6B3
 10
-0.327126
 20
-6.84131
 30
0.000000
  70
    32
  0
VERTEX
  8
0
  5
6B4
 10
-0.328326
 20
-6.83991
 30
0.000000
  70
    32
  0
VERTEX
  8
0
  5
6B5
 10
-0.329542
 20
-6.83854
 30
0.000000
  70
    32
  0
VERTEX
  8
0
  5
6B6
 10
-0.330776
 20
-6.83718
 30
0.000000
  70
    32
  0
VERTEX
  8
0
  5
6B7
 10
-0.332028
 20
-6.83585
 30
0.000000
  70
    32
  0
VERTEX
  8
0
  5
6B8
 10
-0.333298
 20
-6.83454
 30
0.000000
  70
    32
  0
VERTEX
  8
0
  5
6B9
 10
-0.334587
 20
-6.83325
 30
0.000000
  70
    32
  0
VERTEX
  8
0
  5
6BA
 10
-0.335896
 20
-6.83198
 30
0.000000
  70
    32
  0
VERTEX
  8
0
  5
6BB
 10
-0.337225
 20
-6.83072
 30
0.000000
  70
    32
  0
VERTEX
  8
0
  5
6BC
 10
-0.338575
 20
-6.82949
 30
0.000000
  70
    32
  0
VERTEX
  8
0
  5
6BD
 10
-0.339946
 20
-6.82827
 30
0.000000
  70
    32
  0
VERTEX
  8
0
  5
6BE
 10
-0.341339
 20
-6.82706
 30
0.000000
  70
    32
  0
VERTEX
  8
0
  5
6BF
 10
-0.342755
 20
-6.82588
 30
0.000000
  70
    32
  0
VERTEX
  8
0
  5
6C0
 10
-0.344193
 20
-6.82471
 30
0.000000
  70
    32
  0
VERTEX
  8
0
  5
6C1
 10
-0.345656
 20
-6.82355
 30
0.000000
  70
    32
  0
VERTEX
  8
0
  5
6C2
 10
-0.347142
 20
-6.82241
 30
0.000000
  70
    32
  0
VERTEX
  8
0
  5
6C3
 10
-0.348653
 20
-6.82128
 30
0.000000
  70
    32
  0
VERTEX
  8
0
  5
6C4
 10
-0.350190
 20
-6.82017
 30
0.000000
  70
    32
  0
VERTEX
  8
0
  5
6C5
 10
-0.351753
 20
-6.81907
 30
0.000000
  70
    32
  0
VERTEX
  8
0
  5
6C6
 10
-0.353342
 20
-6.81798
 30
0.000000
  70
    32
  0
VERTEX
  8
0
  5
6C7
 10
-0.354958
 20
-6.81690
 30
0.000000
  70
    32
  0
VERTEX
  8
0
  5
6C8
 10
-0.356603
 20
-6.81583
 30
0.000000
  70
    32
  0
VERTEX
  8
0
  5
6C9
 10
-0.358275
 20
-6.81477
 30
0.000000
  70
    32
  0
VERTEX
  8
0
  5
6CA
 10
-0.359976
 20
-6.81373
 30
0.000000
  70
    32
  0
VERTEX
  8
0
  5
6CB
 10
-0.361707
 20
-6.81269
 30
0.000000
  70
    32
  0
VERTEX
  8
0
  5
6CC
 10
-0.363467
 20
-6.81166
 30
0.000000
  70
    32
  0
VERTEX
  8
0
  5
6CD
 10
-0.365259
 20
-6.81064
 30
0.000000
  70
    32
  0
VERTEX
  8
0
  5
6CE
 10
-0.367081
 20
-6.80962
 30
0.000000
  70
    32
  0
VERTEX
  8
0
  5
6CF
 10
-0.368935
 20
-6.80862
 30
0.000000
  70
    32
  0
VERTEX
  8
0
  5
6D0
 10
-0.370822
 20
-6.80761
 30
0.000000
  70
    32
  0
VERTEX
  8
0
  5
6D1
 10
-0.372741
 20
-6.80662
 30
0.000000
  70
    32
  0
VERTEX
  8
0
  5
6D2
 10
-0.374694
 20
-6.80563
 30
0.000000
  70
    32
  0
VERTEX
  8
0
  5
6D3
 10
-0.376681
 20
-6.80464
 30
0.000000
  70
    32
  0
VERTEX
  8
0
  5
6D4
 10
-0.378703
 20
-6.80366
 30
0.000000
  70
    32
  0
VERTEX
  8
0
  5
6D5
 10
-0.380759
 20
-6.80268
 30
0.000000
  70
    32
  0
VERTEX
  8
0
  5
6D6
 10
-0.382852
 20
-6.80171
 30
0.000000
  70
    32
  0
VERTEX
  8
0
  5
6D7
 10
-0.384981
 20
-6.80074
 30
0.000000
  70
    32
  0
VERTEX
  8
0
  5
6D8
 10
-0.387147
 20
-6.79976
 30
0.000000
  70
    32
  0
VERTEX
  8
0
  5
6D9
 10
-0.389351
 20
-6.79879
 30
0.000000
  70
    32
  0
VERTEX
  8
0
  5
6DA
 10
-0.391592
 20
-6.79782
 30
0.000000
  70
    32
  0
VERTEX
  8
0
  5
6DB
 10
-0.393873
 20
-6.79685
 30
0.000000
  70
    32
  0
VERTEX
  8
0
  5
6DC
 10
-0.396192
 20
-6.79588
 30
0.000000
  70
    32
  0
VERTEX
  8
0
  5
6DD
 10
-0.398552
 20
-6.79491
 30
0.000000
  70
    32
  0
VERTEX
  8
0
  5
6DE
 10
-0.400951
 20
-6.79394
 30
0.000000
  70
    32
  0
VERTEX
  8
0
  5
6DF
 10
-0.403392
 20
-6.79296
 30
0.000000
  70
    32
  0
VERTEX
  8
0
  5
6E0
 10
-0.405875
 20
-6.79198
 30
0.000000
  70
    32
  0
VERTEX
  8
0
  5
6E1
 10
-0.408399
 20
-6.79100
 30
0.000000
  70
    32
  0
VERTEX
  8
0
  5
6E2
 10
-0.410967
 20
-6.79001
 30
0.000000
  70
    32
  0
VERTEX
  8
0
  5
6E3
 10
-0.413578
 20
-6.78902
 30
0.000000
  70
    32
  0
VERTEX
  8
0
  5
6E4
 10
-0.416232
 20
-6.78802
 30
0.000000
  70
    32
  0
VERTEX
  8
0
  5
6E5
 10
-0.418931
 20
-6.78702
 30
0.000000
  70
    32
  0
VERTEX
  8
0
  5
6E6
 10
-0.421675
 20
-6.78601
 30
0.000000
  70
    32
  0
VERTEX
  8
0
  5
6E7
 10
-0.424465
 20
-6.78499
 30
0.000000
  70
    32
  0
VERTEX
  8
0
  5
6E8
 10
-0.427301
 20
-6.78397
 30
0.000000
  70
    32
  0
VERTEX
  8
0
  5
6E9
 10
-0.430184
 20
-6.78293
 30
0.000000
  70
    32
  0
VERTEX
  8
0
  5
6EA
 10
-0.433114
 20
-6.78189
 30
0.000000
  70
    32
  0
VERTEX
  8
0
  5
6EB
 10
-0.436092
 20
-6.78084
 30
0.000000
  70
    32
  0
VERTEX
  8
0
  5
6EC
 10
-0.439119
 20
-6.77978
 30
0.000000
  70
    32
  0
VERTEX
  8
0
  5
6ED
 10
-0.442195
 20
-6.77871
 30
0.000000
  70
    32
  0
VERTEX
  8
0
  5
6EE
 10
-0.445320
 20
-6.77763
 30
0.000000
  70
    32
  0
VERTEX
  8
0
  5
6EF
 10
-0.448496
 20
-6.77653
 30
0.000000
  70
    32
  0
VERTEX
  8
0
  5
6F0
 10
-0.451722
 20
-6.77543
 30
0.000000
  70
    32
  0
VERTEX
  8
0
  5
6F1
 10
-0.455000
 20
-6.77431
 30
0.000000
  70
    32
  0
VERTEX
  8
0
  5
6F2
 10
-0.458330
 20
-6.77317
 30
0.000000
  70
    32
  0
VERTEX
  8
0
  5
6F3
 10
-0.461713
 20
-6.77203
 30
0.000000
  70
    32
  0
VERTEX
  8
0
  5
6F4
 10
-0.465149
 20
-6.77087
 30
0.000000
  70
    32
  0
VERTEX
  8
0
  5
6F5
 10
-0.468638
 20
-6.76969
 30
0.000000
  70
    32
  0
VERTEX
  8
0
  5
6F6
 10
-0.472182
 20
-6.76850
 30
0.000000
  70
    32
  0
VERTEX
  8
0
  5
6F7
 10
-0.475780
 20
-6.76729
 30
0.000000
  70
    32
  0
VERTEX
  8
0
  5
6F8
 10
-0.479434
 20
-6.76606
 30
0.000000
  70
    32
  0
SEQEND
  8
0
  5
6F9
  0
POLYLINE
  5
7C
  8
0
  6
HIDDEN2
 66
     1
 10
0.0
 20
0.0
 30
0.0
  0
VERTEX
  5
7D
  8
0
  6
HIDDEN2
 10
-0.2663284051613886
 20
-7.0327175119535488
 30
0.0
  0
VERTEX
  5
7E
  8
0
  6
HIDDEN2
 10
-0.1598837597122724
 20
-7.139378948941256
 30
0.0
  0
SEQEND
  5
7F
  8
0
  6
HIDDEN2
  0
POLYLINE
  8
0
  5
6FA
  66
     1
 10
0.000000
 20
0.000000
 30
0.000000
  70
     8
  0
VERTEX
  8
0
  5
6FB
 10
-7.83192
 20
-0.213106
 30
0.000000
  70
    32
  0
VERTEX
  8
0
  5
6FC
 10
-7.83403
 20
-0.209946
 30
0.000000
  70
    32
  0
VERTEX
  8
0
  5
6FD
 10
-7.83611
 20
-0.206825
 30
0.000000
  70
    32
  0
VERTEX
  8
0
  5
6FE
 10
-7.83817
 20
-0.203743
 30
0.000000
  70
    32
  0
VERTEX
  8
0
  5
6FF
 10
-7.84021
 20
-0.200699
 30
0.000000
  70
    32
  0
VERTEX
  8
0
  5
700
 10
-7.84223
 20
-0.197694
 30
0.000000
  70
    32
  0
VERTEX
  8
0
  5
701
 10
-7.84422
 20
-0.194727
 30
0.000000
  70
    32
  0
VERTEX
  8
0
  5
702
 10
-7.84619
 20
-0.191797
 30
0.000000
  70
    32
  0
VERTEX
  8
0
  5
703
 10
-7.84815
 20
-0.188904
 30
0.000000
  70
    32
  0
VERTEX
  8
0
  5
704
 10
-7.85008
 20
-0.186048
 30
0.000000
  70
    32
  0
VERTEX
  8
0
  5
705
 10
-7.85199
 20
-0.183229
 30
0.000000
  70
    32
  0
VERTEX
  8
0
  5
706
 10
-7.85389
 20
-0.180445
 30
0.000000
  70
    32
  0
VERTEX
  8
0
  5
707
 10
-7.85577
 20
-0.177697
 30
0.000000
  70
    32
  0
VERTEX
  8
0
  5
708
 10
-7.85762
 20
-0.174984
 30
0.000000
  70
    32
  0
VERTEX
  8
0
  5
709
 10
-7.85947
 20
-0.172306
 30
0.000000
  70
    32
  0
VERTEX
  8
0
  5
70A
 10
-7.86129
 20
-0.169662
 30
0.000000
  70
    32
  0
VERTEX
  8
0
  5
70B
 10
-7.86310
 20
-0.167053
 30
0.000000
  70
    32
  0
VERTEX
  8
0
  5
70C
 10
-7.86490
 20
-0.164477
 30
0.000000
  70
    32
  0
VERTEX
  8
0
  5
70D
 10
-7.86668
 20
-0.161934
 30
0.000000
  70
    32
  0
VERTEX
  8
0
  5
70E
 10
-7.86844
 20
-0.159424
 30
0.000000
  70
    32
  0
VERTEX
  8
0
  5
70F
 10
-7.87019
 20
-0.156947
 30
0.000000
  70
    32
  0
VERTEX
  8
0
  5
710
 10
-7.87193
 20
-0.154502
 30
0.000000
  70
    32
  0
VERTEX
  8
0
  5
711
 10
-7.87366
 20
-0.152089
 30
0.000000
  70
    32
  0
VERTEX
  8
0
  5
712
 10
-7.87537
 20
-0.149707
 30
0.000000
  70
    32
  0
VERTEX
  8
0
  5
713
 10
-7.87708
 20
-0.147356
 30
0.000000
  70
    32
  0
VERTEX
  8
0
  5
714
 10
-7.87877
 20
-0.145036
 30
0.000000
  70
    32
  0
VERTEX
  8
0
  5
715
 10
-7.88045
 20
-0.142746
 30
0.000000
  70
    32
  0
VERTEX
  8
0
  5
716
 10
-7.88212
 20
-0.140486
 30
0.000000
  70
    32
  0
VERTEX
  8
0
  5
717
 10
-7.88379
 20
-0.138255
 30
0.000000
  70
    32
  0
VERTEX
  8
0
  5
718
 10
-7.88544
 20
-0.136053
 30
0.000000
  70
    32
  0
VERTEX
  8
0
  5
719
 10
-7.88709
 20
-0.133881
 30
0.000000
  70
    32
  0
VERTEX
  8
0
  5
71A
 10
-7.88873
 20
-0.131736
 30
0.000000
  70
    32
  0
VERTEX
  8
0
  5
71B
 10
-7.89036
 20
-0.129620
 30
0.000000
  70
    32
  0
VERTEX
  8
0
  5
71C
 10
-7.89199
 20
-0.127531
 30
0.000000
  70
    32
  0
VERTEX
  8
0
  5
71D
 10
-7.89361
 20
-0.125469
 30
0.000000
  70
    32
  0
VERTEX
  8
0
  5
71E
 10
-7.89522
 20
-0.123434
 30
0.000000
  70
    32
  0
VERTEX
  8
0
  5
71F
 10
-7.89683
 20
-0.121426
 30
0.000000
  70
    32
  0
VERTEX
  8
0
  5
720
 10
-7.89844
 20
-0.119443
 30
0.000000
  70
    32
  0
VERTEX
  8
0
  5
721
 10
-7.90004
 20
-0.117487
 30
0.000000
  70
    32
  0
VERTEX
  8
0
  5
722
 10
-7.90165
 20
-0.115555
 30
0.000000
  70
    32
  0
VERTEX
  8
0
  5
723
 10
-7.90324
 20
-0.113649
 30
0.000000
  70
    32
  0
VERTEX
  8
0
  5
724
 10
-7.90484
 20
-0.111767
 30
0.000000
  70
    32
  0
VERTEX
  8
0
  5
725
 10
-7.90644
 20
-0.109909
 30
0.000000
  70
    32
  0
VERTEX
  8
0
  5
726
 10
-7.90803
 20
-0.108075
 30
0.000000
  70
    32
  0
VERTEX
  8
0
  5
727
 10
-7.90963
 20
-0.106264
 30
0.000000
  70
    32
  0
VERTEX
  8
0
  5
728
 10
-7.91122
 20
-0.104477
 30
0.000000
  70
    32
  0
VERTEX
  8
0
  5
729
 10
-7.91282
 20
-0.102712
 30
0.000000
  70
    32
  0
VERTEX
  8
0
  5
72A
 10
-7.91442
 20
-0.100969
 30
0.000000
  70
    32
  0
VERTEX
  8
0
  5
72B
 10
-7.91602
 20
-0.0992486
 30
0.000000
  70
    32
  0
VERTEX
  8
0
  5
72C
 10
-7.91763
 20
-0.0975494
 30
0.000000
  70
    32
  0
VERTEX
  8
0
  5
72D
 10
-7.91923
 20
-0.0958712
 30
0.000000
  70
    32
  0
VERTEX
  8
0
  5
72E
 10
-7.92085
 20
-0.0942138
 30
0.000000
  70
    32
  0
VERTEX
  8
0
  5
72F
 10
-7.92246
 20
-0.0925768
 30
0.000000
  70
    32
  0
VERTEX
  8
0
  5
730
 10
-7.92408
 20
-0.0909597
 30
0.000000
  70
    32
  0
VERTEX
  8
0
  5
731
 10
-7.92571
 20
-0.0893623
 30
0.000000
  70
    32
  0
VERTEX
  8
0
  5
732
 10
-7.92734
 20
-0.0877840
 30
0.000000
  70
    32
  0
VERTEX
  8
0
  5
733
 10
-7.92898
 20
-0.0862246
 30
0.000000
  70
    32
  0
VERTEX
  8
0
  5
734
 10
-7.93063
 20
-0.0846837
 30
0.000000
  70
    32
  0
VERTEX
  8
0
  5
735
 10
-7.93229
 20
-0.0831608
 30
0.000000
  70
    32
  0
VERTEX
  8
0
  5
736
 10
-7.93395
 20
-0.0816556
 30
0.000000
  70
    32
  0
VERTEX
  8
0
  5
737
 10
-7.93562
 20
-0.0801678
 30
0.000000
  70
    32
  0
VERTEX
  8
0
  5
738
 10
-7.93731
 20
-0.0786969
 30
0.000000
  70
    32
  0
VERTEX
  8
0
  5
739
 10
-7.93900
 20
-0.0772425
 30
0.000000
  70
    32
  0
VERTEX
  8
0
  5
73A
 10
-7.94071
 20
-0.0758043
 30
0.000000
  70
    32
  0
VERTEX
  8
0
  5
73B
 10
-7.94242
 20
-0.0743819
 30
0.000000
  70
    32
  0
VERTEX
  8
0
  5
73C
 10
-7.94415
 20
-0.0729749
 30
0.000000
  70
    32
  0
VERTEX
  8
0
  5
73D
 10
-7.94589
 20
-0.0715830
 30
0.000000
  70
    32
  0
VERTEX
  8
0
  5
73E
 10
-7.94764
 20
-0.0702057
 30
0.000000
  70
    32
  0
VERTEX
  8
0
  5
73F
 10
-7.94941
 20
-0.0688427
 30
0.000000
  70
    32
  0
VERTEX
  8
0
  5
740
 10
-7.95119
 20
-0.0674936
 30
0.000000
  70
    32
  0
VERTEX
  8
0
  5
741
 10
-7.95299
 20
-0.0661580
 30
0.000000
  70
    32
  0
VERTEX
  8
0
  5
742
 10
-7.95480
 20
-0.0648355
 30
0.000000
  70
    32
  0
VERTEX
  8
0
  5
743
 10
-7.95662
 20
-0.0635258
 30
0.000000
  70
    32
  0
VERTEX
  8
0
  5
744
 10
-7.95847
 20
-0.0622284
 30
0.000000
  70
    32
  0
VERTEX
  8
0
  5
745
 10
-7.96033
 20
-0.0609431
 30
0.000000
  70
    32
  0
VERTEX
  8
0
  5
746
 10
-7.96221
 20
-0.0596693
 30
0.000000
  70
    32
  0
VERTEX
  8
0
  5
747
 10
-7.96411
 20
-0.0584068
 30
0.000000
  70
    32
  0
VERTEX
  8
0
  5
748
 10
-7.96602
 20
-0.0571552
 30
0.000000
  70
    32
  0
VERTEX
  8
0
  5
749
 10
-7.96796
 20
-0.0559140
 30
0.000000
  70
    32
  0
VERTEX
  8
0
  5
74A
 10
-7.96991
 20
-0.0546829
 30
0.000000
  70
    32
  0
VERTEX
  8
0
  5
74B
 10
-7.97189
 20
-0.0534615
 30
0.000000
  70
    32
  0
VERTEX
  8
0
  5
74C
 10
-7.97388
 20
-0.0522494
 30
0.000000
  70
    32
  0
VERTEX
  8
0
  5
74D
 10
-7.97590
 20
-0.0510463
 30
0.000000
  70
    32
  0
VERTEX
  8
0
  5
74E
 10
-7.97794
 20
-0.0498517
 30
0.000000
  70
    32
  0
VERTEX
  8
0
  5
74F
 10
-7.98000
 20
-0.0486654
 30
0.000000
  70
    32
  0
VERTEX
  8
0
  5
750
 10
-7.98209
 20
-0.0474868
 30
0.000000
  70
    32
  0
VERTEX
  8
0
  5
751
 10
-7.98420
 20
-0.0463157
 30
0.000000
  70
    32
  0
VERTEX
  8
0
  5
752
 10
-7.98634
 20
-0.0451516
 30
0.000000
  70
    32
  0
VERTEX
  8
0
  5
753
 10
-7.98850
 20
-0.0439942
 30
0.000000
  70
    32
  0
VERTEX
  8
0
  5
754
 10
-7.99068
 20
-0.0428431
 30
0.000000
  70
    32
  0
VERTEX
  8
0
  5
755
 10
-7.99289
 20
-0.0416978
 30
0.000000
  70
    32
  0
VERTEX
  8
0
  5
756
 10
-7.99513
 20
-0.0405581
 30
0.000000
  70
    32
  0
VERTEX
  8
0
  5
757
 10
-7.99740
 20
-0.0394236
 30
0.000000
  70
    32
  0
VERTEX
  8
0
  5
758
 10
-7.99969
 20
-0.0382938
 30
0.000000
  70
    32
  0
VERTEX
  8
0
  5
759
 10
-8.00202
 20
-0.0371684
 30
0.000000
  70
    32
  0
VERTEX
  8
0
  5
75A
 10
-8.00437
 20
-0.0360470
 30
0.000000
  70
    32
  0
VERTEX
  8
0
  5
75B
 10
-8.00675
 20
-0.0349292
 30
0.000000
  70
    32
  0
VERTEX
  8
0
  5
75C
 10
-8.00916
 20
-0.0338147
 30
0.000000
  70
    32
  0
VERTEX
  8
0
  5
75D
 10
-8.01160
 20
-0.0327030
 30
0.000000
  70
    32
  0
VERTEX
  8
0
  5
75E
 10
-8.01408
 20
-0.0315938
 30
0.000000
  70
    32
  0
VERTEX
  8
0
  5
75F
 10
-8.01658
 20
-0.0304867
 30
0.000000
  70
    32
  0
VERTEX
  8
0
  5
760
 10
-8.01912
 20
-0.0293814
 30
0.000000
  70
    32
  0
VERTEX
  8
0
  5
761
 10
-8.02169
 20
-0.0282773
 30
0.000000
  70
    32
  0
VERTEX
  8
0
  5
762
 10
-8.02429
 20
-0.0271743
 30
0.000000
  70
    32
  0
VERTEX
  8
0
  5
763
 10
-8.02693
 20
-0.0260718
 30
0.000000
  70
    32
  0
VERTEX
  8
0
  5
764
 10
-8.02960
 20
-0.0249695
 30
0.000000
  70
    32
  0
VERTEX
  8
0
  5
765
 10
-8.03231
 20
-0.0238670
 30
0.000000
  70
    32
  0
VERTEX
  8
0
  5
766
 10
-8.03506
 20
-0.0227640
 30
0.000000
  70
    32
  0
VERTEX
  8
0
  5
767
 10
-8.03784
 20
-0.0216601
 30
0.000000
  70
    32
  0
VERTEX
  8
0
  5
768
 10
-8.04066
 20
-0.0205548
 30
0.000000
  70
    32
  0
VERTEX
  8
0
  5
769
 10
-8.04351
 20
-0.0194478
 30
0.000000
  70
    32
  0
VERTEX
  8
0
  5
76A
 10
-8.04641
 20
-0.0183387
 30
0.000000
  70
    32
  0
VERTEX
  8
0
  5
76B
 10
-8.04934
 20
-0.0172272
 30
0.000000
  70
    32
  0
VERTEX
  8
0
  5
76C
 10
-8.05231
 20
-0.0161128
 30
0.000000
  70
    32
  0
VERTEX
  8
0
  5
76D
 10
-8.05532
 20
-0.0149952
 30
0.000000
  70
    32
  0
VERTEX
  8
0
  5
76E
 10
-8.05837
 20
-0.0138740
 30
0.000000
  70
    32
  0
VERTEX
  8
0
  5
76F
 10
-8.06147
 20
-0.0127488
 30
0.000000
  70
    32
  0
VERTEX
  8
0
  5
770
 10
-8.06460
 20
-0.0116192
 30
0.000000
  70
    32
  0
VERTEX
  8
0
  5
771
 10
-8.06778
 20
-0.0104850
 30
0.000000
  70
    32
  0
VERTEX
  8
0
  5
772
 10
-8.07100
 20
-0.00934553
 30
0.000000
  70
    32
  0
VERTEX
  8
0
  5
773
 10
-8.07426
 20
-0.00820060
 30
0.000000
  70
    32
  0
VERTEX
  8
0
  5
774
 10
-8.07757
 20
-0.00704979
 30
0.000000
  70
    32
  0
VERTEX
  8
0
  5
775
 10
-8.08092
 20
-0.00589271
 30
0.000000
  70
    32
  0
VERTEX
  8
0
  5
776
 10
-8.08431
 20
-0.00472898
 30
0.000000
  70
    32
  0
VERTEX
  8
0
  5
777
 10
-8.08775
 20
-0.00355823
 30
0.000000
  70
    32
  0
VERTEX
  8
0
  5
778
 10
-8.09124
 20
-0.00238007
 30
0.000000
  70
    32
  0
VERTEX
  8
0
  5
779
 10
-8.09477
 20
-0.00119412
 30
0.000000
  70
    32
  0
VERTEX
  8
0
  5
77A
 10
-8.09836
 20
-1.52189e-012
 30
0.000000
  70
    32
  0
SEQEND
  8
0
  5
77B
  0
POLYLINE
  5
81
  8
0
  6
HIDDEN2
 66
     1
 10
0.0
 20
0.0
 30
0.0
  0
VERTEX
  5
82
  8
0
  6
HIDDEN2
 10
2.3442753025742742
 20
-7.139378948941256
 30
0.0
  0
VERTEX
  5
83
  8
0
  6
HIDDEN2
 10
2.450503156484785
 20
-7.0327175119535488
 30
0.0
  0
SEQEND
  5
84
  8
0
  6
HIDDEN2
  0
POLYLINE
  8
0
  5
77C
  66
     1
 10
0.000000
 20
0.000000
 30
0.000000
  70
     8
  0
VERTEX
  8
0
  5
77D
 10
-8.52457
 20
1.06553
 30
0.000000
  70
    32
  0
VERTEX
  8
0
  5
77E
 10
-8.52588
 20
1.06488
 30
0.000000
  70
    32
  0
VERTEX
  8
0
  5
77F
 10
-8.52720
 20
1.06424
 30
0.000000
  70
    32
  0
VERTEX
  8
0
  5
780
 10
-8.52851
 20
1.06360
 30
0.000000
  70
    32
  0
VERTEX
  8
0
  5
781
 10
-8.52983
 20
1.06297
 30
0.000000
  70
    32
  0
VERTEX
  8
0
  5
782
 10
-8.53115
 20
1.06235
 30
0.000000
  70
    32
  0
VERTEX
  8
0
  5
783
 10
-8.53248
 20
1.06173
 30
0.000000
  70
    32
  0
VERTEX
  8
0
  5
784
 10
-8.53380
 20
1.06112
 30
0.000000
  70
    32
  0
VERTEX
  8
0
  5
785
 10
-8.53513
 20
1.06052
 30
0.000000
  70
    32
  0
VERTEX
  8
0
  5
786
 10
-8.53646
 20
1.05992
 30
0.000000
  70
    32
  0
VERTEX
  8
0
  5
787
 10
-8.53778
 20
1.05933
 30
0.000000
  70
    32
  0
VERTEX
  8
0
  5
788
 10
-8.53911
 20
1.05875
 30
0.000000
  70
    32
  0
VERTEX
  8
0
  5
789
 10
-8.54044
 20
1.05817
 30
0.000000
  70
    32
  0
VERTEX
  8
0
  5
78A
 10
-8.54177
 20
1.05759
 30
0.000000
  70
    32
  0
VERTEX
  8
0
  5
78B
 10
-8.54310
 20
1.05702
 30
0.000000
  70
    32
  0
VERTEX
  8
0
  5
78C
 10
-8.54442
 20
1.05645
 30
0.000000
  70
    32
  0
VERTEX
  8
0
  5
78D
 10
-8.54575
 20
1.05589
 30
0.000000
  70
    32
  0
VERTEX
  8
0
  5
78E
 10
-8.54708
 20
1.05533
 30
0.000000
  70
    32
  0
VERTEX
  8
0
  5
78F
 10
-8.54840
 20
1.05478
 30
0.000000
  70
    32
  0
VERTEX
  8
0
  5
790
 10
-8.54972
 20
1.05422
 30
0.000000
  70
    32
  0
VERTEX
  8
0
  5
791
 10
-8.55104
 20
1.05368
 30
0.000000
  70
    32
  0
VERTEX
  8
0
  5
792
 10
-8.55236
 20
1.05313
 30
0.000000
  70
    32
  0
VERTEX
  8
0
  5
793
 10
-8.55368
 20
1.05259
 30
0.000000
  70
    32
  0
VERTEX
  8
0
  5
794
 10
-8.55499
 20
1.05205
 30
0.000000
  70
    32
  0
VERTEX
  8
0
  5
795
 10
-8.55631
 20
1.05151
 30
0.000000
  70
    32
  0
VERTEX
  8
0
  5
796
 10
-8.55762
 20
1.05097
 30
0.000000
  70
    32
  0
VERTEX
  8
0
  5
797
 10
-8.55892
 20
1.05043
 30
0.000000
  70
    32
  0
VERTEX
  8
0
  5
798
 10
-8.56022
 20
1.04990
 30
0.000000
  70
    32
  0
VERTEX
  8
0
  5
799
 10
-8.56152
 20
1.04937
 30
0.000000
  70
    32
  0
VERTEX
  8
0
  5
79A
 10
-8.56282
 20
1.04884
 30
0.000000
  70
    32
  0
VERTEX
  8
0
  5
79B
 10
-8.56411
 20
1.04830
 30
0.000000
  70
    32
  0
VERTEX
  8
0
  5
79C
 10
-8.56539
 20
1.04777
 30
0.000000
  70
    32
  0
VERTEX
  8
0
  5
79D
 10
-8.56667
 20
1.04724
 30
0.000000
  70
    32
  0
VERTEX
  8
0
  5
79E
 10
-8.56795
 20
1.04671
 30
0.000000
  70
    32
  0
VERTEX
  8
0
  5
79F
 10
-8.56922
 20
1.04618
 30
0.000000
  70
    32
  0
VERTEX
  8
0
  5
7A0
 10
-8.57049
 20
1.04565
 30
0.000000
  70
    32
  0
VERTEX
  8
0
  5
7A1
 10
-8.57175
 20
1.04511
 30
0.000000
  70
    32
  0
VERTEX
  8
0
  5
7A2
 10
-8.57300
 20
1.04458
 30
0.000000
  70
    32
  0
VERTEX
  8
0
  5
7A3
 10
-8.57425
 20
1.04404
 30
0.000000
  70
    32
  0
VERTEX
  8
0
  5
7A4
 10
-8.57549
 20
1.04350
 30
0.000000
  70
    32
  0
VERTEX
  8
0
  5
7A5
 10
-8.57673
 20
1.04296
 30
0.000000
  70
    32
  0
VERTEX
  8
0
  5
7A6
 10
-8.57796
 20
1.04242
 30
0.000000
  70
    32
  0
VERTEX
  8
0
  5
7A7
 10
-8.57918
 20
1.04187
 30
0.000000
  70
    32
  0
VERTEX
  8
0
  5
7A8
 10
-8.58039
 20
1.04133
 30
0.000000
  70
    32
  0
VERTEX
  8
0
  5
7A9
 10
-8.58160
 20
1.04077
 30
0.000000
  70
    32
  0
VERTEX
  8
0
  5
7AA
 10
-8.58280
 20
1.04022
 30
0.000000
  70
    32
  0
VERTEX
  8
0
  5
7AB
 10
-8.58399
 20
1.03966
 30
0.000000
  70
    32
  0
VERTEX
  8
0
  5
7AC
 10
-8.58517
 20
1.03910
 30
0.000000
  70
    32
  0
VERTEX
  8
0
  5
7AD
 10
-8.58635
 20
1.03854
 30
0.000000
  70
    32
  0
VERTEX
  8
0
  5
7AE
 10
-8.58751
 20
1.03797
 30
0.000000
  70
    32
  0
VERTEX
  8
0
  5
7AF
 10
-8.58867
 20
1.03739
 30
0.000000
  70
    32
  0
VERTEX
  8
0
  5
7B0
 10
-8.58981
 20
1.03681
 30
0.000000
  70
    32
  0
VERTEX
  8
0
  5
7B1
 10
-8.59095
 20
1.03623
 30
0.000000
  70
    32
  0
VERTEX
  8
0
  5
7B2
 10
-8.59208
 20
1.03564
 30
0.000000
  70
    32
  0
VERTEX
  8
0
  5
7B3
 10
-8.59320
 20
1.03504
 30
0.000000
  70
    32
  0
VERTEX
  8
0
  5
7B4
 10
-8.59430
 20
1.03444
 30
0.000000
  70
    32
  0
VERTEX
  8
0
  5
7B5
 10
-8.59540
 20
1.03383
 30
0.000000
  70
    32
  0
VERTEX
  8
0
  5
7B6
 10
-8.59648
 20
1.03322
 30
0.000000
  70
    32
  0
VERTEX
  8
0
  5
7B7
 10
-8.59756
 20
1.03260
 30
0.000000
  70
    32
  0
VERTEX
  8
0
  5
7B8
 10
-8.59862
 20
1.03197
 30
0.000000
  70
    32
  0
VERTEX
  8
0
  5
7B9
 10
-8.59968
 20
1.03134
 30
0.000000
  70
    32
  0
VERTEX
  8
0
  5
7BA
 10
-8.60072
 20
1.03069
 30
0.000000
  70
    32
  0
VERTEX
  8
0
  5
7BB
 10
-8.60174
 20
1.03004
 30
0.000000
  70
    32
  0
VERTEX
  8
0
  5
7BC
 10
-8.60276
 20
1.02939
 30
0.000000
  70
    32
  0
VERTEX
  8
0
  5
7BD
 10
-8.60376
 20
1.02872
 30
0.000000
  70
    32
  0
VERTEX
  8
0
  5
7BE
 10
-8.60476
 20
1.02805
 30
0.000000
  70
    32
  0
VERTEX
  8
0
  5
7BF
 10
-8.60573
 20
1.02736
 30
0.000000
  70
    32
  0
VERTEX
  8
0
  5
7C0
 10
-8.60670
 20
1.02667
 30
0.000000
  70
    32
  0
VERTEX
  8
0
  5
7C1
 10
-8.60765
 20
1.02597
 30
0.000000
  70
    32
  0
VERTEX
  8
0
  5
7C2
 10
-8.60859
 20
1.02526
 30
0.000000
  70
    32
  0
VERTEX
  8
0
  5
7C3
 10
-8.60951
 20
1.02454
 30
0.000000
  70
    32
  0
VERTEX
  8
0
  5
7C4
 10
-8.61042
 20
1.02381
 30
0.000000
  70
    32
  0
VERTEX
  8
0
  5
7C5
 10
-8.61132
 20
1.02307
 30
0.000000
  70
    32
  0
VERTEX
  8
0
  5
7C6
 10
-8.61220
 20
1.02232
 30
0.000000
  70
    32
  0
VERTEX
  8
0
  5
7C7
 10
-8.61306
 20
1.02156
 30
0.000000
  70
    32
  0
VERTEX
  8
0
  5
7C8
 10
-8.61391
 20
1.02078
 30
0.000000
  70
    32
  0
VERTEX
  8
0
  5
7C9
 10
-8.61475
 20
1.02000
 30
0.000000
  70
    32
  0
VERTEX
  8
0
  5
7CA
 10
-8.61557
 20
1.01921
 30
0.000000
  70
    32
  0
VERTEX
  8
0
  5
7CB
 10
-8.61637
 20
1.01840
 30
0.000000
  70
    32
  0
VERTEX
  8
0
  5
7CC
 10
-8.61716
 20
1.01758
 30
0.000000
  70
    32
  0
VERTEX
  8
0
  5
7CD
 10
-8.61793
 20
1.01675
 30
0.000000
  70
    32
  0
VERTEX
  8
0
  5
7CE
 10
-8.61868
 20
1.01590
 30
0.000000
  70
    32
  0
VERTEX
  8
0
  5
7CF
 10
-8.61942
 20
1.01505
 30
0.000000
  70
    32
  0
VERTEX
  8
0
  5
7D0
 10
-8.62014
 20
1.01418
 30
0.000000
  70
    32
  0
VERTEX
  8
0
  5
7D1
 10
-8.62085
 20
1.01329
 30
0.000000
  70
    32
  0
VERTEX
  8
0
  5
7D2
 10
-8.62153
 20
1.01240
 30
0.000000
  70
    32
  0
VERTEX
  8
0
  5
7D3
 10
-8.62220
 20
1.01149
 30
0.000000
  70
    32
  0
VERTEX
  8
0
  5
7D4
 10
-8.62285
 20
1.01056
 30
0.000000
  70
    32
  0
VERTEX
  8
0
  5
7D5
 10
-8.62348
 20
1.00962
 30
0.000000
  70
    32
  0
VERTEX
  8
0
  5
7D6
 10
-8.62409
 20
1.00867
 30
0.000000
  70
    32
  0
VERTEX
  8
0
  5
7D7
 10
-8.62469
 20
1.00770
 30
0.000000
  70
    32
  0
VERTEX
  8
0
  5
7D8
 10
-8.62526
 20
1.00672
 30
0.000000
  70
    32
  0
VERTEX
  8
0
  5
7D9
 10
-8.62582
 20
1.00572
 30
0.000000
  70
    32
  0
VERTEX
  8
0
  5
7DA
 10
-8.62636
 20
1.00470
 30
0.000000
  70
    32
  0
VERTEX
  8
0
  5
7DB
 10
-8.62687
 20
1.00367
 30
0.000000
  70
    32
  0
VERTEX
  8
0
  5
7DC
 10
-8.62737
 20
1.00263
 30
0.000000
  70
    32
  0
VERTEX
  8
0
  5
7DD
 10
-8.62785
 20
1.00156
 30
0.000000
  70
    32
  0
VERTEX
  8
0
  5
7DE
 10
-8.62830
 20
1.00048
 30
0.000000
  70
    32
  0
VERTEX
  8
0
  5
7DF
 10
-8.62874
 20
0.999388
 30
0.000000
  70
    32
  0
VERTEX
  8
0
  5
7E0
 10
-8.62915
 20
0.998274
 30
0.000000
  70
    32
  0
VERTEX
  8
0
  5
7E1
 10
-8.62954
 20
0.997143
 30
0.000000
  70
    32
  0
VERTEX
  8
0
  5
7E2
 10
-8.62991
 20
0.995995
 30
0.000000
  70
    32
  0
VERTEX
  8
0
  5
7E3
 10
-8.63026
 20
0.994828
 30
0.000000
  70
    32
  0
VERTEX
  8
0
  5
7E4
 10
-8.63059
 20
0.993643
 30
0.000000
  70
    32
  0
VERTEX
  8
0
  5
7E5
 10
-8.63090
 20
0.992440
 30
0.000000
  70
    32
  0
VERTEX
  8
0
  5
7E6
 10
-8.63118
 20
0.991218
 30
0.000000
  70
    32
  0
VERTEX
  8
0
  5
7E7
 10
-8.63144
 20
0.989977
 30
0.000000
  70
    32
  0
VERTEX
  8
0
  5
7E8
 10
-8.63168
 20
0.988717
 30
0.000000
  70
    32
  0
VERTEX
  8
0
  5
7E9
 10
-8.63189
 20
0.987437
 30
0.000000
  70
    32
  0
VERTEX
  8
0
  5
7EA
 10
-8.63208
 20
0.986138
 30
0.000000
  70
    32
  0
VERTEX
  8
0
  5
7EB
 10
-8.63225
 20
0.984819
 30
0.000000
  70
    32
  0
VERTEX
  8
0
  5
7EC
 10
-8.63239
 20
0.983479
 30
0.000000
  70
    32
  0
VERTEX
  8
0
  5
7ED
 10
-8.63251
 20
0.982119
 30
0.000000
  70
    32
  0
VERTEX
  8
0
  5
7EE
 10
-8.63261
 20
0.980739
 30
0.000000
  70
    32
  0
VERTEX
  8
0
  5
7EF
 10
-8.63268
 20
0.979337
 30
0.000000
  70
    32
  0
VERTEX
  8
0
  5
7F0
 10
-8.63272
 20
0.977914
 30
0.000000
  70
    32
  0
VERTEX
  8
0
  5
7F1
 10
-8.63274
 20
0.976469
 30
0.000000
  70
    32
  0
VERTEX
  8
0
  5
7F2
 10
-8.63274
 20
0.975003
 30
0.000000
  70
    32
  0
VERTEX
  8
0
  5
7F3
 10
-8.63270
 20
0.973515
 30
0.000000
  70
    32
  0
VERTEX
  8
0
  5
7F4
 10
-8.63265
 20
0.972004
 30
0.000000
  70
    32
  0
VERTEX
  8
0
  5
7F5
 10
-8.63256
 20
0.970471
 30
0.000000
  70
    32
  0
VERTEX
  8
0
  5
7F6
 10
-8.63245
 20
0.968915
 30
0.000000
  70
    32
  0
VERTEX
  8
0
  5
7F7
 10
-8.63232
 20
0.967336
 30
0.000000
  70
    32
  0
VERTEX
  8
0
  5
7F8
 10
-8.63216
 20
0.965733
 30
0.000000
  70
    32
  0
VERTEX
  8
0
  5
7F9
 10
-8.63197
 20
0.964108
 30
0.000000
  70
    32
  0
VERTEX
  8
0
  5
7FA
 10
-8.63175
 20
0.962458
 30
0.000000
  70
    32
  0
VERTEX
  8
0
  5
7FB
 10
-8.63150
 20
0.960784
 30
0.000000
  70
    32
  0
VERTEX
  8
0
  5
7FC
 10
-8.63123
 20
0.959086
 30
0.000000
  70
    32
  0
SEQEND
  8
0
  5
7FD
  0
POLYLINE
  5
86
  8
0
 66
     1
 10
0.0
 20
0.0
 30
0.0
  0
VERTEX
  5
87
  8
0
 10
-8.1514702468622033
 20
1.4917425770577211
 30
0.0
  0
VERTEX
  5
88
  8
0
 10
-8.3647931208376178
 20
1.278636494620911
 30
0.0
  0
SEQEND
  5
89
  8
0
  0
POLYLINE
  8
0
  5
7FE
  66
     1
 10
0.000000
 20
0.000000
 30
0.000000
  70
     8
  0
VERTEX
  8
0
  5
7FF
 10
-9.00000
 20
0.000000
 30
0.000000
  70
    32
  0
VERTEX
  8
0
  5
800
 10
-8.99999
 20
0.00446121
 30
0.000000
  70
    32
  0
VERTEX
  8
0
  5
801
 10
-8.99997
 20
0.00892041
 30
0.000000
  70
    32
  0
VERTEX
  8
0
  5
802
 10
-8.99993
 20
0.0133776
 30
0.000000
  70
    32
  0
VERTEX
  8
0
  5
803
 10
-8.99988
 20
0.0178327
 30
0.000000
  70
    32
  0
VERTEX
  8
0
  5
804
 10
-8.99981
 20
0.0222857
 30
0.000000
  70
    32
  0
VERTEX
  8
0
  5
805
 10
-8.99972
 20
0.0267366
 30
0.000000
  70
    32
  0
VERTEX
  8
0
  5
806
 10
-8.99962
 20
0.0311854
 30
0.000000
  70
    32
  0
VERTEX
  8
0
  5
807
 10
-8.99950
 20
0.0356320
 30
0.000000
  70
    32
  0
VERTEX
  8
0
  5
808
 10
-8.99937
 20
0.0400764
 30
0.000000
  70
    32
  0
VERTEX
  8
0
  5
809
 10
-8.99922
 20
0.0445187
 30
0.000000
  70
    32
  0
VERTEX
  8
0
  5
80A
 10
-8.99906
 20
0.0489586
 30
0.000000
  70
    32
  0
VERTEX
  8
0
  5
80B
 10
-8.99888
 20
0.0533964
 30
0.000000
  70
    32
  0
VERTEX
  8
0
  5
80C
 10
-8.99868
 20
0.0578318
 30
0.000000
  70
    32
  0
VERTEX
  8
0
  5
80D
 10
-8.99847
 20
0.0622650
 30
0.000000
  70
    32
  0
VERTEX
  8
0
  5
80E
 10
-8.99824
 20
0.0666958
 30
0.000000
  70
    32
  0
VERTEX
  8
0
  5
80F
 10
-8.99800
 20
0.0711243
 30
0.000000
  70
    32
  0
VERTEX
  8
0
  5
810
 10
-8.99774
 20
0.0755504
 30
0.000000
  70
    32
  0
VERTEX
  8
0
  5
811
 10
-8.99746
 20
0.0799741
 30
0.000000
  70
    32
  0
VERTEX
  8
0
  5
812
 10
-8.99717
 20
0.0843953
 30
0.000000
  70
    32
  0
VERTEX
  8
0
  5
813
 10
-8.99686
 20
0.0888141
 30
0.000000
  70
    32
  0
VERTEX
  8
0
  5
814
 10
-8.99654
 20
0.0932304
 30
0.000000
  70
    32
  0
VERTEX
  8
0
  5
815
 10
-8.99620
 20
0.0976443
 30
0.000000
  70
    32
  0
VERTEX
  8
0
  5
816
 10
-8.99584
 20
0.102056
 30
0.000000
  70
    32
  0
VERTEX
  8
0
  5
817
 10
-8.99546
 20
0.106464
 30
0.000000
  70
    32
  0
VERTEX
  8
0
  5
818
 10
-8.99507
 20
0.110871
 30
0.000000
  70
    32
  0
VERTEX
  8
0
  5
819
 10
-8.99467
 20
0.115274
 30
0.000000
  70
    32
  0
VERTEX
  8
0
  5
81A
 10
-8.99424
 20
0.119675
 30
0.000000
  70
    32
  0
VERTEX
  8
0
  5
81B
 10
-8.99380
 20
0.124073
 30
0.000000
  70
    32
  0
VERTEX
  8
0
  5
81C
 10
-8.99335
 20
0.128469
 30
0.000000
  70
    32
  0
VERTEX
  8
0
  5
81D
 10
-8.99287
 20
0.132862
 30
0.000000
  70
    32
  0
VERTEX
  8
0
  5
81E
 10
-8.99238
 20
0.137252
 30
0.000000
  70
    32
  0
VERTEX
  8
0
  5
81F
 10
-8.99187
 20
0.141640
 30
0.000000
  70
    32
  0
VERTEX
  8
0
  5
820
 10
-8.99135
 20
0.146024
 30
0.000000
  70
    32
  0
VERTEX
  8
0
  5
821
 10
-8.99081
 20
0.150406
 30
0.000000
  70
    32
  0
VERTEX
  8
0
  5
822
 10
-8.99025
 20
0.154785
 30
0.000000
  70
    32
  0
VERTEX
  8
0
  5
823
 10
-8.98968
 20
0.159162
 30
0.000000
  70
    32
  0
VERTEX
  8
0
  5
824
 10
-8.98908
 20
0.163535
 30
0.000000
  70
    32
  0
VERTEX
  8
0
  5
825
 10
-8.98848
 20
0.167906
 30
0.000000
  70
    32
  0
VERTEX
  8
0
  5
826
 10
-8.98785
 20
0.172273
 30
0.000000
  70
    32
  0
VERTEX
  8
0
  5
827
 10
-8.98721
 20
0.176638
 30
0.000000
  70
    32
  0
VERTEX
  8
0
  5
828
 10
-8.98654
 20
0.181000
 30
0.000000
  70
    32
  0
VERTEX
  8
0
  5
829
 10
-8.98587
 20
0.185358
 30
0.000000
  70
    32
  0
VERTEX
  8
0
  5
82A
 10
-8.98517
 20
0.189714
 30
0.000000
  70
    32
  0
VERTEX
  8
0
  5
82B
 10
-8.98446
 20
0.194067
 30
0.000000
  70
    32
  0
VERTEX
  8
0
  5
82C
 10
-8.98373
 20
0.198416
 30
0.000000
  70
    32
  0
VERTEX
  8
0
  5
82D
 10
-8.98298
 20
0.202763
 30
0.000000
  70
    32
  0
VERTEX
  8
0
  5
82E
 10
-8.98222
 20
0.207106
 30
0.000000
  70
    32
  0
VERTEX
  8
0
  5
82F
 10
-8.98143
 20
0.211446
 30
0.000000
  70
    32
  0
VERTEX
  8
0
  5
830
 10
-8.98063
 20
0.215783
 30
0.000000
  70
    32
  0
VERTEX
  8
0
  5
831
 10
-8.97982
 20
0.220117
 30
0.000000
  70
    32
  0
VERTEX
  8
0
  5
832
 10
-8.97898
 20
0.224448
 30
0.000000
  70
    32
  0
VERTEX
  8
0
  5
833
 10
-8.97813
 20
0.228776
 30
0.000000
  70
    32
  0
VERTEX
  8
0
  5
834
 10
-8.97726
 20
0.233100
 30
0.000000
  70
    32
  0
VERTEX
  8
0
  5
835
 10
-8.97637
 20
0.237421
 30
0.000000
  70
    32
  0
VERTEX
  8
0
  5
836
 10
-8.97546
 20
0.241738
 30
0.000000
  70
    32
  0
VERTEX
  8
0
  5
837
 10
-8.97454
 20
0.246053
 30
0.000000
  70
    32
  0
VERTEX
  8
0
  5
838
 10
-8.97360
 20
0.250364
 30
0.000000
  70
    32
  0
VERTEX
  8
0
  5
839
 10
-8.97264
 20
0.254671
 30
0.000000
  70
    32
  0
VERTEX
  8
0
  5
83A
 10
-8.97166
 20
0.258975
 30
0.000000
  70
    32
  0
VERTEX
  8
0
  5
83B
 10
-8.97066
 20
0.263276
 30
0.000000
  70
    32
  0
VERTEX
  8
0
  5
83C
 10
-8.96965
 20
0.267573
 30
0.000000
  70
    32
  0
VERTEX
  8
0
  5
83D
 10
-8.96861
 20
0.271867
 30
0.000000
  70
    32
  0
VERTEX
  8
0
  5
83E
 10
-8.96756
 20
0.276158
 30
0.000000
  70
    32
  0
VERTEX
  8
0
  5
83F
 10
-8.96649
 20
0.280444
 30
0.000000
  70
    32
  0
VERTEX
  8
0
  5
840
 10
-8.96540
 20
0.284728
 30
0.000000
  70
    32
  0
VERTEX
  8
0
  5
841
 10
-8.96430
 20
0.289007
 30
0.000000
  70
    32
  0
VERTEX
  8
0
  5
842
 10
-8.96317
 20
0.293283
 30
0.000000
  70
    32
  0
VERTEX
  8
0
  5
843
 10
-8.96203
 20
0.297556
 30
0.000000
  70
    32
  0
VERTEX
  8
0
  5
844
 10
-8.96087
 20
0.301825
 30
0.000000
  70
    32
  0
VERTEX
  8
0
  5
845
 10
-8.95969
 20
0.306090
 30
0.000000
  70
    32
  0
VERTEX
  8
0
  5
846
 10
-8.95849
 20
0.310351
 30
0.000000
  70
    32
  0
VERTEX
  8
0
  5
847
 10
-8.95727
 20
0.314609
 30
0.000000
  70
    32
  0
VERTEX
  8
0
  5
848
 10
-8.95604
 20
0.318863
 30
0.000000
  70
    32
  0
VERTEX
  8
0
  5
849
 10
-8.95478
 20
0.323113
 30
0.000000
  70
    32
  0
VERTEX
  8
0
  5
84A
 10
-8.95351
 20
0.327359
 30
0.000000
  70
    32
  0
VERTEX
  8
0
  5
84B
 10
-8.95222
 20
0.331602
 30
0.000000
  70
    32
  0
VERTEX
  8
0
  5
84C
 10
-8.95091
 20
0.335841
 30
0.000000
  70
    32
  0
VERTEX
  8
0
  5
84D
 10
-8.94958
 20
0.340076
 30
0.000000
  70
    32
  0
VERTEX
  8
0
  5
84E
 10
-8.94823
 20
0.344307
 30
0.000000
  70
    32
  0
VERTEX
  8
0
  5
84F
 10
-8.94686
 20
0.348534
 30
0.000000
  70
    32
  0
VERTEX
  8
0
  5
850
 10
-8.94547
 20
0.352757
 30
0.000000
  70
    32
  0
VERTEX
  8
0
  5
851
 10
-8.94407
 20
0.356976
 30
0.000000
  70
    32
  0
VERTEX
  8
0
  5
852
 10
-8.94264
 20
0.361191
 30
0.000000
  70
    32
  0
VERTEX
  8
0
  5
853
 10
-8.94120
 20
0.365402
 30
0.000000
  70
    32
  0
VERTEX
  8
0
  5
854
 10
-8.93973
 20
0.369609
 30
0.000000
  70
    32
  0
VERTEX
  8
0
  5
855
 10
-8.93825
 20
0.373813
 30
0.000000
  70
    32
  0
VERTEX
  8
0
  5
856
 10
-8.93675
 20
0.378012
 30
0.000000
  70
    32
  0
VERTEX
  8
0
  5
857
 10
-8.93523
 20
0.382206
 30
0.000000
  70
    32
  0
VERTEX
  8
0
  5
858
 10
-8.93368
 20
0.386397
 30
0.000000
  70
    32
  0
VERTEX
  8
0
  5
859
 10
-8.93212
 20
0.390584
 30
0.000000
  70
    32
  0
VERTEX
  8
0
  5
85A
 10
-8.93054
 20
0.394766
 30
0.000000
  70
    32
  0
VERTEX
  8
0
  5
85B
 10
-8.92894
 20
0.398944
 30
0.000000
  70
    32
  0
VERTEX
  8
0
  5
85C
 10
-8.92732
 20
0.403118
 30
0.000000
  70
    32
  0
VERTEX
  8
0
  5
85D
 10
-8.92569
 20
0.407288
 30
0.000000
  70
    32
  0
VERTEX
  8
0
  5
85E
 10
-8.92403
 20
0.411453
 30
0.000000
  70
    32
  0
VERTEX
  8
0
  5
85F
 10
-8.92235
 20
0.415614
 30
0.000000
  70
    32
  0
VERTEX
  8
0
  5
860
 10
-8.92065
 20
0.419771
 30
0.000000
  70
    32
  0
VERTEX
  8
0
  5
861
 10
-8.91893
 20
0.423924
 30
0.000000
  70
    32
  0
VERTEX
  8
0
  5
862
 10
-8.91719
 20
0.428072
 30
0.000000
  70
    32
  0
VERTEX
  8
0
  5
863
 10
-8.91544
 20
0.432215
 30
0.000000
  70
    32
  0
VERTEX
  8
0
  5
864
 10
-8.91366
 20
0.436355
 30
0.000000
  70
    32
  0
VERTEX
  8
0
  5
865
 10
-8.91186
 20
0.440489
 30
0.000000
  70
    32
  0
VERTEX
  8
0
  5
866
 10
-8.91004
 20
0.444620
 30
0.000000
  70
    32
  0
VERTEX
  8
0
  5
867
 10
-8.90820
 20
0.448745
 30
0.000000
  70
    32
  0
VERTEX
  8
0
  5
868
 10
-8.90635
 20
0.452867
 30
0.000000
  70
    32
  0
VERTEX
  8
0
  5
869
 10
-8.90447
 20
0.456983
 30
0.000000
  70
    32
  0
VERTEX
  8
0
  5
86A
 10
-8.90257
 20
0.461096
 30
0.000000
  70
    32
  0
VERTEX
  8
0
  5
86B
 10
-8.90065
 20
0.465203
 30
0.000000
  70
    32
  0
VERTEX
  8
0
  5
86C
 10
-8.89871
 20
0.469306
 30
0.000000
  70
    32
  0
VERTEX
  8
0
  5
86D
 10
-8.89675
 20
0.473404
 30
0.000000
  70
    32
  0
VERTEX
  8
0
  5
86E
 10
-8.89477
 20
0.477498
 30
0.000000
  70
    32
  0
VERTEX
  8
0
  5
86F
 10
-8.89263
 20
0.481858
 30
0.000000
  70
    32
  0
VERTEX
  8
0
  5
870
 10
-8.89034
 20
0.486472
 30
0.000000
  70
    32
  0
VERTEX
  8
0
  5
871
 10
-8.88804
 20
0.491062
 30
0.000000
  70
    32
  0
VERTEX
  8
0
  5
872
 10
-8.88572
 20
0.495629
 30
0.000000
  70
    32
  0
VERTEX
  8
0
  5
873
 10
-8.88338
 20
0.500173
 30
0.000000
  70
    32
  0
VERTEX
  8
0
  5
874
 10
-8.88104
 20
0.504695
 30
0.000000
  70
    32
  0
VERTEX
  8
0
  5
875
 10
-8.87868
 20
0.509196
 30
0.000000
  70
    32
  0
VERTEX
  8
0
  5
876
 10
-8.87630
 20
0.513676
 30
0.000000
  70
    32
  0
VERTEX
  8
0
  5
877
 10
-8.87392
 20
0.518136
 30
0.000000
  70
    32
  0
VERTEX
  8
0
  5
878
 10
-8.87152
 20
0.522575
 30
0.000000
  70
    32
  0
VERTEX
  8
0
  5
879
 10
-8.86911
 20
0.526995
 30
0.000000
  70
    32
  0
VERTEX
  8
0
  5
87A
 10
-8.86668
 20
0.531396
 30
0.000000
  70
    32
  0
VERTEX
  8
0
  5
87B
 10
-8.86425
 20
0.535779
 30
0.000000
  70
    32
  0
VERTEX
  8
0
  5
87C
 10
-8.86181
 20
0.540143
 30
0.000000
  70
    32
  0
VERTEX
  8
0
  5
87D
 10
-8.85935
 20
0.544489
 30
0.000000
  70
    32
  0
VERTEX
  8
0
  5
87E
 10
-8.85689
 20
0.548819
 30
0.000000
  70
    32
  0
VERTEX
  8
0
  5
87F
 10
-8.85441
 20
0.553132
 30
0.000000
  70
    32
  0
VERTEX
  8
0
  5
880
 10
-8.85193
 20
0.557429
 30
0.000000
  70
    32
  0
VERTEX
  8
0
  5
881
 10
-8.84944
 20
0.561710
 30
0.000000
  70
    32
  0
VERTEX
  8
0
  5
882
 10
-8.84694
 20
0.565976
 30
0.000000
  70
    32
  0
VERTEX
  8
0
  5
883
 10
-8.84443
 20
0.570228
 30
0.000000
  70
    32
  0
VERTEX
  8
0
  5
884
 10
-8.84191
 20
0.574465
 30
0.000000
  70
    32
  0
VERTEX
  8
0
  5
885
 10
-8.83939
 20
0.578688
 30
0.000000
  70
    32
  0
VERTEX
  8
0
  5
886
 10
-8.83685
 20
0.582899
 30
0.000000
  70
    32
  0
VERTEX
  8
0
  5
887
 10
-8.83432
 20
0.587097
 30
0.000000
  70
    32
  0
VERTEX
  8
0
  5
888
 10
-8.83177
 20
0.591282
 30
0.000000
  70
    32
  0
VERTEX
  8
0
  5
889
 10
-8.82922
 20
0.595456
 30
0.000000
  70
    32
  0
VERTEX
  8
0
  5
88A
 10
-8.82667
 20
0.599618
 30
0.000000
  70
    32
  0
VERTEX
  8
0
  5
88B
 10
-8.82411
 20
0.603770
 30
0.000000
  70
    32
  0
VERTEX
  8
0
  5
88C
 10
-8.82154
 20
0.607912
 30
0.000000
  70
    32
  0
VERTEX
  8
0
  5
88D
 10
-8.81897
 20
0.612043
 30
0.000000
  70
    32
  0
VERTEX
  8
0
  5
88E
 10
-8.81640
 20
0.616166
 30
0.000000
  70
    32
  0
VERTEX
  8
0
  5
88F
 10
-8.81382
 20
0.620279
 30
0.000000
  70
    32
  0
VERTEX
  8
0
  5
890
 10
-8.81124
 20
0.624385
 30
0.000000
  70
    32
  0
VERTEX
  8
0
  5
891
 10
-8.80866
 20
0.628482
 30
0.000000
  70
    32
  0
VERTEX
  8
0
  5
892
 10
-8.80608
 20
0.632572
 30
0.000000
  70
    32
  0
VERTEX
  8
0
  5
893
 10
-8.80349
 20
0.636656
 30
0.000000
  70
    32
  0
VERTEX
  8
0
  5
894
 10
-8.80090
 20
0.640733
 30
0.000000
  70
    32
  0
VERTEX
  8
0
  5
895
 10
-8.79831
 20
0.644804
 30
0.000000
  70
    32
  0
VERTEX
  8
0
  5
896
 10
-8.79572
 20
0.648870
 30
0.000000
  70
    32
  0
VERTEX
  8
0
  5
897
 10
-8.79313
 20
0.652930
 30
0.000000
  70
    32
  0
VERTEX
  8
0
  5
898
 10
-8.79053
 20
0.656987
 30
0.000000
  70
    32
  0
VERTEX
  8
0
  5
899
 10
-8.78794
 20
0.661039
 30
0.000000
  70
    32
  0
VERTEX
  8
0
  5
89A
 10
-8.78535
 20
0.665088
 30
0.000000
  70
    32
  0
VERTEX
  8
0
  5
89B
 10
-8.78276
 20
0.669135
 30
0.000000
  70
    32
  0
VERTEX
  8
0
  5
89C
 10
-8.78017
 20
0.673178
 30
0.000000
  70
    32
  0
VERTEX
  8
0
  5
89D
 10
-8.77758
 20
0.677220
 30
0.000000
  70
    32
  0
VERTEX
  8
0
  5
89E
 10
-8.77500
 20
0.681260
 30
0.000000
  70
    32
  0
VERTEX
  8
0
  5
89F
 10
-8.77242
 20
0.685299
 30
0.000000
  70
    32
  0
VERTEX
  8
0
  5
8A0
 10
-8.76984
 20
0.689338
 30
0.000000
  70
    32
  0
VERTEX
  8
0
  5
8A1
 10
-8.76726
 20
0.693377
 30
0.000000
  70
    32
  0
VERTEX
  8
0
  5
8A2
 10
-8.76469
 20
0.697416
 30
0.000000
  70
    32
  0
VERTEX
  8
0
  5
8A3
 10
-8.76212
 20
0.701456
 30
0.000000
  70
    32
  0
VERTEX
  8
0
  5
8A4
 10
-8.75955
 20
0.705498
 30
0.000000
  70
    32
  0
VERTEX
  8
0
  5
8A5
 10
-8.75699
 20
0.709541
 30
0.000000
  70
    32
  0
VERTEX
  8
0
  5
8A6
 10
-8.75444
 20
0.713587
 30
0.000000
  70
    32
  0
VERTEX
  8
0
  5
8A7
 10
-8.75189
 20
0.717636
 30
0.000000
  70
    32
  0
VERTEX
  8
0
  5
8A8
 10
-8.74935
 20
0.721688
 30
0.000000
  70
    32
  0
VERTEX
  8
0
  5
8A9
 10
-8.74681
 20
0.725744
 30
0.000000
  70
    32
  0
VERTEX
  8
0
  5
8AA
 10
-8.74428
 20
0.729805
 30
0.000000
  70
    32
  0
VERTEX
  8
0
  5
8AB
 10
-8.74176
 20
0.733870
 30
0.000000
  70
    32
  0
VERTEX
  8
0
  5
8AC
 10
-8.73924
 20
0.737941
 30
0.000000
  70
    32
  0
VERTEX
  8
0
  5
8AD
 10
-8.73673
 20
0.742018
 30
0.000000
  70
    32
  0
VERTEX
  8
0
  5
8AE
 10
-8.73423
 20
0.746101
 30
0.000000
  70
    32
  0
VERTEX
  8
0
  5
8AF
 10
-8.73174
 20
0.750190
 30
0.000000
  70
    32
  0
VERTEX
  8
0
  5
8B0
 10
-8.72926
 20
0.754287
 30
0.000000
  70
    32
  0
VERTEX
  8
0
  5
8B1
 10
-8.72679
 20
0.758392
 30
0.000000
  70
    32
  0
VERTEX
  8
0
  5
8B2
 10
-8.72432
 20
0.762505
 30
0.000000
  70
    32
  0
VERTEX
  8
0
  5
8B3
 10
-8.72187
 20
0.766627
 30
0.000000
  70
    32
  0
VERTEX
  8
0
  5
8B4
 10
-8.71943
 20
0.770758
 30
0.000000
  70
    32
  0
VERTEX
  8
0
  5
8B5
 10
-8.71699
 20
0.774899
 30
0.000000
  70
    32
  0
VERTEX
  8
0
  5
8B6
 10
-8.71457
 20
0.779050
 30
0.000000
  70
    32
  0
VERTEX
  8
0
  5
8B7
 10
-8.71216
 20
0.783212
 30
0.000000
  70
    32
  0
VERTEX
  8
0
  5
8B8
 10
-8.70976
 20
0.787385
 30
0.000000
  70
    32
  0
VERTEX
  8
0
  5
8B9
 10
-8.70738
 20
0.791570
 30
0.000000
  70
    32
  0
VERTEX
  8
0
  5
8BA
 10
-8.70501
 20
0.795767
 30
0.000000
  70
    32
  0
VERTEX
  8
0
  5
8BB
 10
-8.70265
 20
0.799976
 30
0.000000
  70
    32
  0
VERTEX
  8
0
  5
8BC
 10
-8.70030
 20
0.804199
 30
0.000000
  70
    32
  0
VERTEX
  8
0
  5
8BD
 10
-8.69797
 20
0.808435
 30
0.000000
  70
    32
  0
VERTEX
  8
0
  5
8BE
 10
-8.69565
 20
0.812686
 30
0.000000
  70
    32
  0
VERTEX
  8
0
  5
8BF
 10
-8.69335
 20
0.816951
 30
0.000000
  70
    32
  0
VERTEX
  8
0
  5
8C0
 10
-8.69106
 20
0.821231
 30
0.000000
  70
    32
  0
VERTEX
  8
0
  5
8C1
 10
-8.68878
 20
0.825527
 30
0.000000
  70
    32
  0
VERTEX
  8
0
  5
8C2
 10
-8.68653
 20
0.829839
 30
0.000000
  70
    32
  0
VERTEX
  8
0
  5
8C3
 10
-8.68428
 20
0.834168
 30
0.000000
  70
    32
  0
VERTEX
  8
0
  5
8C4
 10
-8.68206
 20
0.838513
 30
0.000000
  70
    32
  0
VERTEX
  8
0
  5
8C5
 10
-8.67985
 20
0.842876
 30
0.000000
  70
    32
  0
VERTEX
  8
0
  5
8C6
 10
-8.67766
 20
0.847258
 30
0.000000
  70
    32
  0
VERTEX
  8
0
  5
8C7
 10
-8.67549
 20
0.851657
 30
0.000000
  70
    32
  0
VERTEX
  8
0
  5
8C8
 10
-8.67333
 20
0.856076
 30
0.000000
  70
    32
  0
VERTEX
  8
0
  5
8C9
 10
-8.67120
 20
0.860514
 30
0.000000
  70
    32
  0
VERTEX
  8
0
  5
8CA
 10
-8.66908
 20
0.864972
 30
0.000000
  70
    32
  0
VERTEX
  8
0
  5
8CB
 10
-8.66698
 20
0.869451
 30
0.000000
  70
    32
  0
VERTEX
  8
0
  5
8CC
 10
-8.66490
 20
0.873951
 30
0.000000
  70
    32
  0
VERTEX
  8
0
  5
8CD
 10
-8.66284
 20
0.878472
 30
0.000000
  70
    32
  0
VERTEX
  8
0
  5
8CE
 10
-8.66080
 20
0.883015
 30
0.000000
  70
    32
  0
VERTEX
  8
0
  5
8CF
 10
-8.65878
 20
0.887580
 30
0.000000
  70
    32
  0
VERTEX
  8
0
  5
8D0
 10
-8.65678
 20
0.892169
 30
0.000000
  70
    32
  0
VERTEX
  8
0
  5
8D1
 10
-8.65481
 20
0.896780
 30
0.000000
  70
    32
  0
VERTEX
  8
0
  5
8D2
 10
-8.65285
 20
0.901416
 30
0.000000
  70
    32
  0
VERTEX
  8
0
  5
8D3
 10
-8.65092
 20
0.906076
 30
0.000000
  70
    32
  0
VERTEX
  8
0
  5
8D4
 10
-8.64901
 20
0.910761
 30
0.000000
  70
    32
  0
VERTEX
  8
0
  5
8D5
 10
-8.64712
 20
0.915471
 30
0.000000
  70
    32
  0
VERTEX
  8
0
  5
8D6
 10
-8.64526
 20
0.920208
 30
0.000000
  70
    32
  0
VERTEX
  8
0
  5
8D7
 10
-8.64342
 20
0.924970
 30
0.000000
  70
    32
  0
VERTEX
  8
0
  5
8D8
 10
-8.64160
 20
0.929759
 30
0.000000
  70
    32
  0
VERTEX
  8
0
  5
8D9
 10
-8.63981
 20
0.934576
 30
0.000000
  70
    32
  0
VERTEX
  8
0
  5
8DA
 10
-8.63804
 20
0.939420
 30
0.000000
  70
    32
  0
VERTEX
  8
0
  5
8DB
 10
-8.63630
 20
0.944293
 30
0.000000
  70
    32
  0
VERTEX
  8
0
  5
8DC
 10
-8.63458
 20
0.949195
 30
0.000000
  70
    32
  0
VERTEX
  8
0
  5
8DD
 10
-8.63289
 20
0.954125
 30
0.000000
  70
    32
  0
VERTEX
  8
0
  5
8DE
 10
-8.63123
 20
0.959086
 30
0.000000
  70
    32
  0
SEQEND
  8
0
  5
8DF
  0
POLYLINE
  5
8B
  8
0
  6
HIDDEN2
 66
     1
 10
0.0
 20
0.0
 30
0.0
  0
VERTEX
  5
8C
  8
0
  6
HIDDEN2
 10
-0.2663284051613886
 20
-7.0327175119535488
 30
0.0
  0
VERTEX
  5
8D
  8
0
  6
HIDDEN2
 10
-0.2663284051613886
 20
-6.9796035849983014
 30
0.0
  0
SEQEND
  5
8E
  8
0
  6
HIDDEN2
  0
POLYLINE
  8
0
  5
8E0
  66
     1
 10
0.000000
 20
0.000000
 30
0.000000
  70
     8
  0
VERTEX
  8
0
  5
8E1
 10
2.45050
 20
-7.03272
 30
0.000000
  70
    32
  0
VERTEX
  8
0
  5
8E2
 10
2.45053
 20
-7.03242
 30
0.000000
  70
    32
  0
VERTEX
  8
0
  5
8E3
 10
2.45062
 20
-7.03154
 30
0.000000
  70
    32
  0
VERTEX
  8
0
  5
8E4
 10
2.45075
 20
-7.03010
 30
0.000000
  70
    32
  0
VERTEX
  8
0
  5
8E5
 10
2.45095
 20
-7.02809
 30
0.000000
  70
    32
  0
VERTEX
  8
0
  5
8E6
 10
2.45119
 20
-7.02553
 30
0.000000
  70
    32
  0
VERTEX
  8
0
  5
8E7
 10
2.45149
 20
-7.02243
 30
0.000000
  70
    32
  0
VERTEX
  8
0
  5
8E8
 10
2.45183
 20
-7.01881
 30
0.000000
  70
    32
  0
VERTEX
  8
0
  5
8E9
 10
2.45223
 20
-7.01467
 30
0.000000
  70
    32
  0
VERTEX
  8
0
  5
8EA
 10
2.45267
 20
-7.01003
 30
0.000000
  70
    32
  0
VERTEX
  8
0
  5
8EB
 10
2.45316
 20
-7.00489
 30
0.000000
  70
    32
  0
VERTEX
  8
0
  5
8EC
 10
2.45370
 20
-6.99927
 30
0.000000
  70
    32
  0
VERTEX
  8
0
  5
8ED
 10
2.45428
 20
-6.99319
 30
0.000000
  70
    32
  0
VERTEX
  8
0
  5
8EE
 10
2.45491
 20
-6.98664
 30
0.000000
  70
    32
  0
VERTEX
  8
0
  5
8EF
 10
2.45557
 20
-6.97964
 30
0.000000
  70
    32
  0
VERTEX
  8
0
  5
8F0
 10
2.45628
 20
-6.97220
 30
0.000000
  70
    32
  0
VERTEX
  8
0
  5
8F1
 10
2.45703
 20
-6.96434
 30
0.000000
  70
    32
  0
VERTEX
  8
0
  5
8F2
 10
2.45783
 20
-6.95607
 30
0.000000
  70
    32
  0
VERTEX
  8
0
  5
8F3
 10
2.45865
 20
-6.94739
 30
0.000000
  70
    32
  0
VERTEX
  8
0
  5
8F4
 10
2.45952
 20
-6.93832
 30
0.000000
  70
    32
  0
VERTEX
  8
0
  5
8F5
 10
2.46042
 20
-6.92886
 30
0.000000
  70
    32
  0
VERTEX
  8
0
  5
8F6
 10
2.46136
 20
-6.91904
 30
0.000000
  70
    32
  0
VERTEX
  8
0
  5
8F7
 10
2.46234
 20
-6.90885
 30
0.000000
  70
    32
  0
VERTEX
  8
0
  5
8F8
 10
2.46334
 20
-6.89832
 30
0.000000
  70
    32
  0
VERTEX
  8
0
  5
8F9
 10
2.46438
 20
-6.88745
 30
0.000000
  70
    32
  0
VERTEX
  8
0
  5
8FA
 10
2.46545
 20
-6.87626
 30
0.000000
  70
    32
  0
VERTEX
  8
0
  5
8FB
 10
2.46655
 20
-6.86475
 30
0.000000
  70
    32
  0
VERTEX
  8
0
  5
8FC
 10
2.46768
 20
-6.85294
 30
0.000000
  70
    32
  0
VERTEX
  8
0
  5
8FD
 10
2.46883
 20
-6.84083
 30
0.000000
  70
    32
  0
VERTEX
  8
0
  5
8FE
 10
2.47002
 20
-6.82845
 30
0.000000
  70
    32
  0
VERTEX
  8
0
  5
8FF
 10
2.47122
 20
-6.81579
 30
0.000000
  70
    32
  0
VERTEX
  8
0
  5
900
 10
2.47246
 20
-6.80288
 30
0.000000
  70
    32
  0
VERTEX
  8
0
  5
901
 10
2.47372
 20
-6.78972
 30
0.000000
  70
    32
  0
VERTEX
  8
0
  5
902
 10
2.47500
 20
-6.77632
 30
0.000000
  70
    32
  0
VERTEX
  8
0
  5
903
 10
2.47630
 20
-6.76270
 30
0.000000
  70
    32
  0
VERTEX
  8
0
  5
904
 10
2.47762
 20
-6.74886
 30
0.000000
  70
    32
  0
VERTEX
  8
0
  5
905
 10
2.47896
 20
-6.73482
 30
0.000000
  70
    32
  0
VERTEX
  8
0
  5
906
 10
2.48032
 20
-6.72059
 30
0.000000
  70
    32
  0
VERTEX
  8
0
  5
907
 10
2.48170
 20
-6.70617
 30
0.000000
  70
    32
  0
VERTEX
  8
0
  5
908
 10
2.48309
 20
-6.69159
 30
0.000000
  70
    32
  0
VERTEX
  8
0
  5
909
 10
2.48450
 20
-6.67685
 30
0.000000
  70
    32
  0
VERTEX
  8
0
  5
90A
 10
2.48592
 20
-6.66197
 30
0.000000
  70
    32
  0
VERTEX
  8
0
  5
90B
 10
2.48735
 20
-6.64694
 30
0.000000
  70
    32
  0
VERTEX
  8
0
  5
90C
 10
2.48880
 20
-6.63179
 30
0.000000
  70
    32
  0
VERTEX
  8
0
  5
90D
 10
2.49026
 20
-6.61653
 30
0.000000
  70
    32
  0
VERTEX
  8
0
  5
90E
 10
2.49173
 20
-6.60117
 30
0.000000
  70
    32
  0
VERTEX
  8
0
  5
90F
 10
2.49320
 20
-6.58572
 30
0.000000
  70
    32
  0
VERTEX
  8
0
  5
910
 10
2.49469
 20
-6.57018
 30
0.000000
  70
    32
  0
VERTEX
  8
0
  5
911
 10
2.49618
 20
-6.55458
 30
0.000000
  70
    32
  0
VERTEX
  8
0
  5
912
 10
2.49767
 20
-6.53892
 30
0.000000
  70
    32
  0
VERTEX
  8
0
  5
913
 10
2.49917
 20
-6.52321
 30
0.000000
  70
    32
  0
VERTEX
  8
0
  5
914
 10
2.50068
 20
-6.50747
 30
0.000000
  70
    32
  0
VERTEX
  8
0
  5
915
 10
2.50218
 20
-6.49170
 30
0.000000
  70
    32
  0
VERTEX
  8
0
  5
916
 10
2.50369
 20
-6.47592
 30
0.000000
  70
    32
  0
VERTEX
  8
0
  5
917
 10
2.50520
 20
-6.46014
 30
0.000000
  70
    32
  0
VERTEX
  8
0
  5
918
 10
2.50671
 20
-6.44436
 30
0.000000
  70
    32
  0
VERTEX
  8
0
  5
919
 10
2.50821
 20
-6.42861
 30
0.000000
  70
    32
  0
VERTEX
  8
0
  5
91A
 10
2.50971
 20
-6.41289
 30
0.000000
  70
    32
  0
VERTEX
  8
0
  5
91B
 10
2.51121
 20
-6.39721
 30
0.000000
  70
    32
  0
VERTEX
  8
0
  5
91C
 10
2.51270
 20
-6.38159
 30
0.000000
  70
    32
  0
VERTEX
  8
0
  5
91D
 10
2.51419
 20
-6.36603
 30
0.000000
  70
    32
  0
VERTEX
  8
0
  5
91E
 10
2.51567
 20
-6.35055
 30
0.000000
  70
    32
  0
VERTEX
  8
0
  5
91F
 10
2.51714
 20
-6.33515
 30
0.000000
  70
    32
  0
VERTEX
  8
0
  5
920
 10
2.51860
 20
-6.31985
 30
0.000000
  70
    32
  0
VERTEX
  8
0
  5
921
 10
2.52005
 20
-6.30467
 30
0.000000
  70
    32
  0
VERTEX
  8
0
  5
922
 10
2.52149
 20
-6.28960
 30
0.000000
  70
    32
  0
VERTEX
  8
0
  5
923
 10
2.52292
 20
-6.27467
 30
0.000000
  70
    32
  0
VERTEX
  8
0
  5
924
 10
2.52433
 20
-6.25988
 30
0.000000
  70
    32
  0
VERTEX
  8
0
  5
925
 10
2.52573
 20
-6.24524
 30
0.000000
  70
    32
  0
VERTEX
  8
0
  5
926
 10
2.52711
 20
-6.23077
 30
0.000000
  70
    32
  0
VERTEX
  8
0
  5
927
 10
2.52847
 20
-6.21648
 30
0.000000
  70
    32
  0
VERTEX
  8
0
  5
928
 10
2.52982
 20
-6.20237
 30
0.000000
  70
    32
  0
VERTEX
  8
0
  5
929
 10
2.53115
 20
-6.18847
 30
0.000000
  70
    32
  0
VERTEX
  8
0
  5
92A
 10
2.53246
 20
-6.17477
 30
0.000000
  70
    32
  0
VERTEX
  8
0
  5
92B
 10
2.53374
 20
-6.16130
 30
0.000000
  70
    32
  0
VERTEX
  8
0
  5
92C
 10
2.53501
 20
-6.14806
 30
0.000000
  70
    32
  0
VERTEX
  8
0
  5
92D
 10
2.53625
 20
-6.13506
 30
0.000000
  70
    32
  0
VERTEX
  8
0
  5
92E
 10
2.53747
 20
-6.12232
 30
0.000000
  70
    32
  0
VERTEX
  8
0
  5
92F
 10
2.53866
 20
-6.10984
 30
0.000000
  70
    32
  0
VERTEX
  8
0
  5
930
 10
2.53983
 20
-6.09764
 30
0.000000
  70
    32
  0
VERTEX
  8
0
  5
931
 10
2.54096
 20
-6.08573
 30
0.000000
  70
    32
  0
VERTEX
  8
0
  5
932
 10
2.54207
 20
-6.07412
 30
0.000000
  70
    32
  0
VERTEX
  8
0
  5
933
 10
2.54315
 20
-6.06282
 30
0.000000
  70
    32
  0
VERTEX
  8
0
  5
934
 10
2.54420
 20
-6.05184
 30
0.000000
  70
    32
  0
VERTEX
  8
0
  5
935
 10
2.54522
 20
-6.04119
 30
0.000000
  70
    32
  0
VERTEX
  8
0
  5
936
 10
2.54620
 20
-6.03089
 30
0.000000
  70
    32
  0
VERTEX
  8
0
  5
937
 10
2.54715
 20
-6.02095
 30
0.000000
  70
    32
  0
VERTEX
  8
0
  5
938
 10
2.54807
 20
-6.01137
 30
0.000000
  70
    32
  0
VERTEX
  8
0
  5
939
 10
2.54895
 20
-6.00217
 30
0.000000
  70
    32
  0
VERTEX
  8
0
  5
93A
 10
2.54979
 20
-5.99336
 30
0.000000
  70
    32
  0
VERTEX
  8
0
  5
93B
 10
2.55059
 20
-5.98494
 30
0.000000
  70
    32
  0
VERTEX
  8
0
  5
93C
 10
2.55136
 20
-5.97694
 30
0.000000
  70
    32
  0
VERTEX
  8
0
  5
93D
 10
2.55208
 20
-5.96936
 30
0.000000
  70
    32
  0
VERTEX
  8
0
  5
93E
 10
2.55276
 20
-5.96222
 30
0.000000
  70
    32
  0
VERTEX
  8
0
  5
93F
 10
2.55340
 20
-5.95552
 30
0.000000
  70
    32
  0
VERTEX
  8
0
  5
940
 10
2.55400
 20
-5.94928
 30
0.000000
  70
    32
  0
VERTEX
  8
0
  5
941
 10
2.55455
 20
-5.94350
 30
0.000000
  70
    32
  0
VERTEX
  8
0
  5
942
 10
2.55506
 20
-5.93820
 30
0.000000
  70
    32
  0
VERTEX
  8
0
  5
943
 10
2.55551
 20
-5.93339
 30
0.000000
  70
    32
  0
VERTEX
  8
0
  5
944
 10
2.55593
 20
-5.92909
 30
0.000000
  70
    32
  0
VERTEX
  8
0
  5
945
 10
2.55629
 20
-5.92529
 30
0.000000
  70
    32
  0
VERTEX
  8
0
  5
946
 10
2.55660
 20
-5.92202
 30
0.000000
  70
    32
  0
VERTEX
  8
0
  5
947
 10
2.55686
 20
-5.91928
 30
0.000000
  70
    32
  0
VERTEX
  8
0
  5
948
 10
2.55707
 20
-5.91709
 30
0.000000
  70
    32
  0
VERTEX
  8
0
  5
949
 10
2.55723
 20
-5.91545
 30
0.000000
  70
    32
  0
VERTEX
  8
0
  5
94A
 10
2.55733
 20
-5.91438
 30
0.000000
  70
    32
  0
VERTEX
  8
0
  5
94B
 10
2.55738
 20
-5.91389
 30
0.000000
  70
    32
  0
VERTEX
  8
0
  5
94C
 10
2.55738
 20
-5.91352
 30
0.000000
  70
    32
  0
VERTEX
  8
0
  5
94D
 10
2.55738
 20
-5.91302
 30
0.000000
  70
    32
  0
VERTEX
  8
0
  5
94E
 10
2.55738
 20
-5.91252
 30
0.000000
  70
    32
  0
VERTEX
  8
0
  5
94F
 10
2.55738
 20
-5.91202
 30
0.000000
  70
    32
  0
VERTEX
  8
0
  5
950
 10
2.55738
 20
-5.91152
 30
0.000000
  70
    32
  0
VERTEX
  8
0
  5
951
 10
2.55738
 20
-5.91102
 30
0.000000
  70
    32
  0
VERTEX
  8
0
  5
952
 10
2.55738
 20
-5.91052
 30
0.000000
  70
    32
  0
VERTEX
  8
0
  5
953
 10
2.55738
 20
-5.91001
 30
0.000000
  70
    32
  0
VERTEX
  8
0
  5
954
 10
2.55738
 20
-5.90951
 30
0.000000
  70
    32
  0
VERTEX
  8
0
  5
955
 10
2.55738
 20
-5.90901
 30
0.000000
  70
    32
  0
VERTEX
  8
0
  5
956
 10
2.55738
 20
-5.90851
 30
0.000000
  70
    32
  0
VERTEX
  8
0
  5
957
 10
2.55738
 20
-5.90801
 30
0.000000
  70
    32
  0
VERTEX
  8
0
  5
958
 10
2.55738
 20
-5.90751
 30
0.000000
  70
    32
  0
VERTEX
  8
0
  5
959
 10
2.55738
 20
-5.90701
 30
0.000000
  70
    32
  0
VERTEX
  8
0
  5
95A
 10
2.55738
 20
-5.90651
 30
0.000000
  70
    32
  0
VERTEX
  8
0
  5
95B
 10
2.55738
 20
-5.90601
 30
0.000000
  70
    32
  0
VERTEX
  8
0
  5
95C
 10
2.55738
 20
-5.90551
 30
0.000000
  70
    32
  0
VERTEX
  8
0
  5
95D
 10
2.55738
 20
-5.90501
 30
0.000000
  70
    32
  0
VERTEX
  8
0
  5
95E
 10
2.55738
 20
-5.90451
 30
0.000000
  70
    32
  0
VERTEX
  8
0
  5
95F
 10
2.55738
 20
-5.90401
 30
0.000000
  70
    32
  0
VERTEX
  8
0
  5
960
 10
2.55738
 20
-5.90351
 30
0.000000
  70
    32
  0
VERTEX
  8
0
  5
961
 10
2.55738
 20
-5.90301
 30
0.000000
  70
    32
  0
VERTEX
  8
0
  5
962
 10
2.55738
 20
-5.90251
 30
0.000000
  70
    32
  0
VERTEX
  8
0
  5
963
 10
2.55738
 20
-5.90201
 30
0.000000
  70
    32
  0
VERTEX
  8
0
  5
964
 10
2.55738
 20
-5.90151
 30
0.000000
  70
    32
  0
VERTEX
  8
0
  5
965
 10
2.55738
 20
-5.90102
 30
0.000000
  70
    32
  0
VERTEX
  8
0
  5
966
 10
2.55738
 20
-5.90052
 30
0.000000
  70
    32
  0
VERTEX
  8
0
  5
967
 10
2.55738
 20
-5.90002
 30
0.000000
  70
    32
  0
VERTEX
  8
0
  5
968
 10
2.55738
 20
-5.89952
 30
0.000000
  70
    32
  0
VERTEX
  8
0
  5
969
 10
2.55738
 20
-5.89902
 30
0.000000
  70
    32
  0
VERTEX
  8
0
  5
96A
 10
2.55738
 20
-5.89852
 30
0.000000
  70
    32
  0
VERTEX
  8
0
  5
96B
 10
2.55738
 20
-5.89802
 30
0.000000
  70
    32
  0
VERTEX
  8
0
  5
96C
 10
2.55738
 20
-5.89752
 30
0.000000
  70
    32
  0
VERTEX
  8
0
  5
96D
 10
2.55738
 20
-5.89702
 30
0.000000
  70
    32
  0
VERTEX
  8
0
  5
96E
 10
2.55738
 20
-5.89652
 30
0.000000
  70
    32
  0
VERTEX
  8
0
  5
96F
 10
2.55738
 20
-5.89602
 30
0.000000
  70
    32
  0
VERTEX
  8
0
  5
970
 10
2.55738
 20
-5.89553
 30
0.000000
  70
    32
  0
VERTEX
  8
0
  5
971
 10
2.55738
 20
-5.89503
 30
0.000000
  70
    32
  0
VERTEX
  8
0
  5
972
 10
2.55738
 20
-5.89453
 30
0.000000
  70
    32
  0
VERTEX
  8
0
  5
973
 10
2.55738
 20
-5.89403
 30
0.000000
  70
    32
  0
VERTEX
  8
0
  5
974
 10
2.55738
 20
-5.89353
 30
0.000000
  70
    32
  0
VERTEX
  8
0
  5
975
 10
2.55738
 20
-5.89303
 30
0.000000
  70
    32
  0
VERTEX
  8
0
  5
976
 10
2.55738
 20
-5.89253
 30
0.000000
  70
    32
  0
VERTEX
  8
0
  5
977
 10
2.55738
 20
-5.89204
 30
0.000000
  70
    32
  0
VERTEX
  8
0
  5
978
 10
2.55738
 20
-5.89154
 30
0.000000
  70
    32
  0
VERTEX
  8
0
  5
979
 10
2.55738
 20
-5.89104
 30
0.000000
  70
    32
  0
VERTEX
  8
0
  5
97A
 10
2.55738
 20
-5.89054
 30
0.000000
  70
    32
  0
VERTEX
  8
0
  5
97B
 10
2.55738
 20
-5.89004
 30
0.000000
  70
    32
  0
VERTEX
  8
0
  5
97C
 10
2.55738
 20
-5.88954
 30
0.000000
  70
    32
  0
VERTEX
  8
0
  5
97D
 10
2.55738
 20
-5.88904
 30
0.000000
  70
    32
  0
VERTEX
  8
0
  5
97E
 10
2.55738
 20
-5.88855
 30
0.000000
  70
    32
  0
VERTEX
  8
0
  5
97F
 10
2.55738
 20
-5.88805
 30
0.000000
  70
    32
  0
VERTEX
  8
0
  5
980
 10
2.55738
 20
-5.88755
 30
0.000000
  70
    32
  0
VERTEX
  8
0
  5
981
 10
2.55738
 20
-5.88705
 30
0.000000
  70
    32
  0
VERTEX
  8
0
  5
982
 10
2.55738
 20
-5.88655
 30
0.000000
  70
    32
  0
VERTEX
  8
0
  5
983
 10
2.55738
 20
-5.88605
 30
0.000000
  70
    32
  0
VERTEX
  8
0
  5
984
 10
2.55738
 20
-5.88555
 30
0.000000
  70
    32
  0
VERTEX
  8
0
  5
985
 10
2.55738
 20
-5.88506
 30
0.000000
  70
    32
  0
VERTEX
  8
0
  5
986
 10
2.55738
 20
-5.88456
 30
0.000000
  70
    32
  0
VERTEX
  8
0
  5
987
 10
2.55738
 20
-5.88406
 30
0.000000
  70
    32
  0
VERTEX
  8
0
  5
988
 10
2.55738
 20
-5.88356
 30
0.000000
  70
    32
  0
VERTEX
  8
0
  5
989
 10
2.55738
 20
-5.88306
 30
0.000000
  70
    32
  0
VERTEX
  8
0
  5
98A
 10
2.55738
 20
-5.88256
 30
0.000000
  70
    32
  0
VERTEX
  8
0
  5
98B
 10
2.55738
 20
-5.88206
 30
0.000000
  70
    32
  0
VERTEX
  8
0
  5
98C
 10
2.55738
 20
-5.88157
 30
0.000000
  70
    32
  0
VERTEX
  8
0
  5
98D
 10
2.55738
 20
-5.88107
 30
0.000000
  70
    32
  0
VERTEX
  8
0
  5
98E
 10
2.55738
 20
-5.88057
 30
0.000000
  70
    32
  0
VERTEX
  8
0
  5
98F
 10
2.55738
 20
-5.88007
 30
0.000000
  70
    32
  0
VERTEX
  8
0
  5
990
 10
2.55738
 20
-5.87957
 30
0.000000
  70
    32
  0
VERTEX
  8
0
  5
991
 10
2.55738
 20
-5.87907
 30
0.000000
  70
    32
  0
VERTEX
  8
0
  5
992
 10
2.55738
 20
-5.87857
 30
0.000000
  70
    32
  0
VERTEX
  8
0
  5
993
 10
2.55738
 20
-5.87808
 30
0.000000
  70
    32
  0
VERTEX
  8
0
  5
994
 10
2.55738
 20
-5.87758
 30
0.000000
  70
    32
  0
VERTEX
  8
0
  5
995
 10
2.55738
 20
-5.87708
 30
0.000000
  70
    32
  0
VERTEX
  8
0
  5
996
 10
2.55738
 20
-5.87658
 30
0.000000
  70
    32
  0
VERTEX
  8
0
  5
997
 10
2.55738
 20
-5.87608
 30
0.000000
  70
    32
  0
VERTEX
  8
0
  5
998
 10
2.55738
 20
-5.87558
 30
0.000000
  70
    32
  0
VERTEX
  8
0
  5
999
 10
2.55738
 20
-5.87508
 30
0.000000
  70
    32
  0
VERTEX
  8
0
  5
99A
 10
2.55738
 20
-5.87458
 30
0.000000
  70
    32
  0
VERTEX
  8
0
  5
99B
 10
2.55738
 20
-5.87408
 30
0.000000
  70
    32
  0
VERTEX
  8
0
  5
99C
 10
2.55738
 20
-5.87358
 30
0.000000
  70
    32
  0
VERTEX
  8
0
  5
99D
 10
2.55738
 20
-5.87308
 30
0.000000
  70
    32
  0
VERTEX
  8
0
  5
99E
 10
2.55738
 20
-5.87258
 30
0.000000
  70
    32
  0
VERTEX
  8
0
  5
99F
 10
2.55738
 20
-5.87209
 30
0.000000
  70
    32
  0
VERTEX
  8
0
  5
9A0
 10
2.55738
 20
-5.87159
 30
0.000000
  70
    32
  0
VERTEX
  8
0
  5
9A1
 10
2.55738
 20
-5.87109
 30
0.000000
  70
    32
  0
VERTEX
  8
0
  5
9A2
 10
2.55738
 20
-5.87059
 30
0.000000
  70
    32
  0
VERTEX
  8
0
  5
9A3
 10
2.55738
 20
-5.87009
 30
0.000000
  70
    32
  0
VERTEX
  8
0
  5
9A4
 10
2.55738
 20
-5.86959
 30
0.000000
  70
    32
  0
VERTEX
  8
0
  5
9A5
 10
2.55738
 20
-5.86909
 30
0.000000
  70
    32
  0
VERTEX
  8
0
  5
9A6
 10
2.55738
 20
-5.86859
 30
0.000000
  70
    32
  0
VERTEX
  8
0
  5
9A7
 10
2.55738
 20
-5.86809
 30
0.000000
  70
    32
  0
VERTEX
  8
0
  5
9A8
 10
2.55738
 20
-5.86759
 30
0.000000
  70
    32
  0
VERTEX
  8
0
  5
9A9
 10
2.55738
 20
-5.86709
 30
0.000000
  70
    32
  0
VERTEX
  8
0
  5
9AA
 10
2.55738
 20
-5.86659
 30
0.000000
  70
    32
  0
VERTEX
  8
0
  5
9AB
 10
2.55738
 20
-5.86609
 30
0.000000
  70
    32
  0
VERTEX
  8
0
  5
9AC
 10
2.55738
 20
-5.86559
 30
0.000000
  70
    32
  0
VERTEX
  8
0
  5
9AD
 10
2.55738
 20
-5.86509
 30
0.000000
  70
    32
  0
VERTEX
  8
0
  5
9AE
 10
2.55738
 20
-5.86458
 30
0.000000
  70
    32
  0
VERTEX
  8
0
  5
9AF
 10
2.55738
 20
-5.86408
 30
0.000000
  70
    32
  0
VERTEX
  8
0
  5
9B0
 10
2.55738
 20
-5.86358
 30
0.000000
  70
    32
  0
VERTEX
  8
0
  5
9B1
 10
2.55738
 20
-5.86308
 30
0.000000
  70
    32
  0
VERTEX
  8
0
  5
9B2
 10
2.55738
 20
-5.86258
 30
0.000000
  70
    32
  0
VERTEX
  8
0
  5
9B3
 10
2.55738
 20
-5.86208
 30
0.000000
  70
    32
  0
VERTEX
  8
0
  5
9B4
 10
2.55738
 20
-5.86158
 30
0.000000
  70
    32
  0
VERTEX
  8
0
  5
9B5
 10
2.55738
 20
-5.86108
 30
0.000000
  70
    32
  0
VERTEX
  8
0
  5
9B6
 10
2.55738
 20
-5.86091
 30
0.000000
  70
    32
  0
VERTEX
  8
0
  5
9B7
 10
2.55738
 20
-5.86141
 30
0.000000
  70
    32
  0
VERTEX
  8
0
  5
9B8
 10
2.55738
 20
-5.86191
 30
0.000000
  70
    32
  0
VERTEX
  8
0
  5
9B9
 10
2.55738
 20
-5.86241
 30
0.000000
  70
    32
  0
VERTEX
  8
0
  5
9BA
 10
2.55738
 20
-5.86291
 30
0.000000
  70
    32
  0
VERTEX
  8
0
  5
9BB
 10
2.55738
 20
-5.86342
 30
0.000000
  70
    32
  0
VERTEX
  8
0
  5
9BC
 10
2.55738
 20
-5.86392
 30
0.000000
  70
    32
  0
VERTEX
  8
0
  5
9BD
 10
2.55738
 20
-5.86442
 30
0.000000
  70
    32
  0
VERTEX
  8
0
  5
9BE
 10
2.55738
 20
-5.86492
 30
0.000000
  70
    32
  0
VERTEX
  8
0
  5
9BF
 10
2.55738
 20
-5.86542
 30
0.000000
  70
    32
  0
VERTEX
  8
0
  5
9C0
 10
2.55738
 20
-5.86592
 30
0.000000
  70
    32
  0
VERTEX
  8
0
  5
9C1
 10
2.55738
 20
-5.86642
 30
0.000000
  70
    32
  0
VERTEX
  8
0
  5
9C2
 10
2.55738
 20
-5.86692
 30
0.000000
  70
    32
  0
VERTEX
  8
0
  5
9C3
 10
2.55738
 20
-5.86742
 30
0.000000
  70
    32
  0
VERTEX
  8
0
  5
9C4
 10
2.55738
 20
-5.86792
 30
0.000000
  70
    32
  0
VERTEX
  8
0
  5
9C5
 10
2.55738
 20
-5.86842
 30
0.000000
  70
    32
  0
VERTEX
  8
0
  5
9C6
 10
2.55738
 20
-5.86892
 30
0.000000
  70
    32
  0
VERTEX
  8
0
  5
9C7
 10
2.55738
 20
-5.86942
 30
0.000000
  70
    32
  0
VERTEX
  8
0
  5
9C8
 10
2.55738
 20
-5.86992
 30
0.000000
  70
    32
  0
VERTEX
  8
0
  5
9C9
 10
2.55738
 20
-5.87042
 30
0.000000
  70
    32
  0
VERTEX
  8
0
  5
9CA
 10
2.55738
 20
-5.87092
 30
0.000000
  70
    32
  0
VERTEX
  8
0
  5
9CB
 10
2.55738
 20
-5.87142
 30
0.000000
  70
    32
  0
VERTEX
  8
0
  5
9CC
 10
2.55738
 20
-5.87192
 30
0.000000
  70
    32
  0
VERTEX
  8
0
  5
9CD
 10
2.55738
 20
-5.87242
 30
0.000000
  70
    32
  0
VERTEX
  8
0
  5
9CE
 10
2.55738
 20
-5.87292
 30
0.000000
  70
    32
  0
VERTEX
  8
0
  5
9CF
 10
2.55738
 20
-5.87342
 30
0.000000
  70
    32
  0
VERTEX
  8
0
  5
9D0
 10
2.55738
 20
-5.87392
 30
0.000000
  70
    32
  0
VERTEX
  8
0
  5
9D1
 10
2.55738
 20
-5.87442
 30
0.000000
  70
    32
  0
VERTEX
  8
0
  5
9D2
 10
2.55738
 20
-5.87491
 30
0.000000
  70
    32
  0
VERTEX
  8
0
  5
9D3
 10
2.55738
 20
-5.87541
 30
0.000000
  70
    32
  0
VERTEX
  8
0
  5
9D4
 10
2.55738
 20
-5.87591
 30
0.000000
  70
    32
  0
VERTEX
  8
0
  5
9D5
 10
2.55738
 20
-5.87641
 30
0.000000
  70
    32
  0
VERTEX
  8
0
  5
9D6
 10
2.55738
 20
-5.87691
 30
0.000000
  70
    32
  0
VERTEX
  8
0
  5
9D7
 10
2.55738
 20
-5.87741
 30
0.000000
  70
    32
  0
VERTEX
  8
0
  5
9D8
 10
2.55738
 20
-5.87791
 30
0.000000
  70
    32
  0
VERTEX
  8
0
  5
9D9
 10
2.55738
 20
-5.87841
 30
0.000000
  70
    32
  0
VERTEX
  8
0
  5
9DA
 10
2.55738
 20
-5.87891
 30
0.000000
  70
    32
  0
VERTEX
  8
0
  5
9DB
 10
2.55738
 20
-5.87941
 30
0.000000
  70
    32
  0
VERTEX
  8
0
  5
9DC
 10
2.55738
 20
-5.87990
 30
0.000000
  70
    32
  0
VERTEX
  8
0
  5
9DD
 10
2.55738
 20
-5.88040
 30
0.000000
  70
    32
  0
VERTEX
  8
0
  5
9DE
 10
2.55738
 20
-5.88090
 30
0.000000
  70
    32
  0
VERTEX
  8
0
  5
9DF
 10
2.55738
 20
-5.88140
 30
0.000000
  70
    32
  0
VERTEX
  8
0
  5
9E0
 10
2.55738
 20
-5.88190
 30
0.000000
  70
    32
  0
VERTEX
  8
0
  5
9E1
 10
2.55738
 20
-5.88240
 30
0.000000
  70
    32
  0
VERTEX
  8
0
  5
9E2
 10
2.55738
 20
-5.88290
 30
0.000000
  70
    32
  0
VERTEX
  8
0
  5
9E3
 10
2.55738
 20
-5.88339
 30
0.000000
  70
    32
  0
VERTEX
  8
0
  5
9E4
 10
2.55738
 20
-5.88389
 30
0.000000
  70
    32
  0
VERTEX
  8
0
  5
9E5
 10
2.55738
 20
-5.88439
 30
0.000000
  70
    32
  0
VERTEX
  8
0
  5
9E6
 10
2.55738
 20
-5.88489
 30
0.000000
  70
    32
  0
VERTEX
  8
0
  5
9E7
 10
2.55738
 20
-5.88539
 30
0.000000
  70
    32
  0
VERTEX
  8
0
  5
9E8
 10
2.55738
 20
-5.88589
 30
0.000000
  70
    32
  0
VERTEX
  8
0
  5
9E9
 10
2.55738
 20
-5.88639
 30
0.000000
  70
    32
  0
VERTEX
  8
0
  5
9EA
 10
2.55738
 20
-5.88688
 30
0.000000
  70
    32
  0
VERTEX
  8
0
  5
9EB
 10
2.55738
 20
-5.88738
 30
0.000000
  70
    32
  0
VERTEX
  8
0
  5
9EC
 10
2.55738
 20
-5.88788
 30
0.000000
  70
    32
  0
VERTEX
  8
0
  5
9ED
 10
2.55738
 20
-5.88838
 30
0.000000
  70
    32
  0
VERTEX
  8
0
  5
9EE
 10
2.55738
 20
-5.88888
 30
0.000000
  70
    32
  0
VERTEX
  8
0
  5
9EF
 10
2.55738
 20
-5.88938
 30
0.000000
  70
    32
  0
VERTEX
  8
0
  5
9F0
 10
2.55738
 20
-5.88987
 30
0.000000
  70
    32
  0
VERTEX
  8
0
  5
9F1
 10
2.55738
 20
-5.89037
 30
0.000000
  70
    32
  0
VERTEX
  8
0
  5
9F2
 10
2.55738
 20
-5.89087
 30
0.000000
  70
    32
  0
VERTEX
  8
0
  5
9F3
 10
2.55738
 20
-5.89137
 30
0.000000
  70
    32
  0
VERTEX
  8
0
  5
9F4
 10
2.55738
 20
-5.89187
 30
0.000000
  70
    32
  0
VERTEX
  8
0
  5
9F5
 10
2.55738
 20
-5.89237
 30
0.000000
  70
    32
  0
VERTEX
  8
0
  5
9F6
 10
2.55738
 20
-5.89287
 30
0.000000
  70
    32
  0
VERTEX
  8
0
  5
9F7
 10
2.55738
 20
-5.89336
 30
0.000000
  70
    32
  0
VERTEX
  8
0
  5
9F8
 10
2.55738
 20
-5.89386
 30
0.000000
  70
    32
  0
VERTEX
  8
0
  5
9F9
 10
2.55738
 20
-5.89436
 30
0.000000
  70
    32
  0
VERTEX
  8
0
  5
9FA
 10
2.55738
 20
-5.89486
 30
0.000000
  70
    32
  0
VERTEX
  8
0
  5
9FB
 10
2.55738
 20
-5.89536
 30
0.000000
  70
    32
  0
VERTEX
  8
0
  5
9FC
 10
2.55738
 20
-5.89586
 30
0.000000
  70
    32
  0
VERTEX
  8
0
  5
9FD
 10
2.55738
 20
-5.89636
 30
0.000000
  70
    32
  0
VERTEX
  8
0
  5
9FE
 10
2.55738
 20
-5.89686
 30
0.000000
  70
    32
  0
VERTEX
  8
0
  5
9FF
 10
2.55738
 20
-5.89736
 30
0.000000
  70
    32
  0
VERTEX
  8
0
  5
A00
 10
2.55738
 20
-5.89785
 30
0.000000
  70
    32
  0
VERTEX
  8
0
  5
A01
 10
2.55738
 20
-5.89835
 30
0.000000
  70
    32
  0
VERTEX
  8
0
  5
A02
 10
2.55738
 20
-5.89885
 30
0.000000
  70
    32
  0
VERTEX
  8
0
  5
A03
 10
2.55738
 20
-5.89935
 30
0.000000
  70
    32
  0
VERTEX
  8
0
  5
A04
 10
2.55738
 20
-5.89985
 30
0.000000
  70
    32
  0
VERTEX
  8
0
  5
A05
 10
2.55738
 20
-5.90035
 30
0.000000
  70
    32
  0
VERTEX
  8
0
  5
A06
 10
2.55738
 20
-5.90085
 30
0.000000
  70
    32
  0
VERTEX
  8
0
  5
A07
 10
2.55738
 20
-5.90135
 30
0.000000
  70
    32
  0
VERTEX
  8
0
  5
A08
 10
2.55738
 20
-5.90185
 30
0.000000
  70
    32
  0
VERTEX
  8
0
  5
A09
 10
2.55738
 20
-5.90235
 30
0.000000
  70
    32
  0
VERTEX
  8
0
  5
A0A
 10
2.55738
 20
-5.90285
 30
0.000000
  70
    32
  0
VERTEX
  8
0
  5
A0B
 10
2.55738
 20
-5.90335
 30
0.000000
  70
    32
  0
VERTEX
  8
0
  5
A0C
 10
2.55738
 20
-5.90385
 30
0.000000
  70
    32
  0
VERTEX
  8
0
  5
A0D
 10
2.55738
 20
-5.90435
 30
0.000000
  70
    32
  0
VERTEX
  8
0
  5
A0E
 10
2.55738
 20
-5.90485
 30
0.000000
  70
    32
  0
VERTEX
  8
0
  5
A0F
 10
2.55738
 20
-5.90535
 30
0.000000
  70
    32
  0
VERTEX
  8
0
  5
A10
 10
2.55738
 20
-5.90584
 30
0.000000
  70
    32
  0
VERTEX
  8
0
  5
A11
 10
2.55738
 20
-5.90634
 30
0.000000
  70
    32
  0
VERTEX
  8
0
  5
A12
 10
2.55738
 20
-5.90685
 30
0.000000
  70
    32
  0
VERTEX
  8
0
  5
A13
 10
2.55738
 20
-5.90735
 30
0.000000
  70
    32
  0
VERTEX
  8
0
  5
A14
 10
2.55738
 20
-5.90785
 30
0.000000
  70
    32
  0
VERTEX
  8
0
  5
A15
 10
2.55738
 20
-5.90835
 30
0.000000
  70
    32
  0
VERTEX
  8
0
  5
A16
 10
2.55738
 20
-5.90885
 30
0.000000
  70
    32
  0
VERTEX
  8
0
  5
A17
 10
2.55738
 20
-5.90935
 30
0.000000
  70
    32
  0
VERTEX
  8
0
  5
A18
 10
2.55738
 20
-5.90985
 30
0.000000
  70
    32
  0
VERTEX
  8
0
  5
A19
 10
2.55738
 20
-5.91035
 30
0.000000
  70
    32
  0
VERTEX
  8
0
  5
A1A
 10
2.55738
 20
-5.91085
 30
0.000000
  70
    32
  0
VERTEX
  8
0
  5
A1B
 10
2.55738
 20
-5.91135
 30
0.000000
  70
    32
  0
VERTEX
  8
0
  5
A1C
 10
2.55738
 20
-5.91185
 30
0.000000
  70
    32
  0
VERTEX
  8
0
  5
A1D
 10
2.55738
 20
-5.91235
 30
0.000000
  70
    32
  0
VERTEX
  8
0
  5
A1E
 10
2.55738
 20
-5.91285
 30
0.000000
  70
    32
  0
VERTEX
  8
0
  5
A1F
 10
2.55738
 20
-5.91335
 30
0.000000
  70
    32
  0
VERTEX
  8
0
  5
A20
 10
2.55738
 20
-5.91386
 30
0.000000
  70
    32
  0
SEQEND
  8
0
  5
A21
  0
POLYLINE
  5
90
  8
0
  6
HIDDEN2
 66
     1
 10
0.0
 20
0.0
 30
0.0
  0
VERTEX
  5
ED
  8
0
  6
HIDDEN2
 10
4.1557853990565121
 20
0.0
 30
0.0
  0
VERTEX
  5
EE
  8
0
  6
HIDDEN2
 10
3.7295732341828791
 20
-4.635219886654709
 30
0.0
  0
SEQEND
  5
EF
  8
0
  6
HIDDEN2
  0
POLYLINE
  8
0
  5
A22
  66
     1
 10
0.000000
 20
0.000000
 30
0.000000
  70
     8
  0
VERTEX
  8
0
  5
A23
 10
-0.479434
 20
-6.76606
 30
0.000000
  70
    32
  0
VERTEX
  8
0
  5
A24
 10
-0.493931
 20
-6.76414
 30
0.000000
  70
    32
  0
VERTEX
  8
0
  5
A25
 10
-0.508426
 20
-6.76222
 30
0.000000
  70
    32
  0
VERTEX
  8
0
  5
A26
 10
-0.522920
 20
-6.76029
 30
0.000000
  70
    32
  0
VERTEX
  8
0
  5
A27
 10
-0.537413
 20
-6.75836
 30
0.000000
  70
    32
  0
VERTEX
  8
0
  5
A28
 10
-0.551905
 20
-6.75642
 30
0.000000
  70
    32
  0
VERTEX
  8
0
  5
A29
 10
-0.566397
 20
-6.75449
 30
0.000000
  70
    32
  0
VERTEX
  8
0
  5
A2A
 10
-0.580887
 20
-6.75255
 30
0.000000
  70
    32
  0
VERTEX
  8
0
  5
A2B
 10
-0.595376
 20
-6.75061
 30
0.000000
  70
    32
  0
VERTEX
  8
0
  5
A2C
 10
-0.609865
 20
-6.74867
 30
0.000000
  70
    32
  0
VERTEX
  8
0
  5
A2D
 10
-0.624353
 20
-6.74673
 30
0.000000
  70
    32
  0
VERTEX
  8
0
  5
A2E
 10
-0.638839
 20
-6.74478
 30
0.000000
  70
    32
  0
VERTEX
  8
0
  5
A2F
 10
-0.653325
 20
-6.74283
 30
0.000000
  70
    32
  0
VERTEX
  8
0
  5
A30
 10
-0.667810
 20
-6.74088
 30
0.000000
  70
    32
  0
VERTEX
  8
0
  5
A31
 10
-0.682294
 20
-6.73892
 30
0.000000
  70
    32
  0
VERTEX
  8
0
  5
A32
 10
-0.696778
 20
-6.73696
 30
0.000000
  70
    32
  0
VERTEX
  8
0
  5
A33
 10
-0.711260
 20
-6.73500
 30
0.000000
  70
    32
  0
VERTEX
  8
0
  5
A34
 10
-0.725742
 20
-6.73304
 30
0.000000
  70
    32
  0
VERTEX
  8
0
  5
A35
 10
-0.740223
 20
-6.73108
 30
0.000000
  70
    32
  0
VERTEX
  8
0
  5
A36
 10
-0.754703
 20
-6.72911
 30
0.000000
  70
    32
  0
VERTEX
  8
0
  5
A37
 10
-0.769182
 20
-6.72714
 30
0.000000
  70
    32
  0
VERTEX
  8
0
  5
A38
 10
-0.783661
 20
-6.72517
 30
0.000000
  70
    32
  0
VERTEX
  8
0
  5
A39
 10
-0.798138
 20
-6.72319
 30
0.000000
  70
    32
  0
VERTEX
  8
0
  5
A3A
 10
-0.812615
 20
-6.72121
 30
0.000000
  70
    32
  0
VERTEX
  8
0
  5
A3B
 10
-0.827091
 20
-6.71923
 30
0.000000
  70
    32
  0
VERTEX
  8
0
  5
A3C
 10
-0.841567
 20
-6.71725
 30
0.000000
  70
    32
  0
VERTEX
  8
0
  5
A3D
 10
-0.856042
 20
-6.71526
 30
0.000000
  70
    32
  0
VERTEX
  8
0
  5
A3E
 10
-0.870516
 20
-6.71328
 30
0.000000
  70
    32
  0
VERTEX
  8
0
  5
A3F
 10
-0.884989
 20
-6.71128
 30
0.000000
  70
    32
  0
VERTEX
  8
0
  5
A40
 10
-0.899462
 20
-6.70929
 30
0.000000
  70
    32
  0
VERTEX
  8
0
  5
A41
 10
-0.913934
 20
-6.70729
 30
0.000000
  70
    32
  0
VERTEX
  8
0
  5
A42
 10
-0.928405
 20
-6.70530
 30
0.000000
  70
    32
  0
VERTEX
  8
0
  5
A43
 10
-0.942876
 20
-6.70329
 30
0.000000
  70
    32
  0
VERTEX
  8
0
  5
A44
 10
-0.957346
 20
-6.70129
 30
0.000000
  70
    32
  0
VERTEX
  8
0
  5
A45
 10
-0.971815
 20
-6.69928
 30
0.000000
  70
    32
  0
VERTEX
  8
0
  5
A46
 10
-0.986284
 20
-6.69727
 30
0.000000
  70
    32
  0
VERTEX
  8
0
  5
A47
 10
-1.00075
 20
-6.69526
 30
0.000000
  70
    32
  0
VERTEX
  8
0
  5
A48
 10
-1.01522
 20
-6.69324
 30
0.000000
  70
    32
  0
VERTEX
  8
0
  5
A49
 10
-1.02969
 20
-6.69122
 30
0.000000
  70
    32
  0
VERTEX
  8
0
  5
A4A
 10
-1.04415
 20
-6.68920
 30
0.000000
  70
    32
  0
VERTEX
  8
0
  5
A4B
 10
-1.05862
 20
-6.68718
 30
0.000000
  70
    32
  0
VERTEX
  8
0
  5
A4C
 10
-1.07308
 20
-6.68515
 30
0.000000
  70
    32
  0
VERTEX
  8
0
  5
A4D
 10
-1.08755
 20
-6.68312
 30
0.000000
  70
    32
  0
VERTEX
  8
0
  5
A4E
 10
-1.10201
 20
-6.68109
 30
0.000000
  70
    32
  0
VERTEX
  8
0
  5
A4F
 10
-1.11648
 20
-6.67906
 30
0.000000
  70
    32
  0
VERTEX
  8
0
  5
A50
 10
-1.13094
 20
-6.67702
 30
0.000000
  70
    32
  0
VERTEX
  8
0
  5
A51
 10
-1.14540
 20
-6.67498
 30
0.000000
  70
    32
  0
VERTEX
  8
0
  5
A52
 10
-1.15986
 20
-6.67293
 30
0.000000
  70
    32
  0
VERTEX
  8
0
  5
A53
 10
-1.17433
 20
-6.67089
 30
0.000000
  70
    32
  0
VERTEX
  8
0
  5
A54
 10
-1.18879
 20
-6.66884
 30
0.000000
  70
    32
  0
VERTEX
  8
0
  5
A55
 10
-1.20325
 20
-6.66679
 30
0.000000
  70
    32
  0
VERTEX
  8
0
  5
A56
 10
-1.21771
 20
-6.66473
 30
0.000000
  70
    32
  0
VERTEX
  8
0
  5
A57
 10
-1.23217
 20
-6.66267
 30
0.000000
  70
    32
  0
VERTEX
  8
0
  5
A58
 10
-1.24663
 20
-6.66061
 30
0.000000
  70
    32
  0
VERTEX
  8
0
  5
A59
 10
-1.26109
 20
-6.65855
 30
0.000000
  70
    32
  0
VERTEX
  8
0
  5
A5A
 10
-1.27555
 20
-6.65648
 30
0.000000
  70
    32
  0
VERTEX
  8
0
  5
A5B
 10
-1.29000
 20
-6.65441
 30
0.000000
  70
    32
  0
VERTEX
  8
0
  5
A5C
 10
-1.30446
 20
-6.65234
 30
0.000000
  70
    32
  0
VERTEX
  8
0
  5
A5D
 10
-1.31892
 20
-6.65026
 30
0.000000
  70
    32
  0
VERTEX
  8
0
  5
A5E
 10
-1.33338
 20
-6.64818
 30
0.000000
  70
    32
  0
VERTEX
  8
0
  5
A5F
 10
-1.34783
 20
-6.64610
 30
0.000000
  70
    32
  0
VERTEX
  8
0
  5
A60
 10
-1.36229
 20
-6.64401
 30
0.000000
  70
    32
  0
VERTEX
  8
0
  5
A61
 10
-1.37674
 20
-6.64193
 30
0.000000
  70
    32
  0
VERTEX
  8
0
  5
A62
 10
-1.39120
 20
-6.63983
 30
0.000000
  70
    32
  0
VERTEX
  8
0
  5
A63
 10
-1.40566
 20
-6.63774
 30
0.000000
  70
    32
  0
VERTEX
  8
0
  5
A64
 10
-1.42011
 20
-6.63564
 30
0.000000
  70
    32
  0
VERTEX
  8
0
  5
A65
 10
-1.43457
 20
-6.63354
 30
0.000000
  70
    32
  0
VERTEX
  8
0
  5
A66
 10
-1.44902
 20
-6.63144
 30
0.000000
  70
    32
  0
VERTEX
  8
0
  5
A67
 10
-1.46348
 20
-6.62933
 30
0.000000
  70
    32
  0
VERTEX
  8
0
  5
A68
 10
-1.47793
 20
-6.62722
 30
0.000000
  70
    32
  0
VERTEX
  8
0
  5
A69
 10
-1.49238
 20
-6.62511
 30
0.000000
  70
    32
  0
VERTEX
  8
0
  5
A6A
 10
-1.50684
 20
-6.62299
 30
0.000000
  70
    32
  0
VERTEX
  8
0
  5
A6B
 10
-1.52129
 20
-6.62088
 30
0.000000
  70
    32
  0
VERTEX
  8
0
  5
A6C
 10
-1.53574
 20
-6.61875
 30
0.000000
  70
    32
  0
VERTEX
  8
0
  5
A6D
 10
-1.55020
 20
-6.61663
 30
0.000000
  70
    32
  0
VERTEX
  8
0
  5
A6E
 10
-1.56465
 20
-6.61450
 30
0.000000
  70
    32
  0
VERTEX
  8
0
  5
A6F
 10
-1.57910
 20
-6.61237
 30
0.000000
  70
    32
  0
VERTEX
  8
0
  5
A70
 10
-1.59355
 20
-6.61023
 30
0.000000
  70
    32
  0
VERTEX
  8
0
  5
A71
 10
-1.60801
 20
-6.60809
 30
0.000000
  70
    32
  0
VERTEX
  8
0
  5
A72
 10
-1.62246
 20
-6.60595
 30
0.000000
  70
    32
  0
VERTEX
  8
0
  5
A73
 10
-1.63691
 20
-6.60381
 30
0.000000
  70
    32
  0
VERTEX
  8
0
  5
A74
 10
-1.65136
 20
-6.60166
 30
0.000000
  70
    32
  0
VERTEX
  8
0
  5
A75
 10
-1.66581
 20
-6.59951
 30
0.000000
  70
    32
  0
VERTEX
  8
0
  5
A76
 10
-1.68027
 20
-6.59735
 30
0.000000
  70
    32
  0
VERTEX
  8
0
  5
A77
 10
-1.69472
 20
-6.59520
 30
0.000000
  70
    32
  0
VERTEX
  8
0
  5
A78
 10
-1.70917
 20
-6.59304
 30
0.000000
  70
    32
  0
VERTEX
  8
0
  5
A79
 10
-1.72362
 20
-6.59087
 30
0.000000
  70
    32
  0
VERTEX
  8
0
  5
A7A
 10
-1.73807
 20
-6.58870
 30
0.000000
  70
    32
  0
VERTEX
  8
0
  5
A7B
 10
-1.75252
 20
-6.58653
 30
0.000000
  70
    32
  0
VERTEX
  8
0
  5
A7C
 10
-1.76698
 20
-6.58436
 30
0.000000
  70
    32
  0
VERTEX
  8
0
  5
A7D
 10
-1.78143
 20
-6.58218
 30
0.000000
  70
    32
  0
VERTEX
  8
0
  5
A7E
 10
-1.79588
 20
-6.58000
 30
0.000000
  70
    32
  0
VERTEX
  8
0
  5
A7F
 10
-1.81033
 20
-6.57782
 30
0.000000
  70
    32
  0
VERTEX
  8
0
  5
A80
 10
-1.82478
 20
-6.57563
 30
0.000000
  70
    32
  0
VERTEX
  8
0
  5
A81
 10
-1.83923
 20
-6.57344
 30
0.000000
  70
    32
  0
VERTEX
  8
0
  5
A82
 10
-1.85368
 20
-6.57124
 30
0.000000
  70
    32
  0
VERTEX
  8
0
  5
A83
 10
-1.86814
 20
-6.56905
 30
0.000000
  70
    32
  0
VERTEX
  8
0
  5
A84
 10
-1.88259
 20
-6.56684
 30
0.000000
  70
    32
  0
VERTEX
  8
0
  5
A85
 10
-1.89704
 20
-6.56464
 30
0.000000
  70
    32
  0
VERTEX
  8
0
  5
A86
 10
-1.91149
 20
-6.56243
 30
0.000000
  70
    32
  0
VERTEX
  8
0
  5
A87
 10
-1.92594
 20
-6.56022
 30
0.000000
  70
    32
  0
VERTEX
  8
0
  5
A88
 10
-1.94039
 20
-6.55801
 30
0.000000
  70
    32
  0
VERTEX
  8
0
  5
A89
 10
-1.95485
 20
-6.55579
 30
0.000000
  70
    32
  0
VERTEX
  8
0
  5
A8A
 10
-1.96845
 20
-6.55366
 30
0.000000
  70
    32
  0
VERTEX
  8
0
  5
A8B
 10
-1.98184
 20
-6.55148
 30
0.000000
  70
    32
  0
VERTEX
  8
0
  5
A8C
 10
-1.99524
 20
-6.54920
 30
0.000000
  70
    32
  0
VERTEX
  8
0
  5
A8D
 10
-2.00865
 20
-6.54684
 30
0.000000
  70
    32
  0
VERTEX
  8
0
  5
A8E
 10
-2.02205
 20
-6.54438
 30
0.000000
  70
    32
  0
VERTEX
  8
0
  5
A8F
 10
-2.03546
 20
-6.54184
 30
0.000000
  70
    32
  0
VERTEX
  8
0
  5
A90
 10
-2.04888
 20
-6.53921
 30
0.000000
  70
    32
  0
VERTEX
  8
0
  5
A91
 10
-2.06229
 20
-6.53649
 30
0.000000
  70
    32
  0
VERTEX
  8
0
  5
A92
 10
-2.07571
 20
-6.53369
 30
0.000000
  70
    32
  0
VERTEX
  8
0
  5
A93
 10
-2.08913
 20
-6.53081
 30
0.000000
  70
    32
  0
VERTEX
  8
0
  5
A94
 10
-2.10256
 20
-6.52784
 30
0.000000
  70
    32
  0
VERTEX
  8
0
  5
A95
 10
-2.11598
 20
-6.52479
 30
0.000000
  70
    32
  0
VERTEX
  8
0
  5
A96
 10
-2.12941
 20
-6.52167
 30
0.000000
  70
    32
  0
VERTEX
  8
0
  5
A97
 10
-2.14283
 20
-6.51846
 30
0.000000
  70
    32
  0
VERTEX
  8
0
  5
A98
 10
-2.15626
 20
-6.51518
 30
0.000000
  70
    32
  0
VERTEX
  8
0
  5
A99
 10
-2.16969
 20
-6.51182
 30
0.000000
  70
    32
  0
VERTEX
  8
0
  5
A9A
 10
-2.18312
 20
-6.50839
 30
0.000000
  70
    32
  0
VERTEX
  8
0
  5
A9B
 10
-2.19655
 20
-6.50488
 30
0.000000
  70
    32
  0
VERTEX
  8
0
  5
A9C
 10
-2.20998
 20
-6.50131
 30
0.000000
  70
    32
  0
VERTEX
  8
0
  5
A9D
 10
-2.22340
 20
-6.49766
 30
0.000000
  70
    32
  0
VERTEX
  8
0
  5
A9E
 10
-2.23683
 20
-6.49394
 30
0.000000
  70
    32
  0
VERTEX
  8
0
  5
A9F
 10
-2.25026
 20
-6.49016
 30
0.000000
  70
    32
  0
VERTEX
  8
0
  5
AA0
 10
-2.26368
 20
-6.48630
 30
0.000000
  70
    32
  0
VERTEX
  8
0
  5
AA1
 10
-2.27710
 20
-6.48239
 30
0.000000
  70
    32
  0
VERTEX
  8
0
  5
AA2
 10
-2.29052
 20
-6.47840
 30
0.000000
  70
    32
  0
VERTEX
  8
0
  5
AA3
 10
-2.30394
 20
-6.47436
 30
0.000000
  70
    32
  0
VERTEX
  8
0
  5
AA4
 10
-2.31735
 20
-6.47025
 30
0.000000
  70
    32
  0
VERTEX
  8
0
  5
AA5
 10
-2.33077
 20
-6.46608
 30
0.000000
  70
    32
  0
VERTEX
  8
0
  5
AA6
 10
-2.34418
 20
-6.46185
 30
0.000000
  70
    32
  0
VERTEX
  8
0
  5
AA7
 10
-2.35758
 20
-6.45757
 30
0.000000
  70
    32
  0
VERTEX
  8
0
  5
AA8
 10
-2.37098
 20
-6.45322
 30
0.000000
  70
    32
  0
VERTEX
  8
0
  5
AA9
 10
-2.38438
 20
-6.44882
 30
0.000000
  70
    32
  0
VERTEX
  8
0
  5
AAA
 10
-2.39777
 20
-6.44437
 30
0.000000
  70
    32
  0
VERTEX
  8
0
  5
AAB
 10
-2.41116
 20
-6.43986
 30
0.000000
  70
    32
  0
VERTEX
  8
0
  5
AAC
 10
-2.42455
 20
-6.43530
 30
0.000000
  70
    32
  0
VERTEX
  8
0
  5
AAD
 10
-2.43793
 20
-6.43070
 30
0.000000
  70
    32
  0
VERTEX
  8
0
  5
AAE
 10
-2.45130
 20
-6.42604
 30
0.000000
  70
    32
  0
VERTEX
  8
0
  5
AAF
 10
-2.46467
 20
-6.42133
 30
0.000000
  70
    32
  0
VERTEX
  8
0
  5
AB0
 10
-2.47803
 20
-6.41658
 30
0.000000
  70
    32
  0
VERTEX
  8
0
  5
AB1
 10
-2.49138
 20
-6.41178
 30
0.000000
  70
    32
  0
VERTEX
  8
0
  5
AB2
 10
-2.50473
 20
-6.40693
 30
0.000000
  70
    32
  0
VERTEX
  8
0
  5
AB3
 10
-2.51807
 20
-6.40205
 30
0.000000
  70
    32
  0
VERTEX
  8
0
  5
AB4
 10
-2.53141
 20
-6.39712
 30
0.000000
  70
    32
  0
VERTEX
  8
0
  5
AB5
 10
-2.54473
 20
-6.39215
 30
0.000000
  70
    32
  0
VERTEX
  8
0
  5
AB6
 10
-2.55805
 20
-6.38714
 30
0.000000
  70
    32
  0
VERTEX
  8
0
  5
AB7
 10
-2.57136
 20
-6.38209
 30
0.000000
  70
    32
  0
VERTEX
  8
0
  5
AB8
 10
-2.58467
 20
-6.37701
 30
0.000000
  70
    32
  0
VERTEX
  8
0
  5
AB9
 10
-2.59796
 20
-6.37189
 30
0.000000
  70
    32
  0
VERTEX
  8
0
  5
ABA
 10
-2.61125
 20
-6.36673
 30
0.000000
  70
    32
  0
VERTEX
  8
0
  5
ABB
 10
-2.62452
 20
-6.36155
 30
0.000000
  70
    32
  0
VERTEX
  8
0
  5
ABC
 10
-2.63779
 20
-6.35633
 30
0.000000
  70
    32
  0
VERTEX
  8
0
  5
ABD
 10
-2.65105
 20
-6.35108
 30
0.000000
  70
    32
  0
VERTEX
  8
0
  5
ABE
 10
-2.66429
 20
-6.34580
 30
0.000000
  70
    32
  0
VERTEX
  8
0
  5
ABF
 10
-2.67753
 20
-6.34049
 30
0.000000
  70
    32
  0
VERTEX
  8
0
  5
AC0
 10
-2.69076
 20
-6.33516
 30
0.000000
  70
    32
  0
VERTEX
  8
0
  5
AC1
 10
-2.70397
 20
-6.32980
 30
0.000000
  70
    32
  0
VERTEX
  8
0
  5
AC2
 10
-2.71717
 20
-6.32441
 30
0.000000
  70
    32
  0
VERTEX
  8
0
  5
AC3
 10
-2.73037
 20
-6.31901
 30
0.000000
  70
    32
  0
VERTEX
  8
0
  5
AC4
 10
-2.74355
 20
-6.31358
 30
0.000000
  70
    32
  0
VERTEX
  8
0
  5
AC5
 10
-2.75672
 20
-6.30813
 30
0.000000
  70
    32
  0
VERTEX
  8
0
  5
AC6
 10
-2.76987
 20
-6.30266
 30
0.000000
  70
    32
  0
VERTEX
  8
0
  5
AC7
 10
-2.78302
 20
-6.29717
 30
0.000000
  70
    32
  0
VERTEX
  8
0
  5
AC8
 10
-2.79615
 20
-6.29167
 30
0.000000
  70
    32
  0
VERTEX
  8
0
  5
AC9
 10
-2.80926
 20
-6.28615
 30
0.000000
  70
    32
  0
VERTEX
  8
0
  5
ACA
 10
-2.82237
 20
-6.28061
 30
0.000000
  70
    32
  0
VERTEX
  8
0
  5
ACB
 10
-2.83546
 20
-6.27507
 30
0.000000
  70
    32
  0
VERTEX
  8
0
  5
ACC
 10
-2.84854
 20
-6.26951
 30
0.000000
  70
    32
  0
VERTEX
  8
0
  5
ACD
 10
-2.86160
 20
-6.26394
 30
0.000000
  70
    32
  0
VERTEX
  8
0
  5
ACE
 10
-2.87464
 20
-6.25836
 30
0.000000
  70
    32
  0
VERTEX
  8
0
  5
ACF
 10
-2.88768
 20
-6.25277
 30
0.000000
  70
    32
  0
VERTEX
  8
0
  5
AD0
 10
-2.90069
 20
-6.24718
 30
0.000000
  70
    32
  0
VERTEX
  8
0
  5
AD1
 10
-2.91370
 20
-6.24158
 30
0.000000
  70
    32
  0
VERTEX
  8
0
  5
AD2
 10
-2.92668
 20
-6.23598
 30
0.000000
  70
    32
  0
VERTEX
  8
0
  5
AD3
 10
-2.93965
 20
-6.23037
 30
0.000000
  70
    32
  0
VERTEX
  8
0
  5
AD4
 10
-2.95261
 20
-6.22476
 30
0.000000
  70
    32
  0
VERTEX
  8
0
  5
AD5
 10
-2.96554
 20
-6.21915
 30
0.000000
  70
    32
  0
VERTEX
  8
0
  5
AD6
 10
-2.97846
 20
-6.21354
 30
0.000000
  70
    32
  0
VERTEX
  8
0
  5
AD7
 10
-2.99137
 20
-6.20794
 30
0.000000
  70
    32
  0
VERTEX
  8
0
  5
AD8
 10
-3.00425
 20
-6.20233
 30
0.000000
  70
    32
  0
VERTEX
  8
0
  5
AD9
 10
-3.01712
 20
-6.19673
 30
0.000000
  70
    32
  0
VERTEX
  8
0
  5
ADA
 10
-3.02997
 20
-6.19114
 30
0.000000
  70
    32
  0
VERTEX
  8
0
  5
ADB
 10
-3.04280
 20
-6.18555
 30
0.000000
  70
    32
  0
VERTEX
  8
0
  5
ADC
 10
-3.05562
 20
-6.17998
 30
0.000000
  70
    32
  0
VERTEX
  8
0
  5
ADD
 10
-3.06841
 20
-6.17441
 30
0.000000
  70
    32
  0
VERTEX
  8
0
  5
ADE
 10
-3.08119
 20
-6.16885
 30
0.000000
  70
    32
  0
VERTEX
  8
0
  5
ADF
 10
-3.09394
 20
-6.16330
 30
0.000000
  70
    32
  0
VERTEX
  8
0
  5
AE0
 10
-3.10668
 20
-6.15777
 30
0.000000
  70
    32
  0
VERTEX
  8
0
  5
AE1
 10
-3.11939
 20
-6.15225
 30
0.000000
  70
    32
  0
VERTEX
  8
0
  5
AE2
 10
-3.13209
 20
-6.14675
 30
0.000000
  70
    32
  0
VERTEX
  8
0
  5
AE3
 10
-3.14476
 20
-6.14126
 30
0.000000
  70
    32
  0
VERTEX
  8
0
  5
AE4
 10
-3.15742
 20
-6.13580
 30
0.000000
  70
    32
  0
VERTEX
  8
0
  5
AE5
 10
-3.17005
 20
-6.13035
 30
0.000000
  70
    32
  0
VERTEX
  8
0
  5
AE6
 10
-3.18266
 20
-6.12492
 30
0.000000
  70
    32
  0
VERTEX
  8
0
  5
AE7
 10
-3.19525
 20
-6.11952
 30
0.000000
  70
    32
  0
VERTEX
  8
0
  5
AE8
 10
-3.20782
 20
-6.11413
 30
0.000000
  70
    32
  0
VERTEX
  8
0
  5
AE9
 10
-3.22037
 20
-6.10878
 30
0.000000
  70
    32
  0
VERTEX
  8
0
  5
AEA
 10
-3.23289
 20
-6.10344
 30
0.000000
  70
    32
  0
VERTEX
  8
0
  5
AEB
 10
-3.24539
 20
-6.09814
 30
0.000000
  70
    32
  0
VERTEX
  8
0
  5
AEC
 10
-3.25786
 20
-6.09286
 30
0.000000
  70
    32
  0
VERTEX
  8
0
  5
AED
 10
-3.27032
 20
-6.08761
 30
0.000000
  70
    32
  0
VERTEX
  8
0
  5
AEE
 10
-3.28275
 20
-6.08240
 30
0.000000
  70
    32
  0
VERTEX
  8
0
  5
AEF
 10
-3.29515
 20
-6.07721
 30
0.000000
  70
    32
  0
VERTEX
  8
0
  5
AF0
 10
-3.31596
 20
-6.06852
 30
0.000000
  70
    32
  0
VERTEX
  8
0
  5
AF1
 10
-3.34234
 20
-6.05736
 30
0.000000
  70
    32
  0
VERTEX
  8
0
  5
AF2
 10
-3.36866
 20
-6.04605
 30
0.000000
  70
    32
  0
VERTEX
  8
0
  5
AF3
 10
-3.39491
 20
-6.03460
 30
0.000000
  70
    32
  0
VERTEX
  8
0
  5
AF4
 10
-3.42111
 20
-6.02301
 30
0.000000
  70
    32
  0
VERTEX
  8
0
  5
AF5
 10
-3.44725
 20
-6.01128
 30
0.000000
  70
    32
  0
VERTEX
  8
0
  5
AF6
 10
-3.47333
 20
-5.99940
 30
0.000000
  70
    32
  0
VERTEX
  8
0
  5
AF7
 10
-3.49935
 20
-5.98739
 30
0.000000
  70
    32
  0
VERTEX
  8
0
  5
AF8
 10
-3.52531
 20
-5.97524
 30
0.000000
  70
    32
  0
VERTEX
  8
0
  5
AF9
 10
-3.55120
 20
-5.96296
 30
0.000000
  70
    32
  0
VERTEX
  8
0
  5
AFA
 10
-3.57704
 20
-5.95054
 30
0.000000
  70
    32
  0
VERTEX
  8
0
  5
AFB
 10
-3.60282
 20
-5.93798
 30
0.000000
  70
    32
  0
VERTEX
  8
0
  5
AFC
 10
-3.62854
 20
-5.92529
 30
0.000000
  70
    32
  0
VERTEX
  8
0
  5
AFD
 10
-3.65420
 20
-5.91247
 30
0.000000
  70
    32
  0
VERTEX
  8
0
  5
AFE
 10
-3.67980
 20
-5.89952
 30
0.000000
  70
    32
  0
VERTEX
  8
0
  5
AFF
 10
-3.70534
 20
-5.88644
 30
0.000000
  70
    32
  0
VERTEX
  8
0
  5
B00
 10
-3.73082
 20
-5.87323
 30
0.000000
  70
    32
  0
VERTEX
  8
0
  5
B01
 10
-3.75624
 20
-5.85990
 30
0.000000
  70
    32
  0
VERTEX
  8
0
  5
B02
 10
-3.78159
 20
-5.84644
 30
0.000000
  70
    32
  0
VERTEX
  8
0
  5
B03
 10
-3.80689
 20
-5.83285
 30
0.000000
  70
    32
  0
VERTEX
  8
0
  5
B04
 10
-3.83213
 20
-5.81914
 30
0.000000
  70
    32
  0
VERTEX
  8
0
  5
B05
 10
-3.85730
 20
-5.80530
 30
0.000000
  70
    32
  0
VERTEX
  8
0
  5
B06
 10
-3.88242
 20
-5.79135
 30
0.000000
  70
    32
  0
VERTEX
  8
0
  5
B07
 10
-3.90747
 20
-5.77727
 30
0.000000
  70
    32
  0
VERTEX
  8
0
  5
B08
 10
-3.93247
 20
-5.76308
 30
0.000000
  70
    32
  0
VERTEX
  8
0
  5
B09
 10
-3.95740
 20
-5.74876
 30
0.000000
  70
    32
  0
VERTEX
  8
0
  5
B0A
 10
-3.98227
 20
-5.73433
 30
0.000000
  70
    32
  0
VERTEX
  8
0
  5
B0B
 10
-4.00708
 20
-5.71978
 30
0.000000
  70
    32
  0
VERTEX
  8
0
  5
B0C
 10
-4.03183
 20
-5.70512
 30
0.000000
  70
    32
  0
VERTEX
  8
0
  5
B0D
 10
-4.05652
 20
-5.69035
 30
0.000000
  70
    32
  0
VERTEX
  8
0
  5
B0E
 10
-4.08115
 20
-5.67546
 30
0.000000
  70
    32
  0
VERTEX
  8
0
  5
B0F
 10
-4.10571
 20
-5.66046
 30
0.000000
  70
    32
  0
VERTEX
  8
0
  5
B10
 10
-4.13022
 20
-5.64535
 30
0.000000
  70
    32
  0
VERTEX
  8
0
  5
B11
 10
-4.15466
 20
-5.63013
 30
0.000000
  70
    32
  0
VERTEX
  8
0
  5
B12
 10
-4.17904
 20
-5.61480
 30
0.000000
  70
    32
  0
VERTEX
  8
0
  5
B13
 10
-4.20336
 20
-5.59936
 30
0.000000
  70
    32
  0
VERTEX
  8
0
  5
B14
 10
-4.22762
 20
-5.58382
 30
0.000000
  70
    32
  0
VERTEX
  8
0
  5
B15
 10
-4.25182
 20
-5.56818
 30
0.000000
  70
    32
  0
VERTEX
  8
0
  5
B16
 10
-4.27595
 20
-5.55243
 30
0.000000
  70
    32
  0
VERTEX
  8
0
  5
B17
 10
-4.30003
 20
-5.53657
 30
0.000000
  70
    32
  0
VERTEX
  8
0
  5
B18
 10
-4.32404
 20
-5.52062
 30
0.000000
  70
    32
  0
VERTEX
  8
0
  5
B19
 10
-4.34799
 20
-5.50457
 30
0.000000
  70
    32
  0
VERTEX
  8
0
  5
B1A
 10
-4.37187
 20
-5.48841
 30
0.000000
  70
    32
  0
VERTEX
  8
0
  5
B1B
 10
-4.39570
 20
-5.47216
 30
0.000000
  70
    32
  0
VERTEX
  8
0
  5
B1C
 10
-4.41946
 20
-5.45582
 30
0.000000
  70
    32
  0
VERTEX
  8
0
  5
B1D
 10
-4.44316
 20
-5.43937
 30
0.000000
  70
    32
  0
VERTEX
  8
0
  5
B1E
 10
-4.46680
 20
-5.42283
 30
0.000000
  70
    32
  0
VERTEX
  8
0
  5
B1F
 10
-4.49038
 20
-5.40620
 30
0.000000
  70
    32
  0
VERTEX
  8
0
  5
B20
 10
-4.51389
 20
-5.38948
 30
0.000000
  70
    32
  0
VERTEX
  8
0
  5
B21
 10
-4.53734
 20
-5.37266
 30
0.000000
  70
    32
  0
VERTEX
  8
0
  5
B22
 10
-4.56073
 20
-5.35576
 30
0.000000
  70
    32
  0
VERTEX
  8
0
  5
B23
 10
-4.58406
 20
-5.33876
 30
0.000000
  70
    32
  0
VERTEX
  8
0
  5
B24
 10
-4.60732
 20
-5.32168
 30
0.000000
  70
    32
  0
VERTEX
  8
0
  5
B25
 10
-4.63052
 20
-5.30451
 30
0.000000
  70
    32
  0
VERTEX
  8
0
  5
B26
 10
-4.65366
 20
-5.28726
 30
0.000000
  70
    32
  0
VERTEX
  8
0
  5
B27
 10
-4.67674
 20
-5.26992
 30
0.000000
  70
    32
  0
VERTEX
  8
0
  5
B28
 10
-4.69975
 20
-5.25250
 30
0.000000
  70
    32
  0
VERTEX
  8
0
  5
B29
 10
-4.72270
 20
-5.23499
 30
0.000000
  70
    32
  0
VERTEX
  8
0
  5
B2A
 10
-4.74559
 20
-5.21741
 30
0.000000
  70
    32
  0
VERTEX
  8
0
  5
B2B
 10
-4.76841
 20
-5.19974
 30
0.000000
  70
    32
  0
VERTEX
  8
0
  5
B2C
 10
-4.79117
 20
-5.18200
 30
0.000000
  70
    32
  0
VERTEX
  8
0
  5
B2D
 10
-4.81386
 20
-5.16417
 30
0.000000
  70
    32
  0
VERTEX
  8
0
  5
B2E
 10
-4.83650
 20
-5.14628
 30
0.000000
  70
    32
  0
VERTEX
  8
0
  5
B2F
 10
-4.85907
 20
-5.12830
 30
0.000000
  70
    32
  0
VERTEX
  8
0
  5
B30
 10
-4.88157
 20
-5.11025
 30
0.000000
  70
    32
  0
VERTEX
  8
0
  5
B31
 10
-4.90402
 20
-5.09213
 30
0.000000
  70
    32
  0
VERTEX
  8
0
  5
B32
 10
-4.92640
 20
-5.07394
 30
0.000000
  70
    32
  0
VERTEX
  8
0
  5
B33
 10
-4.94871
 20
-5.05567
 30
0.000000
  70
    32
  0
VERTEX
  8
0
  5
B34
 10
-4.97096
 20
-5.03734
 30
0.000000
  70
    32
  0
VERTEX
  8
0
  5
B35
 10
-4.99315
 20
-5.01894
 30
0.000000
  70
    32
  0
VERTEX
  8
0
  5
B36
 10
-5.01528
 20
-5.00046
 30
0.000000
  70
    32
  0
VERTEX
  8
0
  5
B37
 10
-5.03734
 20
-4.98193
 30
0.000000
  70
    32
  0
VERTEX
  8
0
  5
B38
 10
-5.05933
 20
-4.96333
 30
0.000000
  70
    32
  0
VERTEX
  8
0
  5
B39
 10
-5.08127
 20
-4.94466
 30
0.000000
  70
    32
  0
VERTEX
  8
0
  5
B3A
 10
-5.10313
 20
-4.92593
 30
0.000000
  70
    32
  0
VERTEX
  8
0
  5
B3B
 10
-5.12494
 20
-4.90714
 30
0.000000
  70
    32
  0
VERTEX
  8
0
  5
B3C
 10
-5.14668
 20
-4.88829
 30
0.000000
  70
    32
  0
VERTEX
  8
0
  5
B3D
 10
-5.16835
 20
-4.86937
 30
0.000000
  70
    32
  0
VERTEX
  8
0
  5
B3E
 10
-5.18996
 20
-4.85040
 30
0.000000
  70
    32
  0
VERTEX
  8
0
  5
B3F
 10
-5.21151
 20
-4.83138
 30
0.000000
  70
    32
  0
VERTEX
  8
0
  5
B40
 10
-5.23299
 20
-4.81229
 30
0.000000
  70
    32
  0
VERTEX
  8
0
  5
B41
 10
-5.25441
 20
-4.79315
 30
0.000000
  70
    32
  0
VERTEX
  8
0
  5
B42
 10
-5.27576
 20
-4.77396
 30
0.000000
  70
    32
  0
VERTEX
  8
0
  5
B43
 10
-5.29705
 20
-4.75471
 30
0.000000
  70
    32
  0
VERTEX
  8
0
  5
B44
 10
-5.31827
 20
-4.73542
 30
0.000000
  70
    32
  0
VERTEX
  8
0
  5
B45
 10
-5.33943
 20
-4.71607
 30
0.000000
  70
    32
  0
VERTEX
  8
0
  5
B46
 10
-5.36053
 20
-4.69667
 30
0.000000
  70
    32
  0
VERTEX
  8
0
  5
B47
 10
-5.38155
 20
-4.67722
 30
0.000000
  70
    32
  0
VERTEX
  8
0
  5
B48
 10
-5.40252
 20
-4.65773
 30
0.000000
  70
    32
  0
VERTEX
  8
0
  5
B49
 10
-5.42342
 20
-4.63819
 30
0.000000
  70
    32
  0
VERTEX
  8
0
  5
B4A
 10
-5.44425
 20
-4.61861
 30
0.000000
  70
    32
  0
VERTEX
  8
0
  5
B4B
 10
-5.46502
 20
-4.59898
 30
0.000000
  70
    32
  0
VERTEX
  8
0
  5
B4C
 10
-5.48572
 20
-4.57931
 30
0.000000
  70
    32
  0
VERTEX
  8
0
  5
B4D
 10
-5.50636
 20
-4.55959
 30
0.000000
  70
    32
  0
VERTEX
  8
0
  5
B4E
 10
-5.52693
 20
-4.53984
 30
0.000000
  70
    32
  0
VERTEX
  8
0
  5
B4F
 10
-5.54744
 20
-4.52005
 30
0.000000
  70
    32
  0
VERTEX
  8
0
  5
B50
 10
-5.56788
 20
-4.50022
 30
0.000000
  70
    32
  0
VERTEX
  8
0
  5
B51
 10
-5.58825
 20
-4.48035
 30
0.000000
  70
    32
  0
VERTEX
  8
0
  5
B52
 10
-5.60856
 20
-4.46044
 30
0.000000
  70
    32
  0
VERTEX
  8
0
  5
B53
 10
-5.62881
 20
-4.44051
 30
0.000000
  70
    32
  0
VERTEX
  8
0
  5
B54
 10
-5.64898
 20
-4.42053
 30
0.000000
  70
    32
  0
VERTEX
  8
0
  5
B55
 10
-5.66910
 20
-4.40053
 30
0.000000
  70
    32
  0
VERTEX
  8
0
  5
B56
 10
-5.68765
 20
-4.38198
 30
0.000000
  70
    32
  0
VERTEX
  8
0
  5
B57
 10
-5.70390
 20
-4.36559
 30
0.000000
  70
    32
  0
VERTEX
  8
0
  5
B58
 10
-5.72008
 20
-4.34913
 30
0.000000
  70
    32
  0
VERTEX
  8
0
  5
B59
 10
-5.73618
 20
-4.33258
 30
0.000000
  70
    32
  0
VERTEX
  8
0
  5
B5A
 10
-5.75220
 20
-4.31596
 30
0.000000
  70
    32
  0
VERTEX
  8
0
  5
B5B
 10
-5.76816
 20
-4.29927
 30
0.000000
  70
    32
  0
VERTEX
  8
0
  5
B5C
 10
-5.78404
 20
-4.28250
 30
0.000000
  70
    32
  0
VERTEX
  8
0
  5
B5D
 10
-5.79985
 20
-4.26566
 30
0.000000
  70
    32
  0
VERTEX
  8
0
  5
B5E
 10
-5.81559
 20
-4.24874
 30
0.000000
  70
    32
  0
VERTEX
  8
0
  5
B5F
 10
-5.83125
 20
-4.23175
 30
0.000000
  70
    32
  0
VERTEX
  8
0
  5
B60
 10
-5.84685
 20
-4.21469
 30
0.000000
  70
    32
  0
VERTEX
  8
0
  5
B61
 10
-5.86237
 20
-4.19757
 30
0.000000
  70
    32
  0
VERTEX
  8
0
  5
B62
 10
-5.87783
 20
-4.18037
 30
0.000000
  70
    32
  0
VERTEX
  8
0
  5
B63
 10
-5.89321
 20
-4.16310
 30
0.000000
  70
    32
  0
VERTEX
  8
0
  5
B64
 10
-5.90852
 20
-4.14576
 30
0.000000
  70
    32
  0
VERTEX
  8
0
  5
B65
 10
-5.92377
 20
-4.12836
 30
0.000000
  70
    32
  0
VERTEX
  8
0
  5
B66
 10
-5.93895
 20
-4.11089
 30
0.000000
  70
    32
  0
VERTEX
  8
0
  5
B67
 10
-5.95406
 20
-4.09335
 30
0.000000
  70
    32
  0
VERTEX
  8
0
  5
B68
 10
-5.96910
 20
-4.07575
 30
0.000000
  70
    32
  0
VERTEX
  8
0
  5
B69
 10
-5.98407
 20
-4.05808
 30
0.000000
  70
    32
  0
VERTEX
  8
0
  5
B6A
 10
-5.99898
 20
-4.04036
 30
0.000000
  70
    32
  0
VERTEX
  8
0
  5
B6B
 10
-6.01382
 20
-4.02256
 30
0.000000
  70
    32
  0
VERTEX
  8
0
  5
B6C
 10
-6.02860
 20
-4.00471
 30
0.000000
  70
    32
  0
VERTEX
  8
0
  5
B6D
 10
-6.04330
 20
-3.98680
 30
0.000000
  70
    32
  0
VERTEX
  8
0
  5
B6E
 10
-6.05795
 20
-3.96883
 30
0.000000
  70
    32
  0
VERTEX
  8
0
  5
B6F
 10
-6.07253
 20
-3.95080
 30
0.000000
  70
    32
  0
VERTEX
  8
0
  5
B70
 10
-6.08704
 20
-3.93271
 30
0.000000
  70
    32
  0
VERTEX
  8
0
  5
B71
 10
-6.10149
 20
-3.91456
 30
0.000000
  70
    32
  0
VERTEX
  8
0
  5
B72
 10
-6.11588
 20
-3.89635
 30
0.000000
  70
    32
  0
VERTEX
  8
0
  5
B73
 10
-6.13020
 20
-3.87809
 30
0.000000
  70
    32
  0
VERTEX
  8
0
  5
B74
 10
-6.14447
 20
-3.85978
 30
0.000000
  70
    32
  0
VERTEX
  8
0
  5
B75
 10
-6.15866
 20
-3.84141
 30
0.000000
  70
    32
  0
VERTEX
  8
0
  5
B76
 10
-6.17280
 20
-3.82299
 30
0.000000
  70
    32
  0
VERTEX
  8
0
  5
B77
 10
-6.18688
 20
-3.80451
 30
0.000000
  70
    32
  0
VERTEX
  8
0
  5
B78
 10
-6.20089
 20
-3.78598
 30
0.000000
  70
    32
  0
VERTEX
  8
0
  5
B79
 10
-6.21485
 20
-3.76741
 30
0.000000
  70
    32
  0
VERTEX
  8
0
  5
B7A
 10
-6.22874
 20
-3.74878
 30
0.000000
  70
    32
  0
VERTEX
  8
0
  5
B7B
 10
-6.24257
 20
-3.73010
 30
0.000000
  70
    32
  0
VERTEX
  8
0
  5
B7C
 10
-6.25635
 20
-3.71138
 30
0.000000
  70
    32
  0
VERTEX
  8
0
  5
B7D
 10
-6.27006
 20
-3.69260
 30
0.000000
  70
    32
  0
VERTEX
  8
0
  5
B7E
 10
-6.28372
 20
-3.67378
 30
0.000000
  70
    32
  0
VERTEX
  8
0
  5
B7F
 10
-6.29732
 20
-3.65492
 30
0.000000
  70
    32
  0
VERTEX
  8
0
  5
B80
 10
-6.31086
 20
-3.63601
 30
0.000000
  70
    32
  0
VERTEX
  8
0
  5
B81
 10
-6.32435
 20
-3.61705
 30
0.000000
  70
    32
  0
VERTEX
  8
0
  5
B82
 10
-6.33777
 20
-3.59805
 30
0.000000
  70
    32
  0
VERTEX
  8
0
  5
B83
 10
-6.35114
 20
-3.57901
 30
0.000000
  70
    32
  0
VERTEX
  8
0
  5
B84
 10
-6.36446
 20
-3.55992
 30
0.000000
  70
    32
  0
VERTEX
  8
0
  5
B85
 10
-6.37772
 20
-3.54080
 30
0.000000
  70
    32
  0
VERTEX
  8
0
  5
B86
 10
-6.39092
 20
-3.52163
 30
0.000000
  70
    32
  0
VERTEX
  8
0
  5
B87
 10
-6.40407
 20
-3.50243
 30
0.000000
  70
    32
  0
VERTEX
  8
0
  5
B88
 10
-6.41716
 20
-3.48319
 30
0.000000
  70
    32
  0
VERTEX
  8
0
  5
B89
 10
-6.43020
 20
-3.46391
 30
0.000000
  70
    32
  0
VERTEX
  8
0
  5
B8A
 10
-6.44319
 20
-3.44459
 30
0.000000
  70
    32
  0
VERTEX
  8
0
  5
B8B
 10
-6.45612
 20
-3.42523
 30
0.000000
  70
    32
  0
VERTEX
  8
0
  5
B8C
 10
-6.46901
 20
-3.40584
 30
0.000000
  70
    32
  0
VERTEX
  8
0
  5
B8D
 10
-6.48183
 20
-3.38642
 30
0.000000
  70
    32
  0
VERTEX
  8
0
  5
B8E
 10
-6.49461
 20
-3.36696
 30
0.000000
  70
    32
  0
VERTEX
  8
0
  5
B8F
 10
-6.50734
 20
-3.34747
 30
0.000000
  70
    32
  0
VERTEX
  8
0
  5
B90
 10
-6.52001
 20
-3.32795
 30
0.000000
  70
    32
  0
VERTEX
  8
0
  5
B91
 10
-6.53264
 20
-3.30840
 30
0.000000
  70
    32
  0
VERTEX
  8
0
  5
B92
 10
-6.54521
 20
-3.28881
 30
0.000000
  70
    32
  0
VERTEX
  8
0
  5
B93
 10
-6.55773
 20
-3.26920
 30
0.000000
  70
    32
  0
VERTEX
  8
0
  5
B94
 10
-6.57021
 20
-3.24955
 30
0.000000
  70
    32
  0
VERTEX
  8
0
  5
B95
 10
-6.58263
 20
-3.22988
 30
0.000000
  70
    32
  0
VERTEX
  8
0
  5
B96
 10
-6.59501
 20
-3.21018
 30
0.000000
  70
    32
  0
VERTEX
  8
0
  5
B97
 10
-6.60734
 20
-3.19046
 30
0.000000
  70
    32
  0
VERTEX
  8
0
  5
B98
 10
-6.61962
 20
-3.17071
 30
0.000000
  70
    32
  0
VERTEX
  8
0
  5
B99
 10
-6.63185
 20
-3.15094
 30
0.000000
  70
    32
  0
VERTEX
  8
0
  5
B9A
 10
-6.64404
 20
-3.13114
 30
0.000000
  70
    32
  0
VERTEX
  8
0
  5
B9B
 10
-6.65618
 20
-3.11132
 30
0.000000
  70
    32
  0
VERTEX
  8
0
  5
B9C
 10
-6.66827
 20
-3.09147
 30
0.000000
  70
    32
  0
VERTEX
  8
0
  5
B9D
 10
-6.68032
 20
-3.07161
 30
0.000000
  70
    32
  0
VERTEX
  8
0
  5
B9E
 10
-6.69233
 20
-3.05172
 30
0.000000
  70
    32
  0
VERTEX
  8
0
  5
B9F
 10
-6.70429
 20
-3.03182
 30
0.000000
  70
    32
  0
VERTEX
  8
0
  5
BA0
 10
-6.71620
 20
-3.01189
 30
0.000000
  70
    32
  0
VERTEX
  8
0
  5
BA1
 10
-6.72807
 20
-2.99195
 30
0.000000
  70
    32
  0
VERTEX
  8
0
  5
BA2
 10
-6.73990
 20
-2.97199
 30
0.000000
  70
    32
  0
VERTEX
  8
0
  5
BA3
 10
-6.75168
 20
-2.95201
 30
0.000000
  70
    32
  0
VERTEX
  8
0
  5
BA4
 10
-6.76342
 20
-2.93202
 30
0.000000
  70
    32
  0
VERTEX
  8
0
  5
BA5
 10
-6.77512
 20
-2.91201
 30
0.000000
  70
    32
  0
VERTEX
  8
0
  5
BA6
 10
-6.78678
 20
-2.89199
 30
0.000000
  70
    32
  0
VERTEX
  8
0
  5
BA7
 10
-6.79839
 20
-2.87196
 30
0.000000
  70
    32
  0
VERTEX
  8
0
  5
BA8
 10
-6.80997
 20
-2.85191
 30
0.000000
  70
    32
  0
VERTEX
  8
0
  5
BA9
 10
-6.82150
 20
-2.83185
 30
0.000000
  70
    32
  0
VERTEX
  8
0
  5
BAA
 10
-6.83299
 20
-2.81178
 30
0.000000
  70
    32
  0
VERTEX
  8
0
  5
BAB
 10
-6.84445
 20
-2.79170
 30
0.000000
  70
    32
  0
VERTEX
  8
0
  5
BAC
 10
-6.85586
 20
-2.77161
 30
0.000000
  70
    32
  0
VERTEX
  8
0
  5
BAD
 10
-6.86724
 20
-2.75152
 30
0.000000
  70
    32
  0
VERTEX
  8
0
  5
BAE
 10
-6.87857
 20
-2.73141
 30
0.000000
  70
    32
  0
VERTEX
  8
0
  5
BAF
 10
-6.88987
 20
-2.71130
 30
0.000000
  70
    32
  0
VERTEX
  8
0
  5
BB0
 10
-6.90113
 20
-2.69118
 30
0.000000
  70
    32
  0
VERTEX
  8
0
  5
BB1
 10
-6.91236
 20
-2.67106
 30
0.000000
  70
    32
  0
VERTEX
  8
0
  5
BB2
 10
-6.92354
 20
-2.65094
 30
0.000000
  70
    32
  0
VERTEX
  8
0
  5
BB3
 10
-6.93469
 20
-2.63081
 30
0.000000
  70
    32
  0
VERTEX
  8
0
  5
BB4
 10
-6.94581
 20
-2.61067
 30
0.000000
  70
    32
  0
VERTEX
  8
0
  5
BB5
 10
-6.95689
 20
-2.59054
 30
0.000000
  70
    32
  0
VERTEX
  8
0
  5
BB6
 10
-6.96793
 20
-2.57041
 30
0.000000
  70
    32
  0
VERTEX
  8
0
  5
BB7
 10
-6.97894
 20
-2.55027
 30
0.000000
  70
    32
  0
VERTEX
  8
0
  5
BB8
 10
-6.98991
 20
-2.53014
 30
0.000000
  70
    32
  0
VERTEX
  8
0
  5
BB9
 10
-7.00085
 20
-2.51000
 30
0.000000
  70
    32
  0
VERTEX
  8
0
  5
BBA
 10
-7.01176
 20
-2.48987
 30
0.000000
  70
    32
  0
VERTEX
  8
0
  5
BBB
 10
-7.02263
 20
-2.46975
 30
0.000000
  70
    32
  0
VERTEX
  8
0
  5
BBC
 10
-7.03352
 20
-2.44953
 30
0.000000
  70
    32
  0
VERTEX
  8
0
  5
BBD
 10
-7.04455
 20
-2.42890
 30
0.000000
  70
    32
  0
VERTEX
  8
0
  5
BBE
 10
-7.05547
 20
-2.40824
 30
0.000000
  70
    32
  0
VERTEX
  8
0
  5
BBF
 10
-7.06630
 20
-2.38753
 30
0.000000
  70
    32
  0
VERTEX
  8
0
  5
BC0
 10
-7.07703
 20
-2.36678
 30
0.000000
  70
    32
  0
VERTEX
  8
0
  5
BC1
 10
-7.08767
 20
-2.34598
 30
0.000000
  70
    32
  0
VERTEX
  8
0
  5
BC2
 10
-7.09821
 20
-2.32515
 30
0.000000
  70
    32
  0
VERTEX
  8
0
  5
BC3
 10
-7.10867
 20
-2.30428
 30
0.000000
  70
    32
  0
VERTEX
  8
0
  5
BC4
 10
-7.11903
 20
-2.28336
 30
0.000000
  70
    32
  0
VERTEX
  8
0
  5
BC5
 10
-7.12929
 20
-2.26241
 30
0.000000
  70
    32
  0
VERTEX
  8
0
  5
BC6
 10
-7.13947
 20
-2.24142
 30
0.000000
  70
    32
  0
VERTEX
  8
0
  5
BC7
 10
-7.14956
 20
-2.22038
 30
0.000000
  70
    32
  0
VERTEX
  8
0
  5
BC8
 10
-7.15957
 20
-2.19932
 30
0.000000
  70
    32
  0
VERTEX
  8
0
  5
BC9
 10
-7.16948
 20
-2.17821
 30
0.000000
  70
    32
  0
VERTEX
  8
0
  5
BCA
 10
-7.17932
 20
-2.15707
 30
0.000000
  70
    32
  0
VERTEX
  8
0
  5
BCB
 10
-7.18906
 20
-2.13589
 30
0.000000
  70
    32
  0
VERTEX
  8
0
  5
BCC
 10
-7.19873
 20
-2.11467
 30
0.000000
  70
    32
  0
VERTEX
  8
0
  5
BCD
 10
-7.20831
 20
-2.09342
 30
0.000000
  70
    32
  0
VERTEX
  8
0
  5
BCE
 10
-7.21781
 20
-2.07213
 30
0.000000
  70
    32
  0
VERTEX
  8
0
  5
BCF
 10
-7.22723
 20
-2.05081
 30
0.000000
  70
    32
  0
VERTEX
  8
0
  5
BD0
 10
-7.23657
 20
-2.02946
 30
0.000000
  70
    32
  0
VERTEX
  8
0
  5
BD1
 10
-7.24583
 20
-2.00807
 30
0.000000
  70
    32
  0
VERTEX
  8
0
  5
BD2
 10
-7.25502
 20
-1.98666
 30
0.000000
  70
    32
  0
VERTEX
  8
0
  5
BD3
 10
-7.26413
 20
-1.96520
 30
0.000000
  70
    32
  0
VERTEX
  8
0
  5
BD4
 10
-7.27316
 20
-1.94372
 30
0.000000
  70
    32
  0
VERTEX
  8
0
  5
BD5
 10
-7.28212
 20
-1.92221
 30
0.000000
  70
    32
  0
VERTEX
  8
0
  5
BD6
 10
-7.29101
 20
-1.90066
 30
0.000000
  70
    32
  0
VERTEX
  8
0
  5
BD7
 10
-7.29982
 20
-1.87909
 30
0.000000
  70
    32
  0
VERTEX
  8
0
  5
BD8
 10
-7.30857
 20
-1.85748
 30
0.000000
  70
    32
  0
VERTEX
  8
0
  5
BD9
 10
-7.31724
 20
-1.83585
 30
0.000000
  70
    32
  0
VERTEX
  8
0
  5
BDA
 10
-7.32585
 20
-1.81419
 30
0.000000
  70
    32
  0
VERTEX
  8
0
  5
BDB
 10
-7.33439
 20
-1.79249
 30
0.000000
  70
    32
  0
VERTEX
  8
0
  5
BDC
 10
-7.34286
 20
-1.77078
 30
0.000000
  70
    32
  0
VERTEX
  8
0
  5
BDD
 10
-7.35126
 20
-1.74903
 30
0.000000
  70
    32
  0
VERTEX
  8
0
  5
BDE
 10
-7.35960
 20
-1.72726
 30
0.000000
  70
    32
  0
VERTEX
  8
0
  5
BDF
 10
-7.36788
 20
-1.70546
 30
0.000000
  70
    32
  0
VERTEX
  8
0
  5
BE0
 10
-7.37610
 20
-1.68364
 30
0.000000
  70
    32
  0
VERTEX
  8
0
  5
BE1
 10
-7.38425
 20
-1.66179
 30
0.000000
  70
    32
  0
VERTEX
  8
0
  5
BE2
 10
-7.39234
 20
-1.63992
 30
0.000000
  70
    32
  0
VERTEX
  8
0
  5
BE3
 10
-7.40037
 20
-1.61802
 30
0.000000
  70
    32
  0
VERTEX
  8
0
  5
BE4
 10
-7.40835
 20
-1.59611
 30
0.000000
  70
    32
  0
VERTEX
  8
0
  5
BE5
 10
-7.41627
 20
-1.57416
 30
0.000000
  70
    32
  0
VERTEX
  8
0
  5
BE6
 10
-7.42413
 20
-1.55220
 30
0.000000
  70
    32
  0
VERTEX
  8
0
  5
BE7
 10
-7.43193
 20
-1.53021
 30
0.000000
  70
    32
  0
VERTEX
  8
0
  5
BE8
 10
-7.43968
 20
-1.50820
 30
0.000000
  70
    32
  0
VERTEX
  8
0
  5
BE9
 10
-7.44738
 20
-1.48618
 30
0.000000
  70
    32
  0
VERTEX
  8
0
  5
BEA
 10
-7.45503
 20
-1.46413
 30
0.000000
  70
    32
  0
VERTEX
  8
0
  5
BEB
 10
-7.46262
 20
-1.44206
 30
0.000000
  70
    32
  0
VERTEX
  8
0
  5
BEC
 10
-7.47017
 20
-1.41997
 30
0.000000
  70
    32
  0
VERTEX
  8
0
  5
BED
 10
-7.47766
 20
-1.39787
 30
0.000000
  70
    32
  0
VERTEX
  8
0
  5
BEE
 10
-7.48511
 20
-1.37574
 30
0.000000
  70
    32
  0
VERTEX
  8
0
  5
BEF
 10
-7.49251
 20
-1.35360
 30
0.000000
  70
    32
  0
VERTEX
  8
0
  5
BF0
 10
-7.49987
 20
-1.33144
 30
0.000000
  70
    32
  0
VERTEX
  8
0
  5
BF1
 10
-7.50718
 20
-1.30926
 30
0.000000
  70
    32
  0
VERTEX
  8
0
  5
BF2
 10
-7.51444
 20
-1.28707
 30
0.000000
  70
    32
  0
VERTEX
  8
0
  5
BF3
 10
-7.52166
 20
-1.26486
 30
0.000000
  70
    32
  0
VERTEX
  8
0
  5
BF4
 10
-7.52885
 20
-1.24264
 30
0.000000
  70
    32
  0
VERTEX
  8
0
  5
BF5
 10
-7.53599
 20
-1.22041
 30
0.000000
  70
    32
  0
VERTEX
  8
0
  5
BF6
 10
-7.54309
 20
-1.19815
 30
0.000000
  70
    32
  0
VERTEX
  8
0
  5
BF7
 10
-7.55015
 20
-1.17589
 30
0.000000
  70
    32
  0
VERTEX
  8
0
  5
BF8
 10
-7.55717
 20
-1.15361
 30
0.000000
  70
    32
  0
VERTEX
  8
0
  5
BF9
 10
-7.56416
 20
-1.13132
 30
0.000000
  70
    32
  0
VERTEX
  8
0
  5
BFA
 10
-7.57111
 20
-1.10902
 30
0.000000
  70
    32
  0
VERTEX
  8
0
  5
BFB
 10
-7.57803
 20
-1.08671
 30
0.000000
  70
    32
  0
VERTEX
  8
0
  5
BFC
 10
-7.58491
 20
-1.06438
 30
0.000000
  70
    32
  0
VERTEX
  8
0
  5
BFD
 10
-7.59176
 20
-1.04205
 30
0.000000
  70
    32
  0
VERTEX
  8
0
  5
BFE
 10
-7.59858
 20
-1.01970
 30
0.000000
  70
    32
  0
VERTEX
  8
0
  5
BFF
 10
-7.60537
 20
-0.997349
 30
0.000000
  70
    32
  0
VERTEX
  8
0
  5
C00
 10
-7.61213
 20
-0.974986
 30
0.000000
  70
    32
  0
VERTEX
  8
0
  5
C01
 10
-7.61886
 20
-0.952615
 30
0.000000
  70
    32
  0
VERTEX
  8
0
  5
C02
 10
-7.62557
 20
-0.930236
 30
0.000000
  70
    32
  0
VERTEX
  8
0
  5
C03
 10
-7.63225
 20
-0.907850
 30
0.000000
  70
    32
  0
VERTEX
  8
0
  5
C04
 10
-7.63890
 20
-0.885457
 30
0.000000
  70
    32
  0
VERTEX
  8
0
  5
C05
 10
-7.64553
 20
-0.863058
 30
0.000000
  70
    32
  0
VERTEX
  8
0
  5
C06
 10
-7.65214
 20
-0.840653
 30
0.000000
  70
    32
  0
VERTEX
  8
0
  5
C07
 10
-7.65872
 20
-0.818243
 30
0.000000
  70
    32
  0
VERTEX
  8
0
  5
C08
 10
-7.66528
 20
-0.795829
 30
0.000000
  70
    32
  0
VERTEX
  8
0
  5
C09
 10
-7.67182
 20
-0.773410
 30
0.000000
  70
    32
  0
VERTEX
  8
0
  5
C0A
 10
-7.67835
 20
-0.750987
 30
0.000000
  70
    32
  0
VERTEX
  8
0
  5
C0B
 10
-7.68485
 20
-0.728562
 30
0.000000
  70
    32
  0
VERTEX
  8
0
  5
C0C
 10
-7.69134
 20
-0.706133
 30
0.000000
  70
    32
  0
VERTEX
  8
0
  5
C0D
 10
-7.69782
 20
-0.683703
 30
0.000000
  70
    32
  0
VERTEX
  8
0
  5
C0E
 10
-7.70427
 20
-0.661271
 30
0.000000
  70
    32
  0
VERTEX
  8
0
  5
C0F
 10
-7.71072
 20
-0.638838
 30
0.000000
  70
    32
  0
VERTEX
  8
0
  5
C10
 10
-7.71715
 20
-0.616405
 30
0.000000
  70
    32
  0
VERTEX
  8
0
  5
C11
 10
-7.72357
 20
-0.593972
 30
0.000000
  70
    32
  0
VERTEX
  8
0
  5
C12
 10
-7.72998
 20
-0.571539
 30
0.000000
  70
    32
  0
VERTEX
  8
0
  5
C13
 10
-7.73638
 20
-0.549107
 30
0.000000
  70
    32
  0
VERTEX
  8
0
  5
C14
 10
-7.74277
 20
-0.526677
 30
0.000000
  70
    32
  0
VERTEX
  8
0
  5
C15
 10
-7.74915
 20
-0.504248
 30
0.000000
  70
    32
  0
VERTEX
  8
0
  5
C16
 10
-7.75553
 20
-0.481823
 30
0.000000
  70
    32
  0
VERTEX
  8
0
  5
C17
 10
-7.76190
 20
-0.459400
 30
0.000000
  70
    32
  0
VERTEX
  8
0
  5
C18
 10
-7.76827
 20
-0.436981
 30
0.000000
  70
    32
  0
VERTEX
  8
0
  5
C19
 10
-7.77463
 20
-0.414567
 30
0.000000
  70
    32
  0
VERTEX
  8
0
  5
C1A
 10
-7.78099
 20
-0.392156
 30
0.000000
  70
    32
  0
VERTEX
  8
0
  5
C1B
 10
-7.78735
 20
-0.369752
 30
0.000000
  70
    32
  0
VERTEX
  8
0
  5
C1C
 10
-7.79371
 20
-0.347352
 30
0.000000
  70
    32
  0
VERTEX
  8
0
  5
C1D
 10
-7.80007
 20
-0.324959
 30
0.000000
  70
    32
  0
VERTEX
  8
0
  5
C1E
 10
-7.80643
 20
-0.302573
 30
0.000000
  70
    32
  0
VERTEX
  8
0
  5
C1F
 10
-7.81280
 20
-0.280194
 30
0.000000
  70
    32
  0
VERTEX
  8
0
  5
C20
 10
-7.81917
 20
-0.257823
 30
0.000000
  70
    32
  0
VERTEX
  8
0
  5
C21
 10
-7.82554
 20
-0.235460
 30
0.000000
  70
    32
  0
VERTEX
  8
0
  5
C22
 10
-7.83192
 20
-0.213106
 30
0.000000
  70
    32
  0
SEQEND
  8
0
  5
C23
  0
POLYLINE
  5
92
  8
0
  6
HIDDEN2
 66
     1
 10
0.0
 20
0.0
 30
0.0
  0
VERTEX
  5
93
  8
0
  6
HIDDEN2
 10
-0.1598837597122724
 20
-7.139378948941256
 30
0.0
  0
VERTEX
  5
94
  8
0
  6
HIDDEN2
 10
2.3442753025742742
 20
-7.139378948941256
 30
0.0
  0
SEQEND
  5
95
  8
0
  6
HIDDEN2
  0
POLYLINE
  8
0
  5
C24
  66
     1
 10
0.000000
 20
0.000000
 30
0.000000
  70
     8
  0
VERTEX
  8
0
  5
C25
 10
8.52457
 20
1.06553
 30
0.000000
  70
    32
  0
VERTEX
  8
0
  5
C26
 10
8.52287
 20
1.06525
 30
0.000000
  70
    32
  0
VERTEX
  8
0
  5
C27
 10
8.52120
 20
1.06499
 30
0.000000
  70
    32
  0
VERTEX
  8
0
  5
C28
 10
8.51955
 20
1.06477
 30
0.000000
  70
    32
  0
VERTEX
  8
0
  5
C29
 10
8.51792
 20
1.06457
 30
0.000000
  70
    32
  0
VERTEX
  8
0
  5
C2A
 10
8.51632
 20
1.06439
 30
0.000000
  70
    32
  0
VERTEX
  8
0
  5
C2B
 10
8.51474
 20
1.06425
 30
0.000000
  70
    32
  0
VERTEX
  8
0
  5
C2C
 10
8.51319
 20
1.06413
 30
0.000000
  70
    32
  0
VERTEX
  8
0
  5
C2D
 10
8.51165
 20
1.06404
 30
0.000000
  70
    32
  0
VERTEX
  8
0
  5
C2E
 10
8.51014
 20
1.06397
 30
0.000000
  70
    32
  0
VERTEX
  8
0
  5
C2F
 10
8.50866
 20
1.06393
 30
0.000000
  70
    32
  0
VERTEX
  8
0
  5
C30
 10
8.50719
 20
1.06392
 30
0.000000
  70
    32
  0
VERTEX
  8
0
  5
C31
 10
8.50575
 20
1.06393
 30
0.000000
  70
    32
  0
VERTEX
  8
0
  5
C32
 10
8.50432
 20
1.06397
 30
0.000000
  70
    32
  0
VERTEX
  8
0
  5
C33
 10
8.50292
 20
1.06403
 30
0.000000
  70
    32
  0
VERTEX
  8
0
  5
C34
 10
8.50154
 20
1.06412
 30
0.000000
  70
    32
  0
VERTEX
  8
0
  5
C35
 10
8.50018
 20
1.06423
 30
0.000000
  70
    32
  0
VERTEX
  8
0
  5
C36
 10
8.49885
 20
1.06437
 30
0.000000
  70
    32
  0
VERTEX
  8
0
  5
C37
 10
8.49753
 20
1.06453
 30
0.000000
  70
    32
  0
VERTEX
  8
0
  5
C38
 10
8.49623
 20
1.06472
 30
0.000000
  70
    32
  0
VERTEX
  8
0
  5
C39
 10
8.49495
 20
1.06492
 30
0.000000
  70
    32
  0
VERTEX
  8
0
  5
C3A
 10
8.49369
 20
1.06516
 30
0.000000
  70
    32
  0
VERTEX
  8
0
  5
C3B
 10
8.49245
 20
1.06541
 30
0.000000
  70
    32
  0
VERTEX
  8
0
  5
C3C
 10
8.49123
 20
1.06569
 30
0.000000
  70
    32
  0
VERTEX
  8
0
  5
C3D
 10
8.49003
 20
1.06599
 30
0.000000
  70
    32
  0
VERTEX
  8
0
  5
C3E
 10
8.48885
 20
1.06631
 30
0.000000
  70
    32
  0
VERTEX
  8
0
  5
C3F
 10
8.48768
 20
1.06666
 30
0.000000
  70
    32
  0
VERTEX
  8
0
  5
C40
 10
8.48654
 20
1.06702
 30
0.000000
  70
    32
  0
VERTEX
  8
0
  5
C41
 10
8.48541
 20
1.06741
 30
0.000000
  70
    32
  0
VERTEX
  8
0
  5
C42
 10
8.48429
 20
1.06782
 30
0.000000
  70
    32
  0
VERTEX
  8
0
  5
C43
 10
8.48320
 20
1.06825
 30
0.000000
  70
    32
  0
VERTEX
  8
0
  5
C44
 10
8.48212
 20
1.06870
 30
0.000000
  70
    32
  0
VERTEX
  8
0
  5
C45
 10
8.48106
 20
1.06918
 30
0.000000
  70
    32
  0
VERTEX
  8
0
  5
C46
 10
8.48002
 20
1.06967
 30
0.000000
  70
    32
  0
VERTEX
  8
0
  5
C47
 10
8.47899
 20
1.07018
 30
0.000000
  70
    32
  0
VERTEX
  8
0
  5
C48
 10
8.47798
 20
1.07072
 30
0.000000
  70
    32
  0
VERTEX
  8
0
  5
C49
 10
8.47698
 20
1.07127
 30
0.000000
  70
    32
  0
VERTEX
  8
0
  5
C4A
 10
8.47600
 20
1.07184
 30
0.000000
  70
    32
  0
VERTEX
  8
0
  5
C4B
 10
8.47503
 20
1.07243
 30
0.000000
  70
    32
  0
VERTEX
  8
0
  5
C4C
 10
8.47408
 20
1.07304
 30
0.000000
  70
    32
  0
VERTEX
  8
0
  5
C4D
 10
8.47314
 20
1.07367
 30
0.000000
  70
    32
  0
VERTEX
  8
0
  5
C4E
 10
8.47222
 20
1.07432
 30
0.000000
  70
    32
  0
VERTEX
  8
0
  5
C4F
 10
8.47131
 20
1.07499
 30
0.000000
  70
    32
  0
VERTEX
  8
0
  5
C50
 10
8.47042
 20
1.07567
 30
0.000000
  70
    32
  0
VERTEX
  8
0
  5
C51
 10
8.46954
 20
1.07637
 30
0.000000
  70
    32
  0
VERTEX
  8
0
  5
C52
 10
8.46867
 20
1.07709
 30
0.000000
  70
    32
  0
VERTEX
  8
0
  5
C53
 10
8.46782
 20
1.07783
 30
0.000000
  70
    32
  0
VERTEX
  8
0
  5
C54
 10
8.46697
 20
1.07858
 30
0.000000
  70
    32
  0
VERTEX
  8
0
  5
C55
 10
8.46614
 20
1.07935
 30
0.000000
  70
    32
  0
VERTEX
  8
0
  5
C56
 10
8.46533
 20
1.08014
 30
0.000000
  70
    32
  0
VERTEX
  8
0
  5
C57
 10
8.46452
 20
1.08094
 30
0.000000
  70
    32
  0
VERTEX
  8
0
  5
C58
 10
8.46373
 20
1.08176
 30
0.000000
  70
    32
  0
VERTEX
  8
0
  5
C59
 10
8.46295
 20
1.08260
 30
0.000000
  70
    32
  0
VERTEX
  8
0
  5
C5A
 10
8.46218
 20
1.08345
 30
0.000000
  70
    32
  0
VERTEX
  8
0
  5
C5B
 10
8.46142
 20
1.08431
 30
0.000000
  70
    32
  0
VERTEX
  8
0
  5
C5C
 10
8.46067
 20
1.08519
 30
0.000000
  70
    32
  0
VERTEX
  8
0
  5
C5D
 10
8.45993
 20
1.08609
 30
0.000000
  70
    32
  0
VERTEX
  8
0
  5
C5E
 10
8.45921
 20
1.08700
 30
0.000000
  70
    32
  0
VERTEX
  8
0
  5
C5F
 10
8.45849
 20
1.08792
 30
0.000000
  70
    32
  0
VERTEX
  8
0
  5
C60
 10
8.45778
 20
1.08886
 30
0.000000
  70
    32
  0
VERTEX
  8
0
  5
C61
 10
8.45708
 20
1.08981
 30
0.000000
  70
    32
  0
VERTEX
  8
0
  5
C62
 10
8.45639
 20
1.09078
 30
0.000000
  70
    32
  0
VERTEX
  8
0
  5
C63
 10
8.45571
 20
1.09176
 30
0.000000
  70
    32
  0
VERTEX
  8
0
  5
C64
 10
8.45504
 20
1.09275
 30
0.000000
  70
    32
  0
VERTEX
  8
0
  5
C65
 10
8.45438
 20
1.09376
 30
0.000000
  70
    32
  0
VERTEX
  8
0
  5
C66
 10
8.45372
 20
1.09477
 30
0.000000
  70
    32
  0
VERTEX
  8
0
  5
C67
 10
8.45307
 20
1.09580
 30
0.000000
  70
    32
  0
VERTEX
  8
0
  5
C68
 10
8.45244
 20
1.09685
 30
0.000000
  70
    32
  0
VERTEX
  8
0
  5
C69
 10
8.45180
 20
1.09790
 30
0.000000
  70
    32
  0
VERTEX
  8
0
  5
C6A
 10
8.45118
 20
1.09897
 30
0.000000
  70
    32
  0
VERTEX
  8
0
  5
C6B
 10
8.45056
 20
1.10004
 30
0.000000
  70
    32
  0
VERTEX
  8
0
  5
C6C
 10
8.44995
 20
1.10113
 30
0.000000
  70
    32
  0
VERTEX
  8
0
  5
C6D
 10
8.44934
 20
1.10223
 30
0.000000
  70
    32
  0
VERTEX
  8
0
  5
C6E
 10
8.44875
 20
1.10334
 30
0.000000
  70
    32
  0
VERTEX
  8
0
  5
C6F
 10
8.44815
 20
1.10446
 30
0.000000
  70
    32
  0
VERTEX
  8
0
  5
C70
 10
8.44756
 20
1.10559
 30
0.000000
  70
    32
  0
VERTEX
  8
0
  5
C71
 10
8.44698
 20
1.10673
 30
0.000000
  70
    32
  0
VERTEX
  8
0
  5
C72
 10
8.44641
 20
1.10788
 30
0.000000
  70
    32
  0
VERTEX
  8
0
  5
C73
 10
8.44583
 20
1.10904
 30
0.000000
  70
    32
  0
VERTEX
  8
0
  5
C74
 10
8.44527
 20
1.11020
 30
0.000000
  70
    32
  0
VERTEX
  8
0
  5
C75
 10
8.44470
 20
1.11138
 30
0.000000
  70
    32
  0
VERTEX
  8
0
  5
C76
 10
8.44414
 20
1.11257
 30
0.000000
  70
    32
  0
VERTEX
  8
0
  5
C77
 10
8.44359
 20
1.11376
 30
0.000000
  70
    32
  0
VERTEX
  8
0
  5
C78
 10
8.44304
 20
1.11496
 30
0.000000
  70
    32
  0
VERTEX
  8
0
  5
C79
 10
8.44249
 20
1.11617
 30
0.000000
  70
    32
  0
VERTEX
  8
0
  5
C7A
 10
8.44194
 20
1.11739
 30
0.000000
  70
    32
  0
VERTEX
  8
0
  5
C7B
 10
8.44140
 20
1.11861
 30
0.000000
  70
    32
  0
VERTEX
  8
0
  5
C7C
 10
8.44086
 20
1.11985
 30
0.000000
  70
    32
  0
VERTEX
  8
0
  5
C7D
 10
8.44032
 20
1.12109
 30
0.000000
  70
    32
  0
VERTEX
  8
0
  5
C7E
 10
8.43978
 20
1.12233
 30
0.000000
  70
    32
  0
VERTEX
  8
0
  5
C7F
 10
8.43925
 20
1.12358
 30
0.000000
  70
    32
  0
VERTEX
  8
0
  5
C80
 10
8.43872
 20
1.12484
 30
0.000000
  70
    32
  0
VERTEX
  8
0
  5
C81
 10
8.43819
 20
1.12611
 30
0.000000
  70
    32
  0
VERTEX
  8
0
  5
C82
 10
8.43765
 20
1.12738
 30
0.000000
  70
    32
  0
VERTEX
  8
0
  5
C83
 10
8.43712
 20
1.12865
 30
0.000000
  70
    32
  0
VERTEX
  8
0
  5
C84
 10
8.43660
 20
1.12993
 30
0.000000
  70
    32
  0
VERTEX
  8
0
  5
C85
 10
8.43607
 20
1.13122
 30
0.000000
  70
    32
  0
VERTEX
  8
0
  5
C86
 10
8.43554
 20
1.13251
 30
0.000000
  70
    32
  0
VERTEX
  8
0
  5
C87
 10
8.43501
 20
1.13380
 30
0.000000
  70
    32
  0
VERTEX
  8
0
  5
C88
 10
8.43448
 20
1.13510
 30
0.000000
  70
    32
  0
VERTEX
  8
0
  5
C89
 10
8.43395
 20
1.13640
 30
0.000000
  70
    32
  0
VERTEX
  8
0
  5
C8A
 10
8.43341
 20
1.13771
 30
0.000000
  70
    32
  0
VERTEX
  8
0
  5
C8B
 10
8.43288
 20
1.13902
 30
0.000000
  70
    32
  0
VERTEX
  8
0
  5
C8C
 10
8.43234
 20
1.14034
 30
0.000000
  70
    32
  0
VERTEX
  8
0
  5
C8D
 10
8.43181
 20
1.14165
 30
0.000000
  70
    32
  0
VERTEX
  8
0
  5
C8E
 10
8.43127
 20
1.14297
 30
0.000000
  70
    32
  0
VERTEX
  8
0
  5
C8F
 10
8.43073
 20
1.14429
 30
0.000000
  70
    32
  0
VERTEX
  8
0
  5
C90
 10
8.43018
 20
1.14562
 30
0.000000
  70
    32
  0
VERTEX
  8
0
  5
C91
 10
8.42963
 20
1.14694
 30
0.000000
  70
    32
  0
VERTEX
  8
0
  5
C92
 10
8.42908
 20
1.14827
 30
0.000000
  70
    32
  0
VERTEX
  8
0
  5
C93
 10
8.42853
 20
1.14960
 30
0.000000
  70
    32
  0
VERTEX
  8
0
  5
C94
 10
8.42797
 20
1.15093
 30
0.000000
  70
    32
  0
VERTEX
  8
0
  5
C95
 10
8.42741
 20
1.15226
 30
0.000000
  70
    32
  0
VERTEX
  8
0
  5
C96
 10
8.42685
 20
1.15359
 30
0.000000
  70
    32
  0
VERTEX
  8
0
  5
C97
 10
8.42628
 20
1.15493
 30
0.000000
  70
    32
  0
VERTEX
  8
0
  5
C98
 10
8.42570
 20
1.15626
 30
0.000000
  70
    32
  0
VERTEX
  8
0
  5
C99
 10
8.42512
 20
1.15759
 30
0.000000
  70
    32
  0
VERTEX
  8
0
  5
C9A
 10
8.42454
 20
1.15893
 30
0.000000
  70
    32
  0
VERTEX
  8
0
  5
C9B
 10
8.42394
 20
1.16026
 30
0.000000
  70
    32
  0
VERTEX
  8
0
  5
C9C
 10
8.42335
 20
1.16159
 30
0.000000
  70
    32
  0
VERTEX
  8
0
  5
C9D
 10
8.42275
 20
1.16292
 30
0.000000
  70
    32
  0
VERTEX
  8
0
  5
C9E
 10
8.42214
 20
1.16425
 30
0.000000
  70
    32
  0
VERTEX
  8
0
  5
C9F
 10
8.42152
 20
1.16558
 30
0.000000
  70
    32
  0
VERTEX
  8
0
  5
CA0
 10
8.42090
 20
1.16691
 30
0.000000
  70
    32
  0
VERTEX
  8
0
  5
CA1
 10
8.42027
 20
1.16823
 30
0.000000
  70
    32
  0
VERTEX
  8
0
  5
CA2
 10
8.41964
 20
1.16955
 30
0.000000
  70
    32
  0
VERTEX
  8
0
  5
CA3
 10
8.41899
 20
1.17087
 30
0.000000
  70
    32
  0
VERTEX
  8
0
  5
CA4
 10
8.41834
 20
1.17219
 30
0.000000
  70
    32
  0
SEQEND
  8
0
  5
CA5
  0
POLYLINE
  8
0
  5
CA6
  66
     1
 10
0.000000
 20
0.000000
 30
0.000000
  70
     8
  0
VERTEX
  8
0
  5
CA7
 10
8.36479
 20
1.27864
 30
0.000000
  70
    32
  0
VERTEX
  8
0
  5
CA8
 10
8.36572
 20
1.27808
 30
0.000000
  70
    32
  0
VERTEX
  8
0
  5
CA9
 10
8.36665
 20
1.27751
 30
0.000000
  70
    32
  0
VERTEX
  8
0
  5
CAA
 10
8.36756
 20
1.27694
 30
0.000000
  70
    32
  0
VERTEX
  8
0
  5
CAB
 10
8.36847
 20
1.27636
 30
0.000000
  70
    32
  0
VERTEX
  8
0
  5
CAC
 10
8.36938
 20
1.27578
 30
0.000000
  70
    32
  0
VERTEX
  8
0
  5
CAD
 10
8.37028
 20
1.27520
 30
0.000000
  70
    32
  0
VERTEX
  8
0
  5
CAE
 10
8.37117
 20
1.27460
 30
0.000000
  70
    32
  0
VERTEX
  8
0
  5
CAF
 10
8.37206
 20
1.27401
 30
0.000000
  70
    32
  0
VERTEX
  8
0
  5
CB0
 10
8.37294
 20
1.27341
 30
0.000000
  70
    32
  0
VERTEX
  8
0
  5
CB1
 10
8.37381
 20
1.27280
 30
0.000000
  70
    32
  0
VERTEX
  8
0
  5
CB2
 10
8.37468
 20
1.27219
 30
0.000000
  70
    32
  0
VERTEX
  8
0
  5
CB3
 10
8.37554
 20
1.27157
 30
0.000000
  70
    32
  0
VERTEX
  8
0
  5
CB4
 10
8.37639
 20
1.27095
 30
0.000000
  70
    32
  0
VERTEX
  8
0
  5
CB5
 10
8.37724
 20
1.27032
 30
0.000000
  70
    32
  0
VERTEX
  8
0
  5
CB6
 10
8.37808
 20
1.26969
 30
0.000000
  70
    32
  0
VERTEX
  8
0
  5
CB7
 10
8.37892
 20
1.26906
 30
0.000000
  70
    32
  0
VERTEX
  8
0
  5
CB8
 10
8.37975
 20
1.26842
 30
0.000000
  70
    32
  0
VERTEX
  8
0
  5
CB9
 10
8.38057
 20
1.26777
 30
0.000000
  70
    32
  0
VERTEX
  8
0
  5
CBA
 10
8.38138
 20
1.26712
 30
0.000000
  70
    32
  0
VERTEX
  8
0
  5
CBB
 10
8.38219
 20
1.26646
 30
0.000000
  70
    32
  0
VERTEX
  8
0
  5
CBC
 10
8.38299
 20
1.26580
 30
0.000000
  70
    32
  0
VERTEX
  8
0
  5
CBD
 10
8.38378
 20
1.26514
 30
0.000000
  70
    32
  0
VERTEX
  8
0
  5
CBE
 10
8.38457
 20
1.26447
 30
0.000000
  70
    32
  0
VERTEX
  8
0
  5
CBF
 10
8.38535
 20
1.26379
 30
0.000000
  70
    32
  0
VERTEX
  8
0
  5
CC0
 10
8.38612
 20
1.26311
 30
0.000000
  70
    32
  0
VERTEX
  8
0
  5
CC1
 10
8.38689
 20
1.26243
 30
0.000000
  70
    32
  0
VERTEX
  8
0
  5
CC2
 10
8.38765
 20
1.26174
 30
0.000000
  70
    32
  0
VERTEX
  8
0
  5
CC3
 10
8.38840
 20
1.26105
 30
0.000000
  70
    32
  0
VERTEX
  8
0
  5
CC4
 10
8.38914
 20
1.26035
 30
0.000000
  70
    32
  0
VERTEX
  8
0
  5
CC5
 10
8.38988
 20
1.25965
 30
0.000000
  70
    32
  0
VERTEX
  8
0
  5
CC6
 10
8.39061
 20
1.25894
 30
0.000000
  70
    32
  0
VERTEX
  8
0
  5
CC7
 10
8.39133
 20
1.25823
 30
0.000000
  70
    32
  0
VERTEX
  8
0
  5
CC8
 10
8.39204
 20
1.25751
 30
0.000000
  70
    32
  0
VERTEX
  8
0
  5
CC9
 10
8.39275
 20
1.25679
 30
0.000000
  70
    32
  0
VERTEX
  8
0
  5
CCA
 10
8.39345
 20
1.25607
 30
0.000000
  70
    32
  0
VERTEX
  8
0
  5
CCB
 10
8.39414
 20
1.25534
 30
0.000000
  70
    32
  0
VERTEX
  8
0
  5
CCC
 10
8.39482
 20
1.25460
 30
0.000000
  70
    32
  0
VERTEX
  8
0
  5
CCD
 10
8.39550
 20
1.25386
 30
0.000000
  70
    32
  0
VERTEX
  8
0
  5
CCE
 10
8.39616
 20
1.25312
 30
0.000000
  70
    32
  0
VERTEX
  8
0
  5
CCF
 10
8.39682
 20
1.25237
 30
0.000000
  70
    32
  0
VERTEX
  8
0
  5
CD0
 10
8.39747
 20
1.25162
 30
0.000000
  70
    32
  0
VERTEX
  8
0
  5
CD1
 10
8.39812
 20
1.25086
 30
0.000000
  70
    32
  0
VERTEX
  8
0
  5
CD2
 10
8.39875
 20
1.25010
 30
0.000000
  70
    32
  0
VERTEX
  8
0
  5
CD3
 10
8.39938
 20
1.24933
 30
0.000000
  70
    32
  0
VERTEX
  8
0
  5
CD4
 10
8.40000
 20
1.24856
 30
0.000000
  70
    32
  0
VERTEX
  8
0
  5
CD5
 10
8.40061
 20
1.24779
 30
0.000000
  70
    32
  0
VERTEX
  8
0
  5
CD6
 10
8.40122
 20
1.24701
 30
0.000000
  70
    32
  0
VERTEX
  8
0
  5
CD7
 10
8.40181
 20
1.24622
 30
0.000000
  70
    32
  0
VERTEX
  8
0
  5
CD8
 10
8.40240
 20
1.24544
 30
0.000000
  70
    32
  0
VERTEX
  8
0
  5
CD9
 10
8.40298
 20
1.24465
 30
0.000000
  70
    32
  0
VERTEX
  8
0
  5
CDA
 10
8.40355
 20
1.24385
 30
0.000000
  70
    32
  0
VERTEX
  8
0
  5
CDB
 10
8.40411
 20
1.24305
 30
0.000000
  70
    32
  0
VERTEX
  8
0
  5
CDC
 10
8.40466
 20
1.24224
 30
0.000000
  70
    32
  0
VERTEX
  8
0
  5
CDD
 10
8.40521
 20
1.24144
 30
0.000000
  70
    32
  0
VERTEX
  8
0
  5
CDE
 10
8.40574
 20
1.24062
 30
0.000000
  70
    32
  0
VERTEX
  8
0
  5
CDF
 10
8.40627
 20
1.23980
 30
0.000000
  70
    32
  0
VERTEX
  8
0
  5
CE0
 10
8.40679
 20
1.23898
 30
0.000000
  70
    32
  0
VERTEX
  8
0
  5
CE1
 10
8.40730
 20
1.23816
 30
0.000000
  70
    32
  0
VERTEX
  8
0
  5
CE2
 10
8.40780
 20
1.23733
 30
0.000000
  70
    32
  0
VERTEX
  8
0
  5
CE3
 10
8.40829
 20
1.23649
 30
0.000000
  70
    32
  0
VERTEX
  8
0
  5
CE4
 10
8.40877
 20
1.23566
 30
0.000000
  70
    32
  0
VERTEX
  8
0
  5
CE5
 10
8.40925
 20
1.23481
 30
0.000000
  70
    32
  0
VERTEX
  8
0
  5
CE6
 10
8.40971
 20
1.23397
 30
0.000000
  70
    32
  0
VERTEX
  8
0
  5
CE7
 10
8.41017
 20
1.23312
 30
0.000000
  70
    32
  0
VERTEX
  8
0
  5
CE8
 10
8.41061
 20
1.23226
 30
0.000000
  70
    32
  0
VERTEX
  8
0
  5
CE9
 10
8.41105
 20
1.23141
 30
0.000000
  70
    32
  0
VERTEX
  8
0
  5
CEA
 10
8.41148
 20
1.23054
 30
0.000000
  70
    32
  0
VERTEX
  8
0
  5
CEB
 10
8.41190
 20
1.22968
 30
0.000000
  70
    32
  0
VERTEX
  8
0
  5
CEC
 10
8.41231
 20
1.22881
 30
0.000000
  70
    32
  0
VERTEX
  8
0
  5
CED
 10
8.41271
 20
1.22793
 30
0.000000
  70
    32
  0
VERTEX
  8
0
  5
CEE
 10
8.41310
 20
1.22706
 30
0.000000
  70
    32
  0
VERTEX
  8
0
  5
CEF
 10
8.41348
 20
1.22617
 30
0.000000
  70
    32
  0
VERTEX
  8
0
  5
CF0
 10
8.41385
 20
1.22529
 30
0.000000
  70
    32
  0
VERTEX
  8
0
  5
CF1
 10
8.41421
 20
1.22440
 30
0.000000
  70
    32
  0
VERTEX
  8
0
  5
CF2
 10
8.41457
 20
1.22351
 30
0.000000
  70
    32
  0
VERTEX
  8
0
  5
CF3
 10
8.41491
 20
1.22261
 30
0.000000
  70
    32
  0
VERTEX
  8
0
  5
CF4
 10
8.41524
 20
1.22171
 30
0.000000
  70
    32
  0
VERTEX
  8
0
  5
CF5
 10
8.41556
 20
1.22080
 30
0.000000
  70
    32
  0
VERTEX
  8
0
  5
CF6
 10
8.41588
 20
1.21989
 30
0.000000
  70
    32
  0
VERTEX
  8
0
  5
CF7
 10
8.41618
 20
1.21898
 30
0.000000
  70
    32
  0
VERTEX
  8
0
  5
CF8
 10
8.41648
 20
1.21807
 30
0.000000
  70
    32
  0
VERTEX
  8
0
  5
CF9
 10
8.41676
 20
1.21715
 30
0.000000
  70
    32
  0
VERTEX
  8
0
  5
CFA
 10
8.41703
 20
1.21622
 30
0.000000
  70
    32
  0
VERTEX
  8
0
  5
CFB
 10
8.41730
 20
1.21530
 30
0.000000
  70
    32
  0
VERTEX
  8
0
  5
CFC
 10
8.41755
 20
1.21436
 30
0.000000
  70
    32
  0
VERTEX
  8
0
  5
CFD
 10
8.41779
 20
1.21343
 30
0.000000
  70
    32
  0
VERTEX
  8
0
  5
CFE
 10
8.41802
 20
1.21249
 30
0.000000
  70
    32
  0
VERTEX
  8
0
  5
CFF
 10
8.41825
 20
1.21155
 30
0.000000
  70
    32
  0
VERTEX
  8
0
  5
D00
 10
8.41846
 20
1.21060
 30
0.000000
  70
    32
  0
VERTEX
  8
0
  5
D01
 10
8.41866
 20
1.20966
 30
0.000000
  70
    32
  0
VERTEX
  8
0
  5
D02
 10
8.41885
 20
1.20870
 30
0.000000
  70
    32
  0
VERTEX
  8
0
  5
D03
 10
8.41903
 20
1.20775
 30
0.000000
  70
    32
  0
VERTEX
  8
0
  5
D04
 10
8.41920
 20
1.20679
 30
0.000000
  70
    32
  0
VERTEX
  8
0
  5
D05
 10
8.41936
 20
1.20582
 30
0.000000
  70
    32
  0
VERTEX
  8
0
  5
D06
 10
8.41951
 20
1.20486
 30
0.000000
  70
    32
  0
VERTEX
  8
0
  5
D07
 10
8.41965
 20
1.20389
 30
0.000000
  70
    32
  0
VERTEX
  8
0
  5
D08
 10
8.41978
 20
1.20291
 30
0.000000
  70
    32
  0
VERTEX
  8
0
  5
D09
 10
8.41989
 20
1.20194
 30
0.000000
  70
    32
  0
VERTEX
  8
0
  5
D0A
 10
8.42000
 20
1.20096
 30
0.000000
  70
    32
  0
VERTEX
  8
0
  5
D0B
 10
8.42009
 20
1.19997
 30
0.000000
  70
    32
  0
VERTEX
  8
0
  5
D0C
 10
8.42018
 20
1.19899
 30
0.000000
  70
    32
  0
VERTEX
  8
0
  5
D0D
 10
8.42025
 20
1.19800
 30
0.000000
  70
    32
  0
VERTEX
  8
0
  5
D0E
 10
8.42031
 20
1.19700
 30
0.000000
  70
    32
  0
VERTEX
  8
0
  5
D0F
 10
8.42036
 20
1.19600
 30
0.000000
  70
    32
  0
VERTEX
  8
0
  5
D10
 10
8.42040
 20
1.19500
 30
0.000000
  70
    32
  0
VERTEX
  8
0
  5
D11
 10
8.42043
 20
1.19400
 30
0.000000
  70
    32
  0
VERTEX
  8
0
  5
D12
 10
8.42045
 20
1.19299
 30
0.000000
  70
    32
  0
VERTEX
  8
0
  5
D13
 10
8.42045
 20
1.19198
 30
0.000000
  70
    32
  0
VERTEX
  8
0
  5
D14
 10
8.42045
 20
1.19097
 30
0.000000
  70
    32
  0
VERTEX
  8
0
  5
D15
 10
8.42043
 20
1.18995
 30
0.000000
  70
    32
  0
VERTEX
  8
0
  5
D16
 10
8.42040
 20
1.18893
 30
0.000000
  70
    32
  0
VERTEX
  8
0
  5
D17
 10
8.42036
 20
1.18791
 30
0.000000
  70
    32
  0
VERTEX
  8
0
  5
D18
 10
8.42031
 20
1.18688
 30
0.000000
  70
    32
  0
VERTEX
  8
0
  5
D19
 10
8.42025
 20
1.18585
 30
0.000000
  70
    32
  0
VERTEX
  8
0
  5
D1A
 10
8.42017
 20
1.18482
 30
0.000000
  70
    32
  0
VERTEX
  8
0
  5
D1B
 10
8.42008
 20
1.18379
 30
0.000000
  70
    32
  0
VERTEX
  8
0
  5
D1C
 10
8.41999
 20
1.18275
 30
0.000000
  70
    32
  0
VERTEX
  8
0
  5
D1D
 10
8.41988
 20
1.18170
 30
0.000000
  70
    32
  0
VERTEX
  8
0
  5
D1E
 10
8.41975
 20
1.18066
 30
0.000000
  70
    32
  0
VERTEX
  8
0
  5
D1F
 10
8.41962
 20
1.17961
 30
0.000000
  70
    32
  0
VERTEX
  8
0
  5
D20
 10
8.41947
 20
1.17856
 30
0.000000
  70
    32
  0
VERTEX
  8
0
  5
D21
 10
8.41931
 20
1.17751
 30
0.000000
  70
    32
  0
VERTEX
  8
0
  5
D22
 10
8.41914
 20
1.17645
 30
0.000000
  70
    32
  0
VERTEX
  8
0
  5
D23
 10
8.41896
 20
1.17539
 30
0.000000
  70
    32
  0
VERTEX
  8
0
  5
D24
 10
8.41877
 20
1.17433
 30
0.000000
  70
    32
  0
VERTEX
  8
0
  5
D25
 10
8.41856
 20
1.17326
 30
0.000000
  70
    32
  0
VERTEX
  8
0
  5
D26
 10
8.41834
 20
1.17219
 30
0.000000
  70
    32
  0
SEQEND
  8
0
  5
D27
  0
POLYLINE
  8
0
  5
D28
  66
     1
 10
0.000000
 20
0.000000
 30
0.000000
  70
     8
  0
VERTEX
  8
0
  5
D29
 10
8.52457
 20
1.06553
 30
0.000000
  70
    32
  0
VERTEX
  8
0
  5
D2A
 10
8.52588
 20
1.06488
 30
0.000000
  70
    32
  0
VERTEX
  8
0
  5
D2B
 10
8.52720
 20
1.06424
 30
0.000000
  70
    32
  0
VERTEX
  8
0
  5
D2C
 10
8.52851
 20
1.06360
 30
0.000000
  70
    32
  0
VERTEX
  8
0
  5
D2D
 10
8.52983
 20
1.06297
 30
0.000000
  70
    32
  0
VERTEX
  8
0
  5
D2E
 10
8.53115
 20
1.06235
 30
0.000000
  70
    32
  0
VERTEX
  8
0
  5
D2F
 10
8.53248
 20
1.06173
 30
0.000000
  70
    32
  0
VERTEX
  8
0
  5
D30
 10
8.53380
 20
1.06112
 30
0.000000
  70
    32
  0
VERTEX
  8
0
  5
D31
 10
8.53513
 20
1.06052
 30
0.000000
  70
    32
  0
VERTEX
  8
0
  5
D32
 10
8.53646
 20
1.05992
 30
0.000000
  70
    32
  0
VERTEX
  8
0
  5
D33
 10
8.53778
 20
1.05933
 30
0.000000
  70
    32
  0
VERTEX
  8
0
  5
D34
 10
8.53911
 20
1.05875
 30
0.000000
  70
    32
  0
VERTEX
  8
0
  5
D35
 10
8.54044
 20
1.05817
 30
0.000000
  70
    32
  0
VERTEX
  8
0
  5
D36
 10
8.54177
 20
1.05759
 30
0.000000
  70
    32
  0
VERTEX
  8
0
  5
D37
 10
8.54310
 20
1.05702
 30
0.000000
  70
    32
  0
VERTEX
  8
0
  5
D38
 10
8.54442
 20
1.05645
 30
0.000000
  70
    32
  0
VERTEX
  8
0
  5
D39
 10
8.54575
 20
1.05589
 30
0.000000
  70
    32
  0
VERTEX
  8
0
  5
D3A
 10
8.54708
 20
1.05533
 30
0.000000
  70
    32
  0
VERTEX
  8
0
  5
D3B
 10
8.54840
 20
1.05478
 30
0.000000
  70
    32
  0
VERTEX
  8
0
  5
D3C
 10
8.54972
 20
1.05422
 30
0.000000
  70
    32
  0
VERTEX
  8
0
  5
D3D
 10
8.55104
 20
1.05368
 30
0.000000
  70
    32
  0
VERTEX
  8
0
  5
D3E
 10
8.55236
 20
1.05313
 30
0.000000
  70
    32
  0
VERTEX
  8
0
  5
D3F
 10
8.55368
 20
1.05259
 30
0.000000
  70
    32
  0
VERTEX
  8
0
  5
D40
 10
8.55499
 20
1.05205
 30
0.000000
  70
    32
  0
VERTEX
  8
0
  5
D41
 10
8.55631
 20
1.05151
 30
0.000000
  70
    32
  0
VERTEX
  8
0
  5
D42
 10
8.55762
 20
1.05097
 30
0.000000
  70
    32
  0
VERTEX
  8
0
  5
D43
 10
8.55892
 20
1.05043
 30
0.000000
  70
    32
  0
VERTEX
  8
0
  5
D44
 10
8.56022
 20
1.04990
 30
0.000000
  70
    32
  0
VERTEX
  8
0
  5
D45
 10
8.56152
 20
1.04937
 30
0.000000
  70
    32
  0
VERTEX
  8
0
  5
D46
 10
8.56282
 20
1.04884
 30
0.000000
  70
    32
  0
VERTEX
  8
0
  5
D47
 10
8.56411
 20
1.04830
 30
0.000000
  70
    32
  0
VERTEX
  8
0
  5
D48
 10
8.56539
 20
1.04777
 30
0.000000
  70
    32
  0
VERTEX
  8
0
  5
D49
 10
8.56667
 20
1.04724
 30
0.000000
  70
    32
  0
VERTEX
  8
0
  5
D4A
 10
8.56795
 20
1.04671
 30
0.000000
  70
    32
  0
VERTEX
  8
0
  5
D4B
 10
8.56922
 20
1.04618
 30
0.000000
  70
    32
  0
VERTEX
  8
0
  5
D4C
 10
8.57049
 20
1.04565
 30
0.000000
  70
    32
  0
VERTEX
  8
0
  5
D4D
 10
8.57175
 20
1.04511
 30
0.000000
  70
    32
  0
VERTEX
  8
0
  5
D4E
 10
8.57300
 20
1.04458
 30
0.000000
  70
    32
  0
VERTEX
  8
0
  5
D4F
 10
8.57425
 20
1.04404
 30
0.000000
  70
    32
  0
VERTEX
  8
0
  5
D50
 10
8.57549
 20
1.04350
 30
0.000000
  70
    32
  0
VERTEX
  8
0
  5
D51
 10
8.57673
 20
1.04296
 30
0.000000
  70
    32
  0
VERTEX
  8
0
  5
D52
 10
8.57796
 20
1.04242
 30
0.000000
  70
    32
  0
VERTEX
  8
0
  5
D53
 10
8.57918
 20
1.04187
 30
0.000000
  70
    32
  0
VERTEX
  8
0
  5
D54
 10
8.58039
 20
1.04133
 30
0.000000
  70
    32
  0
VERTEX
  8
0
  5
D55
 10
8.58160
 20
1.04077
 30
0.000000
  70
    32
  0
VERTEX
  8
0
  5
D56
 10
8.58280
 20
1.04022
 30
0.000000
  70
    32
  0
VERTEX
  8
0
  5
D57
 10
8.58399
 20
1.03966
 30
0.000000
  70
    32
  0
VERTEX
  8
0
  5
D58
 10
8.58517
 20
1.03910
 30
0.000000
  70
    32
  0
VERTEX
  8
0
  5
D59
 10
8.58635
 20
1.03854
 30
0.000000
  70
    32
  0
VERTEX
  8
0
  5
D5A
 10
8.58751
 20
1.03797
 30
0.000000
  70
    32
  0
VERTEX
  8
0
  5
D5B
 10
8.58867
 20
1.03739
 30
0.000000
  70
    32
  0
VERTEX
  8
0
  5
D5C
 10
8.58981
 20
1.03681
 30
0.000000
  70
    32
  0
VERTEX
  8
0
  5
D5D
 10
8.59095
 20
1.03623
 30
0.000000
  70
    32
  0
VERTEX
  8
0
  5
D5E
 10
8.59208
 20
1.03564
 30
0.000000
  70
    32
  0
VERTEX
  8
0
  5
D5F
 10
8.59320
 20
1.03504
 30
0.000000
  70
    32
  0
VERTEX
  8
0
  5
D60
 10
8.59430
 20
1.03444
 30
0.000000
  70
    32
  0
VERTEX
  8
0
  5
D61
 10
8.59540
 20
1.03383
 30
0.000000
  70
    32
  0
VERTEX
  8
0
  5
D62
 10
8.59648
 20
1.03322
 30
0.000000
  70
    32
  0
VERTEX
  8
0
  5
D63
 10
8.59756
 20
1.03260
 30
0.000000
  70
    32
  0
VERTEX
  8
0
  5
D64
 10
8.59862
 20
1.03197
 30
0.000000
  70
    32
  0
VERTEX
  8
0
  5
D65
 10
8.59968
 20
1.03134
 30
0.000000
  70
    32
  0
VERTEX
  8
0
  5
D66
 10
8.60072
 20
1.03069
 30
0.000000
  70
    32
  0
VERTEX
  8
0
  5
D67
 10
8.60174
 20
1.03004
 30
0.000000
  70
    32
  0
VERTEX
  8
0
  5
D68
 10
8.60276
 20
1.02939
 30
0.000000
  70
    32
  0
VERTEX
  8
0
  5
D69
 10
8.60376
 20
1.02872
 30
0.000000
  70
    32
  0
VERTEX
  8
0
  5
D6A
 10
8.60476
 20
1.02805
 30
0.000000
  70
    32
  0
VERTEX
  8
0
  5
D6B
 10
8.60573
 20
1.02736
 30
0.000000
  70
    32
  0
VERTEX
  8
0
  5
D6C
 10
8.60670
 20
1.02667
 30
0.000000
  70
    32
  0
VERTEX
  8
0
  5
D6D
 10
8.60765
 20
1.02597
 30
0.000000
  70
    32
  0
VERTEX
  8
0
  5
D6E
 10
8.60859
 20
1.02526
 30
0.000000
  70
    32
  0
VERTEX
  8
0
  5
D6F
 10
8.60951
 20
1.02454
 30
0.000000
  70
    32
  0
VERTEX
  8
0
  5
D70
 10
8.61042
 20
1.02381
 30
0.000000
  70
    32
  0
VERTEX
  8
0
  5
D71
 10
8.61132
 20
1.02307
 30
0.000000
  70
    32
  0
VERTEX
  8
0
  5
D72
 10
8.61220
 20
1.02232
 30
0.000000
  70
    32
  0
VERTEX
  8
0
  5
D73
 10
8.61306
 20
1.02156
 30
0.000000
  70
    32
  0
VERTEX
  8
0
  5
D74
 10
8.61391
 20
1.02078
 30
0.000000
  70
    32
  0
VERTEX
  8
0
  5
D75
 10
8.61475
 20
1.02000
 30
0.000000
  70
    32
  0
VERTEX
  8
0
  5
D76
 10
8.61557
 20
1.01921
 30
0.000000
  70
    32
  0
VERTEX
  8
0
  5
D77
 10
8.61637
 20
1.01840
 30
0.000000
  70
    32
  0
VERTEX
  8
0
  5
D78
 10
8.61716
 20
1.01758
 30
0.000000
  70
    32
  0
VERTEX
  8
0
  5
D79
 10
8.61793
 20
1.01675
 30
0.000000
  70
    32
  0
VERTEX
  8
0
  5
D7A
 10
8.61868
 20
1.01590
 30
0.000000
  70
    32
  0
VERTEX
  8
0
  5
D7B
 10
8.61942
 20
1.01505
 30
0.000000
  70
    32
  0
VERTEX
  8
0
  5
D7C
 10
8.62014
 20
1.01418
 30
0.000000
  70
    32
  0
VERTEX
  8
0
  5
D7D
 10
8.62085
 20
1.01329
 30
0.000000
  70
    32
  0
VERTEX
  8
0
  5
D7E
 10
8.62153
 20
1.01240
 30
0.000000
  70
    32
  0
VERTEX
  8
0
  5
D7F
 10
8.62220
 20
1.01149
 30
0.000000
  70
    32
  0
VERTEX
  8
0
  5
D80
 10
8.62285
 20
1.01056
 30
0.000000
  70
    32
  0
VERTEX
  8
0
  5
D81
 10
8.62348
 20
1.00962
 30
0.000000
  70
    32
  0
VERTEX
  8
0
  5
D82
 10
8.62409
 20
1.00867
 30
0.000000
  70
    32
  0
VERTEX
  8
0
  5
D83
 10
8.62469
 20
1.00770
 30
0.000000
  70
    32
  0
VERTEX
  8
0
  5
D84
 10
8.62526
 20
1.00672
 30
0.000000
  70
    32
  0
VERTEX
  8
0
  5
D85
 10
8.62582
 20
1.00572
 30
0.000000
  70
    32
  0
VERTEX
  8
0
  5
D86
 10
8.62636
 20
1.00470
 30
0.000000
  70
    32
  0
VERTEX
  8
0
  5
D87
 10
8.62687
 20
1.00367
 30
0.000000
  70
    32
  0
VERTEX
  8
0
  5
D88
 10
8.62737
 20
1.00263
 30
0.000000
  70
    32
  0
VERTEX
  8
0
  5
D89
 10
8.62785
 20
1.00156
 30
0.000000
  70
    32
  0
VERTEX
  8
0
  5
D8A
 10
8.62830
 20
1.00048
 30
0.000000
  70
    32
  0
VERTEX
  8
0
  5
D8B
 10
8.62874
 20
0.999388
 30
0.000000
  70
    32
  0
VERTEX
  8
0
  5
D8C
 10
8.62915
 20
0.998274
 30
0.000000
  70
    32
  0
VERTEX
  8
0
  5
D8D
 10
8.62954
 20
0.997143
 30
0.000000
  70
    32
  0
VERTEX
  8
0
  5
D8E
 10
8.62991
 20
0.995995
 30
0.000000
  70
    32
  0
VERTEX
  8
0
  5
D8F
 10
8.63026
 20
0.994828
 30
0.000000
  70
    32
  0
VERTEX
  8
0
  5
D90
 10
8.63059
 20
0.993643
 30
0.000000
  70
    32
  0
VERTEX
  8
0
  5
D91
 10
8.63090
 20
0.992440
 30
0.000000
  70
    32
  0
VERTEX
  8
0
  5
D92
 10
8.63118
 20
0.991218
 30
0.000000
  70
    32
  0
VERTEX
  8
0
  5
D93
 10
8.63144
 20
0.989977
 30
0.000000
  70
    32
  0
VERTEX
  8
0
  5
D94
 10
8.63168
 20
0.988717
 30
0.000000
  70
    32
  0
VERTEX
  8
0
  5
D95
 10
8.63189
 20
0.987437
 30
0.000000
  70
    32
  0
VERTEX
  8
0
  5
D96
 10
8.63208
 20
0.986138
 30
0.000000
  70
    32
  0
VERTEX
  8
0
  5
D97
 10
8.63225
 20
0.984819
 30
0.000000
  70
    32
  0
VERTEX
  8
0
  5
D98
 10
8.63239
 20
0.983479
 30
0.000000
  70
    32
  0
VERTEX
  8
0
  5
D99
 10
8.63251
 20
0.982119
 30
0.000000
  70
    32
  0
VERTEX
  8
0
  5
D9A
 10
8.63261
 20
0.980739
 30
0.000000
  70
    32
  0
VERTEX
  8
0
  5
D9B
 10
8.63268
 20
0.979337
 30
0.000000
  70
    32
  0
VERTEX
  8
0
  5
D9C
 10
8.63272
 20
0.977914
 30
0.000000
  70
    32
  0
VERTEX
  8
0
  5
D9D
 10
8.63274
 20
0.976469
 30
0.000000
  70
    32
  0
VERTEX
  8
0
  5
D9E
 10
8.63274
 20
0.975003
 30
0.000000
  70
    32
  0
VERTEX
  8
0
  5
D9F
 10
8.63270
 20
0.973515
 30
0.000000
  70
    32
  0
VERTEX
  8
0
  5
DA0
 10
8.63265
 20
0.972004
 30
0.000000
  70
    32
  0
VERTEX
  8
0
  5
DA1
 10
8.63256
 20
0.970471
 30
0.000000
  70
    32
  0
VERTEX
  8
0
  5
DA2
 10
8.63245
 20
0.968915
 30
0.000000
  70
    32
  0
VERTEX
  8
0
  5
DA3
 10
8.63232
 20
0.967336
 30
0.000000
  70
    32
  0
VERTEX
  8
0
  5
DA4
 10
8.63216
 20
0.965733
 30
0.000000
  70
    32
  0
VERTEX
  8
0
  5
DA5
 10
8.63197
 20
0.964108
 30
0.000000
  70
    32
  0
VERTEX
  8
0
  5
DA6
 10
8.63175
 20
0.962458
 30
0.000000
  70
    32
  0
VERTEX
  8
0
  5
DA7
 10
8.63150
 20
0.960784
 30
0.000000
  70
    32
  0
VERTEX
  8
0
  5
DA8
 10
8.63123
 20
0.959086
 30
0.000000
  70
    32
  0
SEQEND
  8
0
  5
DA9
  0
POLYLINE
  5
99
  8
0
 66
     1
 10
0.0
 20
0.0
 30
0.0
  0
VERTEX
  5
9A
  8
0
 10
8.1514702468622033
 20
1.4917425770577211
 30
0.0
  0
VERTEX
  5
9B
  8
0
 10
8.3647931208376178
 20
1.278636494620911
 30
0.0
  0
SEQEND
  5
9C
  8
0
  0
POLYLINE
  8
0
  5
DAA
  66
     1
 10
0.000000
 20
0.000000
 30
0.000000
  70
     8
  0
VERTEX
  8
0
  5
DAB
 10
9.00000
 20
0.000000
 30
0.000000
  70
    32
  0
VERTEX
  8
0
  5
DAC
 10
8.99999
 20
0.00446121
 30
0.000000
  70
    32
  0
VERTEX
  8
0
  5
DAD
 10
8.99997
 20
0.00892041
 30
0.000000
  70
    32
  0
VERTEX
  8
0
  5
DAE
 10
8.99993
 20
0.0133776
 30
0.000000
  70
    32
  0
VERTEX
  8
0
  5
DAF
 10
8.99988
 20
0.0178327
 30
0.000000
  70
    32
  0
VERTEX
  8
0
  5
DB0
 10
8.99981
 20
0.0222857
 30
0.000000
  70
    32
  0
VERTEX
  8
0
  5
DB1
 10
8.99972
 20
0.0267366
 30
0.000000
  70
    32
  0
VERTEX
  8
0
  5
DB2
 10
8.99962
 20
0.0311854
 30
0.000000
  70
    32
  0
VERTEX
  8
0
  5
DB3
 10
8.99950
 20
0.0356320
 30
0.000000
  70
    32
  0
VERTEX
  8
0
  5
DB4
 10
8.99937
 20
0.0400764
 30
0.000000
  70
    32
  0
VERTEX
  8
0
  5
DB5
 10
8.99922
 20
0.0445187
 30
0.000000
  70
    32
  0
VERTEX
  8
0
  5
DB6
 10
8.99906
 20
0.0489586
 30
0.000000
  70
    32
  0
VERTEX
  8
0
  5
DB7
 10
8.99888
 20
0.0533964
 30
0.000000
  70
    32
  0
VERTEX
  8
0
  5
DB8
 10
8.99868
 20
0.0578318
 30
0.000000
  70
    32
  0
VERTEX
  8
0
  5
DB9
 10
8.99847
 20
0.0622650
 30
0.000000
  70
    32
  0
VERTEX
  8
0
  5
DBA
 10
8.99824
 20
0.0666958
 30
0.000000
  70
    32
  0
VERTEX
  8
0
  5
DBB
 10
8.99800
 20
0.0711243
 30
0.000000
  70
    32
  0
VERTEX
  8
0
  5
DBC
 10
8.99774
 20
0.0755504
 30
0.000000
  70
    32
  0
VERTEX
  8
0
  5
DBD
 10
8.99746
 20
0.0799741
 30
0.000000
  70
    32
  0
VERTEX
  8
0
  5
DBE
 10
8.99717
 20
0.0843953
 30
0.000000
  70
    32
  0
VERTEX
  8
0
  5
DBF
 10
8.99686
 20
0.0888141
 30
0.000000
  70
    32
  0
VERTEX
  8
0
  5
DC0
 10
8.99654
 20
0.0932304
 30
0.000000
  70
    32
  0
VERTEX
  8
0
  5
DC1
 10
8.99620
 20
0.0976443
 30
0.000000
  70
    32
  0
VERTEX
  8
0
  5
DC2
 10
8.99584
 20
0.102056
 30
0.000000
  70
    32
  0
VERTEX
  8
0
  5
DC3
 10
8.99546
 20
0.106464
 30
0.000000
  70
    32
  0
VERTEX
  8
0
  5
DC4
 10
8.99507
 20
0.110871
 30
0.000000
  70
    32
  0
VERTEX
  8
0
  5
DC5
 10
8.99467
 20
0.115274
 30
0.000000
  70
    32
  0
VERTEX
  8
0
  5
DC6
 10
8.99424
 20
0.119675
 30
0.000000
  70
    32
  0
VERTEX
  8
0
  5
DC7
 10
8.99380
 20
0.124073
 30
0.000000
  70
    32
  0
VERTEX
  8
0
  5
DC8
 10
8.99335
 20
0.128469
 30
0.000000
  70
    32
  0
VERTEX
  8
0
  5
DC9
 10
8.99287
 20
0.132862
 30
0.000000
  70
    32
  0
VERTEX
  8
0
  5
DCA
 10
8.99238
 20
0.137252
 30
0.000000
  70
    32
  0
VERTEX
  8
0
  5
DCB
 10
8.99187
 20
0.141640
 30
0.000000
  70
    32
  0
VERTEX
  8
0
  5
DCC
 10
8.99135
 20
0.146024
 30
0.000000
  70
    32
  0
VERTEX
  8
0
  5
DCD
 10
8.99081
 20
0.150406
 30
0.000000
  70
    32
  0
VERTEX
  8
0
  5
DCE
 10
8.99025
 20
0.154785
 30
0.000000
  70
    32
  0
VERTEX
  8
0
  5
DCF
 10
8.98968
 20
0.159162
 30
0.000000
  70
    32
  0
VERTEX
  8
0
  5
DD0
 10
8.98908
 20
0.163535
 30
0.000000
  70
    32
  0
VERTEX
  8
0
  5
DD1
 10
8.98848
 20
0.167906
 30
0.000000
  70
    32
  0
VERTEX
  8
0
  5
DD2
 10
8.98785
 20
0.172273
 30
0.000000
  70
    32
  0
VERTEX
  8
0
  5
DD3
 10
8.98721
 20
0.176638
 30
0.000000
  70
    32
  0
VERTEX
  8
0
  5
DD4
 10
8.98654
 20
0.181000
 30
0.000000
  70
    32
  0
VERTEX
  8
0
  5
DD5
 10
8.98587
 20
0.185358
 30
0.000000
  70
    32
  0
VERTEX
  8
0
  5
DD6
 10
8.98517
 20
0.189714
 30
0.000000
  70
    32
  0
VERTEX
  8
0
  5
DD7
 10
8.98446
 20
0.194067
 30
0.000000
  70
    32
  0
VERTEX
  8
0
  5
DD8
 10
8.98373
 20
0.198416
 30
0.000000
  70
    32
  0
VERTEX
  8
0
  5
DD9
 10
8.98298
 20
0.202763
 30
0.000000
  70
    32
  0
VERTEX
  8
0
  5
DDA
 10
8.98222
 20
0.207106
 30
0.000000
  70
    32
  0
VERTEX
  8
0
  5
DDB
 10
8.98143
 20
0.211446
 30
0.000000
  70
    32
  0
VERTEX
  8
0
  5
DDC
 10
8.98063
 20
0.215783
 30
0.000000
  70
    32
  0
VERTEX
  8
0
  5
DDD
 10
8.97982
 20
0.220117
 30
0.000000
  70
    32
  0
VERTEX
  8
0
  5
DDE
 10
8.97898
 20
0.224448
 30
0.000000
  70
    32
  0
VERTEX
  8
0
  5
DDF
 10
8.97813
 20
0.228776
 30
0.000000
  70
    32
  0
VERTEX
  8
0
  5
DE0
 10
8.97726
 20
0.233100
 30
0.000000
  70
    32
  0
VERTEX
  8
0
  5
DE1
 10
8.97637
 20
0.237421
 30
0.000000
  70
    32
  0
VERTEX
  8
0
  5
DE2
 10
8.97546
 20
0.241738
 30
0.000000
  70
    32
  0
VERTEX
  8
0
  5
DE3
 10
8.97454
 20
0.246053
 30
0.000000
  70
    32
  0
VERTEX
  8
0
  5
DE4
 10
8.97360
 20
0.250364
 30
0.000000
  70
    32
  0
VERTEX
  8
0
  5
DE5
 10
8.97264
 20
0.254671
 30
0.000000
  70
    32
  0
VERTEX
  8
0
  5
DE6
 10
8.97166
 20
0.258975
 30
0.000000
  70
    32
  0
VERTEX
  8
0
  5
DE7
 10
8.97066
 20
0.263276
 30
0.000000
  70
    32
  0
VERTEX
  8
0
  5
DE8
 10
8.96965
 20
0.267573
 30
0.000000
  70
    32
  0
VERTEX
  8
0
  5
DE9
 10
8.96861
 20
0.271867
 30
0.000000
  70
    32
  0
VERTEX
  8
0
  5
DEA
 10
8.96756
 20
0.276158
 30
0.000000
  70
    32
  0
VERTEX
  8
0
  5
DEB
 10
8.96649
 20
0.280444
 30
0.000000
  70
    32
  0
VERTEX
  8
0
  5
DEC
 10
8.96540
 20
0.284728
 30
0.000000
  70
    32
  0
VERTEX
  8
0
  5
DED
 10
8.96430
 20
0.289007
 30
0.000000
  70
    32
  0
VERTEX
  8
0
  5
DEE
 10
8.96317
 20
0.293283
 30
0.000000
  70
    32
  0
VERTEX
  8
0
  5
DEF
 10
8.96203
 20
0.297556
 30
0.000000
  70
    32
  0
VERTEX
  8
0
  5
DF0
 10
8.96087
 20
0.301825
 30
0.000000
  70
    32
  0
VERTEX
  8
0
  5
DF1
 10
8.95969
 20
0.306090
 30
0.000000
  70
    32
  0
VERTEX
  8
0
  5
DF2
 10
8.95849
 20
0.310351
 30
0.000000
  70
    32
  0
VERTEX
  8
0
  5
DF3
 10
8.95727
 20
0.314609
 30
0.000000
  70
    32
  0
VERTEX
  8
0
  5
DF4
 10
8.95604
 20
0.318863
 30
0.000000
  70
    32
  0
VERTEX
  8
0
  5
DF5
 10
8.95478
 20
0.323113
 30
0.000000
  70
    32
  0
VERTEX
  8
0
  5
DF6
 10
8.95351
 20
0.327359
 30
0.000000
  70
    32
  0
VERTEX
  8
0
  5
DF7
 10
8.95222
 20
0.331602
 30
0.000000
  70
    32
  0
VERTEX
  8
0
  5
DF8
 10
8.95091
 20
0.335841
 30
0.000000
  70
    32
  0
VERTEX
  8
0
  5
DF9
 10
8.94958
 20
0.340076
 30
0.000000
  70
    32
  0
VERTEX
  8
0
  5
DFA
 10
8.94823
 20
0.344307
 30
0.000000
  70
    32
  0
VERTEX
  8
0
  5
DFB
 10
8.94686
 20
0.348534
 30
0.000000
  70
    32
  0
VERTEX
  8
0
  5
DFC
 10
8.94547
 20
0.352757
 30
0.000000
  70
    32
  0
VERTEX
  8
0
  5
DFD
 10
8.94407
 20
0.356976
 30
0.000000
  70
    32
  0
VERTEX
  8
0
  5
DFE
 10
8.94264
 20
0.361191
 30
0.000000
  70
    32
  0
VERTEX
  8
0
  5
DFF
 10
8.94120
 20
0.365402
 30
0.000000
  70
    32
  0
VERTEX
  8
0
  5
E00
 10
8.93973
 20
0.369609
 30
0.000000
  70
    32
  0
VERTEX
  8
0
  5
E01
 10
8.93825
 20
0.373813
 30
0.000000
  70
    32
  0
VERTEX
  8
0
  5
E02
 10
8.93675
 20
0.378012
 30
0.000000
  70
    32
  0
VERTEX
  8
0
  5
E03
 10
8.93523
 20
0.382206
 30
0.000000
  70
    32
  0
VERTEX
  8
0
  5
E04
 10
8.93368
 20
0.386397
 30
0.000000
  70
    32
  0
VERTEX
  8
0
  5
E05
 10
8.93212
 20
0.390584
 30
0.000000
  70
    32
  0
VERTEX
  8
0
  5
E06
 10
8.93054
 20
0.394766
 30
0.000000
  70
    32
  0
VERTEX
  8
0
  5
E07
 10
8.92894
 20
0.398944
 30
0.000000
  70
    32
  0
VERTEX
  8
0
  5
E08
 10
8.92732
 20
0.403118
 30
0.000000
  70
    32
  0
VERTEX
  8
0
  5
E09
 10
8.92569
 20
0.407288
 30
0.000000
  70
    32
  0
VERTEX
  8
0
  5
E0A
 10
8.92403
 20
0.411453
 30
0.000000
  70
    32
  0
VERTEX
  8
0
  5
E0B
 10
8.92235
 20
0.415614
 30
0.000000
  70
    32
  0
VERTEX
  8
0
  5
E0C
 10
8.92065
 20
0.419771
 30
0.000000
  70
    32
  0
VERTEX
  8
0
  5
E0D
 10
8.91893
 20
0.423924
 30
0.000000
  70
    32
  0
VERTEX
  8
0
  5
E0E
 10
8.91719
 20
0.428072
 30
0.000000
  70
    32
  0
VERTEX
  8
0
  5
E0F
 10
8.91544
 20
0.432215
 30
0.000000
  70
    32
  0
VERTEX
  8
0
  5
E10
 10
8.91366
 20
0.436355
 30
0.000000
  70
    32
  0
VERTEX
  8
0
  5
E11
 10
8.91186
 20
0.440489
 30
0.000000
  70
    32
  0
VERTEX
  8
0
  5
E12
 10
8.91004
 20
0.444620
 30
0.000000
  70
    32
  0
VERTEX
  8
0
  5
E13
 10
8.90820
 20
0.448745
 30
0.000000
  70
    32
  0
VERTEX
  8
0
  5
E14
 10
8.90635
 20
0.452867
 30
0.000000
  70
    32
  0
VERTEX
  8
0
  5
E15
 10
8.90447
 20
0.456983
 30
0.000000
  70
    32
  0
VERTEX
  8
0
  5
E16
 10
8.90257
 20
0.461096
 30
0.000000
  70
    32
  0
VERTEX
  8
0
  5
E17
 10
8.90065
 20
0.465203
 30
0.000000
  70
    32
  0
VERTEX
  8
0
  5
E18
 10
8.89871
 20
0.469306
 30
0.000000
  70
    32
  0
VERTEX
  8
0
  5
E19
 10
8.89675
 20
0.473404
 30
0.000000
  70
    32
  0
VERTEX
  8
0
  5
E1A
 10
8.89477
 20
0.477498
 30
0.000000
  70
    32
  0
VERTEX
  8
0
  5
E1B
 10
8.89263
 20
0.481858
 30
0.000000
  70
    32
  0
VERTEX
  8
0
  5
E1C
 10
8.89034
 20
0.486472
 30
0.000000
  70
    32
  0
VERTEX
  8
0
  5
E1D
 10
8.88804
 20
0.491062
 30
0.000000
  70
    32
  0
VERTEX
  8
0
  5
E1E
 10
8.88572
 20
0.495629
 30
0.000000
  70
    32
  0
VERTEX
  8
0
  5
E1F
 10
8.88338
 20
0.500173
 30
0.000000
  70
    32
  0
VERTEX
  8
0
  5
E20
 10
8.88104
 20
0.504695
 30
0.000000
  70
    32
  0
VERTEX
  8
0
  5
E21
 10
8.87868
 20
0.509196
 30
0.000000
  70
    32
  0
VERTEX
  8
0
  5
E22
 10
8.87630
 20
0.513676
 30
0.000000
  70
    32
  0
VERTEX
  8
0
  5
E23
 10
8.87392
 20
0.518136
 30
0.000000
  70
    32
  0
VERTEX
  8
0
  5
E24
 10
8.87152
 20
0.522575
 30
0.000000
  70
    32
  0
VERTEX
  8
0
  5
E25
 10
8.86911
 20
0.526995
 30
0.000000
  70
    32
  0
VERTEX
  8
0
  5
E26
 10
8.86668
 20
0.531396
 30
0.000000
  70
    32
  0
VERTEX
  8
0
  5
E27
 10
8.86425
 20
0.535779
 30
0.000000
  70
    32
  0
VERTEX
  8
0
  5
E28
 10
8.86181
 20
0.540143
 30
0.000000
  70
    32
  0
VERTEX
  8
0
  5
E29
 10
8.85935
 20
0.544489
 30
0.000000
  70
    32
  0
VERTEX
  8
0
  5
E2A
 10
8.85689
 20
0.548819
 30
0.000000
  70
    32
  0
VERTEX
  8
0
  5
E2B
 10
8.85441
 20
0.553132
 30
0.000000
  70
    32
  0
VERTEX
  8
0
  5
E2C
 10
8.85193
 20
0.557429
 30
0.000000
  70
    32
  0
VERTEX
  8
0
  5
E2D
 10
8.84944
 20
0.561710
 30
0.000000
  70
    32
  0
VERTEX
  8
0
  5
E2E
 10
8.84694
 20
0.565976
 30
0.000000
  70
    32
  0
VERTEX
  8
0
  5
E2F
 10
8.84443
 20
0.570228
 30
0.000000
  70
    32
  0
VERTEX
  8
0
  5
E30
 10
8.84191
 20
0.574465
 30
0.000000
  70
    32
  0
VERTEX
  8
0
  5
E31
 10
8.83939
 20
0.578688
 30
0.000000
  70
    32
  0
VERTEX
  8
0
  5
E32
 10
8.83685
 20
0.582899
 30
0.000000
  70
    32
  0
VERTEX
  8
0
  5
E33
 10
8.83432
 20
0.587097
 30
0.000000
  70
    32
  0
VERTEX
  8
0
  5
E34
 10
8.83177
 20
0.591282
 30
0.000000
  70
    32
  0
VERTEX
  8
0
  5
E35
 10
8.82922
 20
0.595456
 30
0.000000
  70
    32
  0
VERTEX
  8
0
  5
E36
 10
8.82667
 20
0.599618
 30
0.000000
  70
    32
  0
VERTEX
  8
0
  5
E37
 10
8.82411
 20
0.603770
 30
0.000000
  70
    32
  0
VERTEX
  8
0
  5
E38
 10
8.82154
 20
0.607912
 30
0.000000
  70
    32
  0
VERTEX
  8
0
  5
E39
 10
8.81897
 20
0.612043
 30
0.000000
  70
    32
  0
VERTEX
  8
0
  5
E3A
 10
8.81640
 20
0.616166
 30
0.000000
  70
    32
  0
VERTEX
  8
0
  5
E3B
 10
8.81382
 20
0.620279
 30
0.000000
  70
    32
  0
VERTEX
  8
0
  5
E3C
 10
8.81124
 20
0.624385
 30
0.000000
  70
    32
  0
VERTEX
  8
0
  5
E3D
 10
8.80866
 20
0.628482
 30
0.000000
  70
    32
  0
VERTEX
  8
0
  5
E3E
 10
8.80608
 20
0.632572
 30
0.000000
  70
    32
  0
VERTEX
  8
0
  5
E3F
 10
8.80349
 20
0.636656
 30
0.000000
  70
    32
  0
VERTEX
  8
0
  5
E40
 10
8.80090
 20
0.640733
 30
0.000000
  70
    32
  0
VERTEX
  8
0
  5
E41
 10
8.79831
 20
0.644804
 30
0.000000
  70
    32
  0
VERTEX
  8
0
  5
E42
 10
8.79572
 20
0.648870
 30
0.000000
  70
    32
  0
VERTEX
  8
0
  5
E43
 10
8.79313
 20
0.652930
 30
0.000000
  70
    32
  0
VERTEX
  8
0
  5
E44
 10
8.79053
 20
0.656987
 30
0.000000
  70
    32
  0
VERTEX
  8
0
  5
E45
 10
8.78794
 20
0.661039
 30
0.000000
  70
    32
  0
VERTEX
  8
0
  5
E46
 10
8.78535
 20
0.665088
 30
0.000000
  70
    32
  0
VERTEX
  8
0
  5
E47
 10
8.78276
 20
0.669135
 30
0.000000
  70
    32
  0
VERTEX
  8
0
  5
E48
 10
8.78017
 20
0.673178
 30
0.000000
  70
    32
  0
VERTEX
  8
0
  5
E49
 10
8.77758
 20
0.677220
 30
0.000000
  70
    32
  0
VERTEX
  8
0
  5
E4A
 10
8.77500
 20
0.681260
 30
0.000000
  70
    32
  0
VERTEX
  8
0
  5
E4B
 10
8.77242
 20
0.685299
 30
0.000000
  70
    32
  0
VERTEX
  8
0
  5
E4C
 10
8.76984
 20
0.689338
 30
0.000000
  70
    32
  0
VERTEX
  8
0
  5
E4D
 10
8.76726
 20
0.693377
 30
0.000000
  70
    32
  0
VERTEX
  8
0
  5
E4E
 10
8.76469
 20
0.697416
 30
0.000000
  70
    32
  0
VERTEX
  8
0
  5
E4F
 10
8.76212
 20
0.701456
 30
0.000000
  70
    32
  0
VERTEX
  8
0
  5
E50
 10
8.75955
 20
0.705498
 30
0.000000
  70
    32
  0
VERTEX
  8
0
  5
E51
 10
8.75699
 20
0.709541
 30
0.000000
  70
    32
  0
VERTEX
  8
0
  5
E52
 10
8.75444
 20
0.713587
 30
0.000000
  70
    32
  0
VERTEX
  8
0
  5
E53
 10
8.75189
 20
0.717636
 30
0.000000
  70
    32
  0
VERTEX
  8
0
  5
E54
 10
8.74935
 20
0.721688
 30
0.000000
  70
    32
  0
VERTEX
  8
0
  5
E55
 10
8.74681
 20
0.725744
 30
0.000000
  70
    32
  0
VERTEX
  8
0
  5
E56
 10
8.74428
 20
0.729805
 30
0.000000
  70
    32
  0
VERTEX
  8
0
  5
E57
 10
8.74176
 20
0.733870
 30
0.000000
  70
    32
  0
VERTEX
  8
0
  5
E58
 10
8.73924
 20
0.737941
 30
0.000000
  70
    32
  0
VERTEX
  8
0
  5
E59
 10
8.73673
 20
0.742018
 30
0.000000
  70
    32
  0
VERTEX
  8
0
  5
E5A
 10
8.73423
 20
0.746101
 30
0.000000
  70
    32
  0
VERTEX
  8
0
  5
E5B
 10
8.73174
 20
0.750190
 30
0.000000
  70
    32
  0
VERTEX
  8
0
  5
E5C
 10
8.72926
 20
0.754287
 30
0.000000
  70
    32
  0
VERTEX
  8
0
  5
E5D
 10
8.72679
 20
0.758392
 30
0.000000
  70
    32
  0
VERTEX
  8
0
  5
E5E
 10
8.72432
 20
0.762505
 30
0.000000
  70
    32
  0
VERTEX
  8
0
  5
E5F
 10
8.72187
 20
0.766627
 30
0.000000
  70
    32
  0
VERTEX
  8
0
  5
E60
 10
8.71943
 20
0.770758
 30
0.000000
  70
    32
  0
VERTEX
  8
0
  5
E61
 10
8.71699
 20
0.774899
 30
0.000000
  70
    32
  0
VERTEX
  8
0
  5
E62
 10
8.71457
 20
0.779050
 30
0.000000
  70
    32
  0
VERTEX
  8
0
  5
E63
 10
8.71216
 20
0.783212
 30
0.000000
  70
    32
  0
VERTEX
  8
0
  5
E64
 10
8.70976
 20
0.787385
 30
0.000000
  70
    32
  0
VERTEX
  8
0
  5
E65
 10
8.70738
 20
0.791570
 30
0.000000
  70
    32
  0
VERTEX
  8
0
  5
E66
 10
8.70501
 20
0.795767
 30
0.000000
  70
    32
  0
VERTEX
  8
0
  5
E67
 10
8.70265
 20
0.799976
 30
0.000000
  70
    32
  0
VERTEX
  8
0
  5
E68
 10
8.70030
 20
0.804199
 30
0.000000
  70
    32
  0
VERTEX
  8
0
  5
E69
 10
8.69797
 20
0.808435
 30
0.000000
  70
    32
  0
VERTEX
  8
0
  5
E6A
 10
8.69565
 20
0.812686
 30
0.000000
  70
    32
  0
VERTEX
  8
0
  5
E6B
 10
8.69335
 20
0.816951
 30
0.000000
  70
    32
  0
VERTEX
  8
0
  5
E6C
 10
8.69106
 20
0.821231
 30
0.000000
  70
    32
  0
VERTEX
  8
0
  5
E6D
 10
8.68878
 20
0.825527
 30
0.000000
  70
    32
  0
VERTEX
  8
0
  5
E6E
 10
8.68653
 20
0.829839
 30
0.000000
  70
    32
  0
VERTEX
  8
0
  5
E6F
 10
8.68428
 20
0.834168
 30
0.000000
  70
    32
  0
VERTEX
  8
0
  5
E70
 10
8.68206
 20
0.838513
 30
0.000000
  70
    32
  0
VERTEX
  8
0
  5
E71
 10
8.67985
 20
0.842876
 30
0.000000
  70
    32
  0
VERTEX
  8
0
  5
E72
 10
8.67766
 20
0.847258
 30
0.000000
  70
    32
  0
VERTEX
  8
0
  5
E73
 10
8.67549
 20
0.851657
 30
0.000000
  70
    32
  0
VERTEX
  8
0
  5
E74
 10
8.67333
 20
0.856076
 30
0.000000
  70
    32
  0
VERTEX
  8
0
  5
E75
 10
8.67120
 20
0.860514
 30
0.000000
  70
    32
  0
VERTEX
  8
0
  5
E76
 10
8.66908
 20
0.864972
 30
0.000000
  70
    32
  0
VERTEX
  8
0
  5
E77
 10
8.66698
 20
0.869451
 30
0.000000
  70
    32
  0
VERTEX
  8
0
  5
E78
 10
8.66490
 20
0.873951
 30
0.000000
  70
    32
  0
VERTEX
  8
0
  5
E79
 10
8.66284
 20
0.878472
 30
0.000000
  70
    32
  0
VERTEX
  8
0
  5
E7A
 10
8.66080
 20
0.883015
 30
0.000000
  70
    32
  0
VERTEX
  8
0
  5
E7B
 10
8.65878
 20
0.887580
 30
0.000000
  70
    32
  0
VERTEX
  8
0
  5
E7C
 10
8.65678
 20
0.892169
 30
0.000000
  70
    32
  0
VERTEX
  8
0
  5
E7D
 10
8.65481
 20
0.896780
 30
0.000000
  70
    32
  0
VERTEX
  8
0
  5
E7E
 10
8.65285
 20
0.901416
 30
0.000000
  70
    32
  0
VERTEX
  8
0
  5
E7F
 10
8.65092
 20
0.906076
 30
0.000000
  70
    32
  0
VERTEX
  8
0
  5
E80
 10
8.64901
 20
0.910761
 30
0.000000
  70
    32
  0
VERTEX
  8
0
  5
E81
 10
8.64712
 20
0.915471
 30
0.000000
  70
    32
  0
VERTEX
  8
0
  5
E82
 10
8.64526
 20
0.920208
 30
0.000000
  70
    32
  0
VERTEX
  8
0
  5
E83
 10
8.64342
 20
0.924970
 30
0.000000
  70
    32
  0
VERTEX
  8
0
  5
E84
 10
8.64160
 20
0.929759
 30
0.000000
  70
    32
  0
VERTEX
  8
0
  5
E85
 10
8.63981
 20
0.934576
 30
0.000000
  70
    32
  0
VERTEX
  8
0
  5
E86
 10
8.63804
 20
0.939420
 30
0.000000
  70
    32
  0
VERTEX
  8
0
  5
E87
 10
8.63630
 20
0.944293
 30
0.000000
  70
    32
  0
VERTEX
  8
0
  5
E88
 10
8.63458
 20
0.949195
 30
0.000000
  70
    32
  0
VERTEX
  8
0
  5
E89
 10
8.63289
 20
0.954125
 30
0.000000
  70
    32
  0
VERTEX
  8
0
  5
E8A
 10
8.63123
 20
0.959086
 30
0.000000
  70
    32
  0
SEQEND
  8
0
  5
E8B
  0
POLYLINE
  5
9E
  8
0
 66
     1
 10
0.0
 20
0.0
 30
0.0
  0
VERTEX
  5
F0
  8
0
 10
8.0450256014130872
 20
1.54507329555156
 30
0.0
  0
VERTEX
  5
F1
  8
0
 10
-0.0000000000000071
 20
1.545073295551574
 30
0.0
  0
VERTEX
  5
F2
  8
0
 10
-8.0450256014130872
 20
1.54507329555156
 30
0.0
  0
SEQEND
  5
F3
  8
0
  0
POLYLINE
  5
9F
  8
0
 66
     1
 10
0.0
 20
0.0
 30
0.0
  0
VERTEX
  5
F4
  8
0
 10
-8.5245684847805734
 20
1.0655304121840741
 30
0.0
  0
VERTEX
  5
F5
  8
0
 10
0.0
 20
1.0655304121840601
 30
0.0
  0
VERTEX
  5
F6
  8
0
 10
8.5245684847805734
 20
1.0655304121840741
 30
0.0
  0
SEQEND
  5
F7
  8
0
  0
POLYLINE
  5
A0
  8
0
 66
     1
 10
0.0
 20
0.0
 30
0.0
  0
VERTEX
  5
F8
  8
0
 10
9.0
 20
0.0
 30
0.0
  0
VERTEX
  5
F9
  8
0
 10
0.0
 20
0.0
 30
0.0
  0
VERTEX
  5
FA
  8
0
 10
-9.0
 20
0.0
 30
0.0
  0
SEQEND
  5
FB
  8
0
  0
POLYLINE
  8
0
  5
E8C
  66
     1
 10
0.000000
 20
0.000000
 30
0.000000
  70
     8
  0
VERTEX
  8
0
  5
E8D
 10
8.04503
 20
1.54507
 30
0.000000
  70
    32
  0
VERTEX
  8
0
  5
E8E
 10
8.04609
 20
1.54529
 30
0.000000
  70
    32
  0
VERTEX
  8
0
  5
E8F
 10
8.04716
 20
1.54550
 30
0.000000
  70
    32
  0
VERTEX
  8
0
  5
E90
 10
8.04822
 20
1.54569
 30
0.000000
  70
    32
  0
VERTEX
  8
0
  5
E91
 10
8.04928
 20
1.54588
 30
0.000000
  70
    32
  0
VERTEX
  8
0
  5
E92
 10
8.05034
 20
1.54605
 30
0.000000
  70
    32
  0
VERTEX
  8
0
  5
E93
 10
8.05139
 20
1.54621
 30
0.000000
  70
    32
  0
VERTEX
  8
0
  5
E94
 10
8.05245
 20
1.54635
 30
0.000000
  70
    32
  0
VERTEX
  8
0
  5
E95
 10
8.05349
 20
1.54649
 30
0.000000
  70
    32
  0
VERTEX
  8
0
  5
E96
 10
8.05454
 20
1.54661
 30
0.000000
  70
    32
  0
VERTEX
  8
0
  5
E97
 10
8.05558
 20
1.54672
 30
0.000000
  70
    32
  0
VERTEX
  8
0
  5
E98
 10
8.05662
 20
1.54682
 30
0.000000
  70
    32
  0
VERTEX
  8
0
  5
E99
 10
8.05766
 20
1.54691
 30
0.000000
  70
    32
  0
VERTEX
  8
0
  5
E9A
 10
8.05869
 20
1.54698
 30
0.000000
  70
    32
  0
VERTEX
  8
0
  5
E9B
 10
8.05972
 20
1.54705
 30
0.000000
  70
    32
  0
VERTEX
  8
0
  5
E9C
 10
8.06074
 20
1.54710
 30
0.000000
  70
    32
  0
VERTEX
  8
0
  5
E9D
 10
8.06177
 20
1.54714
 30
0.000000
  70
    32
  0
VERTEX
  8
0
  5
E9E
 10
8.06279
 20
1.54717
 30
0.000000
  70
    32
  0
VERTEX
  8
0
  5
E9F
 10
8.06380
 20
1.54719
 30
0.000000
  70
    32
  0
VERTEX
  8
0
  5
EA0
 10
8.06482
 20
1.54720
 30
0.000000
  70
    32
  0
VERTEX
  8
0
  5
EA1
 10
8.06583
 20
1.54719
 30
0.000000
  70
    32
  0
VERTEX
  8
0
  5
EA2
 10
8.06683
 20
1.54718
 30
0.000000
  70
    32
  0
VERTEX
  8
0
  5
EA3
 10
8.06784
 20
1.54715
 30
0.000000
  70
    32
  0
VERTEX
  8
0
  5
EA4
 10
8.06884
 20
1.54711
 30
0.000000
  70
    32
  0
VERTEX
  8
0
  5
EA5
 10
8.06984
 20
1.54706
 30
0.000000
  70
    32
  0
VERTEX
  8
0
  5
EA6
 10
8.07083
 20
1.54700
 30
0.000000
  70
    32
  0
VERTEX
  8
0
  5
EA7
 10
8.07182
 20
1.54693
 30
0.000000
  70
    32
  0
VERTEX
  8
0
  5
EA8
 10
8.07281
 20
1.54685
 30
0.000000
  70
    32
  0
VERTEX
  8
0
  5
EA9
 10
8.07379
 20
1.54676
 30
0.000000
  70
    32
  0
VERTEX
  8
0
  5
EAA
 10
8.07477
 20
1.54665
 30
0.000000
  70
    32
  0
VERTEX
  8
0
  5
EAB
 10
8.07575
 20
1.54654
 30
0.000000
  70
    32
  0
VERTEX
  8
0
  5
EAC
 10
8.07672
 20
1.54641
 30
0.000000
  70
    32
  0
VERTEX
  8
0
  5
EAD
 10
8.07769
 20
1.54628
 30
0.000000
  70
    32
  0
VERTEX
  8
0
  5
EAE
 10
8.07866
 20
1.54613
 30
0.000000
  70
    32
  0
VERTEX
  8
0
  5
EAF
 10
8.07962
 20
1.54597
 30
0.000000
  70
    32
  0
VERTEX
  8
0
  5
EB0
 10
8.08058
 20
1.54581
 30
0.000000
  70
    32
  0
VERTEX
  8
0
  5
EB1
 10
8.08154
 20
1.54563
 30
0.000000
  70
    32
  0
VERTEX
  8
0
  5
EB2
 10
8.08249
 20
1.54544
 30
0.000000
  70
    32
  0
VERTEX
  8
0
  5
EB3
 10
8.08344
 20
1.54524
 30
0.000000
  70
    32
  0
VERTEX
  8
0
  5
EB4
 10
8.08438
 20
1.54503
 30
0.000000
  70
    32
  0
VERTEX
  8
0
  5
EB5
 10
8.08533
 20
1.54481
 30
0.000000
  70
    32
  0
VERTEX
  8
0
  5
EB6
 10
8.08626
 20
1.54458
 30
0.000000
  70
    32
  0
VERTEX
  8
0
  5
EB7
 10
8.08720
 20
1.54434
 30
0.000000
  70
    32
  0
VERTEX
  8
0
  5
EB8
 10
8.08813
 20
1.54409
 30
0.000000
  70
    32
  0
VERTEX
  8
0
  5
EB9
 10
8.08906
 20
1.54382
 30
0.000000
  70
    32
  0
VERTEX
  8
0
  5
EBA
 10
8.08998
 20
1.54355
 30
0.000000
  70
    32
  0
VERTEX
  8
0
  5
EBB
 10
8.09090
 20
1.54327
 30
0.000000
  70
    32
  0
VERTEX
  8
0
  5
EBC
 10
8.09182
 20
1.54298
 30
0.000000
  70
    32
  0
VERTEX
  8
0
  5
EBD
 10
8.09273
 20
1.54268
 30
0.000000
  70
    32
  0
VERTEX
  8
0
  5
EBE
 10
8.09364
 20
1.54237
 30
0.000000
  70
    32
  0
VERTEX
  8
0
  5
EBF
 10
8.09454
 20
1.54205
 30
0.000000
  70
    32
  0
VERTEX
  8
0
  5
EC0
 10
8.09544
 20
1.54172
 30
0.000000
  70
    32
  0
VERTEX
  8
0
  5
EC1
 10
8.09634
 20
1.54138
 30
0.000000
  70
    32
  0
VERTEX
  8
0
  5
EC2
 10
8.09723
 20
1.54103
 30
0.000000
  70
    32
  0
VERTEX
  8
0
  5
EC3
 10
8.09812
 20
1.54067
 30
0.000000
  70
    32
  0
VERTEX
  8
0
  5
EC4
 10
8.09901
 20
1.54030
 30
0.000000
  70
    32
  0
VERTEX
  8
0
  5
EC5
 10
8.09989
 20
1.53992
 30
0.000000
  70
    32
  0
VERTEX
  8
0
  5
EC6
 10
8.10077
 20
1.53953
 30
0.000000
  70
    32
  0
VERTEX
  8
0
  5
EC7
 10
8.10164
 20
1.53913
 30
0.000000
  70
    32
  0
VERTEX
  8
0
  5
EC8
 10
8.10251
 20
1.53873
 30
0.000000
  70
    32
  0
VERTEX
  8
0
  5
EC9
 10
8.10338
 20
1.53831
 30
0.000000
  70
    32
  0
VERTEX
  8
0
  5
ECA
 10
8.10424
 20
1.53789
 30
0.000000
  70
    32
  0
VERTEX
  8
0
  5
ECB
 10
8.10510
 20
1.53745
 30
0.000000
  70
    32
  0
VERTEX
  8
0
  5
ECC
 10
8.10595
 20
1.53701
 30
0.000000
  70
    32
  0
VERTEX
  8
0
  5
ECD
 10
8.10680
 20
1.53655
 30
0.000000
  70
    32
  0
VERTEX
  8
0
  5
ECE
 10
8.10765
 20
1.53609
 30
0.000000
  70
    32
  0
VERTEX
  8
0
  5
ECF
 10
8.10849
 20
1.53562
 30
0.000000
  70
    32
  0
VERTEX
  8
0
  5
ED0
 10
8.10933
 20
1.53514
 30
0.000000
  70
    32
  0
VERTEX
  8
0
  5
ED1
 10
8.11016
 20
1.53465
 30
0.000000
  70
    32
  0
VERTEX
  8
0
  5
ED2
 10
8.11099
 20
1.53415
 30
0.000000
  70
    32
  0
VERTEX
  8
0
  5
ED3
 10
8.11182
 20
1.53364
 30
0.000000
  70
    32
  0
VERTEX
  8
0
  5
ED4
 10
8.11264
 20
1.53313
 30
0.000000
  70
    32
  0
VERTEX
  8
0
  5
ED5
 10
8.11346
 20
1.53260
 30
0.000000
  70
    32
  0
VERTEX
  8
0
  5
ED6
 10
8.11427
 20
1.53207
 30
0.000000
  70
    32
  0
VERTEX
  8
0
  5
ED7
 10
8.11508
 20
1.53153
 30
0.000000
  70
    32
  0
VERTEX
  8
0
  5
ED8
 10
8.11588
 20
1.53098
 30
0.000000
  70
    32
  0
VERTEX
  8
0
  5
ED9
 10
8.11668
 20
1.53042
 30
0.000000
  70
    32
  0
VERTEX
  8
0
  5
EDA
 10
8.11748
 20
1.52985
 30
0.000000
  70
    32
  0
VERTEX
  8
0
  5
EDB
 10
8.11827
 20
1.52928
 30
0.000000
  70
    32
  0
VERTEX
  8
0
  5
EDC
 10
8.11906
 20
1.52869
 30
0.000000
  70
    32
  0
VERTEX
  8
0
  5
EDD
 10
8.11984
 20
1.52810
 30
0.000000
  70
    32
  0
VERTEX
  8
0
  5
EDE
 10
8.12062
 20
1.52750
 30
0.000000
  70
    32
  0
VERTEX
  8
0
  5
EDF
 10
8.12140
 20
1.52689
 30
0.000000
  70
    32
  0
VERTEX
  8
0
  5
EE0
 10
8.12217
 20
1.52627
 30
0.000000
  70
    32
  0
VERTEX
  8
0
  5
EE1
 10
8.12293
 20
1.52565
 30
0.000000
  70
    32
  0
VERTEX
  8
0
  5
EE2
 10
8.12369
 20
1.52501
 30
0.000000
  70
    32
  0
VERTEX
  8
0
  5
EE3
 10
8.12445
 20
1.52437
 30
0.000000
  70
    32
  0
VERTEX
  8
0
  5
EE4
 10
8.12520
 20
1.52372
 30
0.000000
  70
    32
  0
VERTEX
  8
0
  5
EE5
 10
8.12595
 20
1.52306
 30
0.000000
  70
    32
  0
VERTEX
  8
0
  5
EE6
 10
8.12669
 20
1.52240
 30
0.000000
  70
    32
  0
VERTEX
  8
0
  5
EE7
 10
8.12743
 20
1.52172
 30
0.000000
  70
    32
  0
VERTEX
  8
0
  5
EE8
 10
8.12817
 20
1.52104
 30
0.000000
  70
    32
  0
VERTEX
  8
0
  5
EE9
 10
8.12890
 20
1.52035
 30
0.000000
  70
    32
  0
VERTEX
  8
0
  5
EEA
 10
8.12962
 20
1.51966
 30
0.000000
  70
    32
  0
VERTEX
  8
0
  5
EEB
 10
8.13035
 20
1.51895
 30
0.000000
  70
    32
  0
VERTEX
  8
0
  5
EEC
 10
8.13106
 20
1.51824
 30
0.000000
  70
    32
  0
VERTEX
  8
0
  5
EED
 10
8.13177
 20
1.51752
 30
0.000000
  70
    32
  0
VERTEX
  8
0
  5
EEE
 10
8.13248
 20
1.51680
 30
0.000000
  70
    32
  0
VERTEX
  8
0
  5
EEF
 10
8.13318
 20
1.51606
 30
0.000000
  70
    32
  0
VERTEX
  8
0
  5
EF0
 10
8.13388
 20
1.51532
 30
0.000000
  70
    32
  0
VERTEX
  8
0
  5
EF1
 10
8.13458
 20
1.51457
 30
0.000000
  70
    32
  0
VERTEX
  8
0
  5
EF2
 10
8.13526
 20
1.51381
 30
0.000000
  70
    32
  0
VERTEX
  8
0
  5
EF3
 10
8.13595
 20
1.51305
 30
0.000000
  70
    32
  0
VERTEX
  8
0
  5
EF4
 10
8.13663
 20
1.51228
 30
0.000000
  70
    32
  0
VERTEX
  8
0
  5
EF5
 10
8.13730
 20
1.51150
 30
0.000000
  70
    32
  0
VERTEX
  8
0
  5
EF6
 10
8.13797
 20
1.51072
 30
0.000000
  70
    32
  0
VERTEX
  8
0
  5
EF7
 10
8.13864
 20
1.50992
 30
0.000000
  70
    32
  0
VERTEX
  8
0
  5
EF8
 10
8.13930
 20
1.50912
 30
0.000000
  70
    32
  0
VERTEX
  8
0
  5
EF9
 10
8.13995
 20
1.50832
 30
0.000000
  70
    32
  0
VERTEX
  8
0
  5
EFA
 10
8.14060
 20
1.50750
 30
0.000000
  70
    32
  0
VERTEX
  8
0
  5
EFB
 10
8.14125
 20
1.50668
 30
0.000000
  70
    32
  0
VERTEX
  8
0
  5
EFC
 10
8.14189
 20
1.50586
 30
0.000000
  70
    32
  0
VERTEX
  8
0
  5
EFD
 10
8.14253
 20
1.50502
 30
0.000000
  70
    32
  0
VERTEX
  8
0
  5
EFE
 10
8.14316
 20
1.50418
 30
0.000000
  70
    32
  0
VERTEX
  8
0
  5
EFF
 10
8.14378
 20
1.50334
 30
0.000000
  70
    32
  0
VERTEX
  8
0
  5
F00
 10
8.14441
 20
1.50248
 30
0.000000
  70
    32
  0
VERTEX
  8
0
  5
F01
 10
8.14502
 20
1.50162
 30
0.000000
  70
    32
  0
VERTEX
  8
0
  5
F02
 10
8.14563
 20
1.50076
 30
0.000000
  70
    32
  0
VERTEX
  8
0
  5
F03
 10
8.14624
 20
1.49988
 30
0.000000
  70
    32
  0
VERTEX
  8
0
  5
F04
 10
8.14684
 20
1.49900
 30
0.000000
  70
    32
  0
VERTEX
  8
0
  5
F05
 10
8.14744
 20
1.49812
 30
0.000000
  70
    32
  0
VERTEX
  8
0
  5
F06
 10
8.14803
 20
1.49723
 30
0.000000
  70
    32
  0
VERTEX
  8
0
  5
F07
 10
8.14862
 20
1.49633
 30
0.000000
  70
    32
  0
VERTEX
  8
0
  5
F08
 10
8.14920
 20
1.49542
 30
0.000000
  70
    32
  0
VERTEX
  8
0
  5
F09
 10
8.14977
 20
1.49451
 30
0.000000
  70
    32
  0
VERTEX
  8
0
  5
F0A
 10
8.15034
 20
1.49359
 30
0.000000
  70
    32
  0
VERTEX
  8
0
  5
F0B
 10
8.15091
 20
1.49267
 30
0.000000
  70
    32
  0
VERTEX
  8
0
  5
F0C
 10
8.15147
 20
1.49174
 30
0.000000
  70
    32
  0
SEQEND
  8
0
  5
F0D
  0
ATTDEF
  5
A2
  8
DEFPOINTS
 10
0.0
 20
-0.005
 30
0.0
 40
0.001
  1
VITREOUS CHINA
  3

  2
MATERIAL
 70
     8
1001
AcDbAttr
1070
     0
1070
     1
  0
ATTDEF
  5
A4
  8
DEFPOINTS
 10
0.0
 20
-0.0033333333333333
 30
0.0
 40
0.001
  1
BATHROOM SINK
  3

  2
PRODUCT
 70
     8
1001
AcDbAttr
1070
     0
1070
     1
  0
ATTDEF
  5
A5
  8
DEFPOINTS
 10
0.0
 20
-0.0016666666666667
 30
0.0
 40
0.001
  1
MEMOIRS STATELY
  3

  2
TRADENAME
 70
     8
1001
AcDbAttr
1070
     0
1070
     1
  0
ATTDEF
  5
A6
  8
DEFPOINTS
 10
0.0
 20
0.0
 30
0.0
 40
0.001
  1
K-2337-8
  3

  2
MODELNUMBER
 70
     8
1001
AcDbAttr
1070
     0
1070
     1
  0
ENDSEC
  0
EOF
