  0
SECTION
  2
HEADER
  9
$ACADVER
  1
AC1009
  9
$INSBASE
 10
0.0
 20
0.0
 30
0.0
  9
$EXTMIN
 10
-10.3253810592
 20
-12.120920674500001
 30
0.0
  9
$EXTMAX
 10
10.3253810592
 20
5.182381059199999
 30
0.0
  9
$LIMMIN
 10
0.0
 20
0.0
  9
$LIMMAX
 10
34.0
 20
22.0
  9
$ORTHOMODE
 70
     0
  9
$REGENMODE
 70
     1
  9
$FILLMODE
 70
     1
  9
$QTEXTMODE
 70
     0
  9
$MIRRTEXT
 70
     0
  9
$DRAGMODE
 70
     2
  9
$LTSCALE
 40
1.8700000000000001
  9
$OSMODE
 70
  2711
  9
$ATTMODE
 70
     1
  9
$TEXTSIZE
 40
0.2
  9
$TRACEWID
 40
0.05
  9
$TEXTSTYLE
  7
STANDARD
  9
$CLAYER
  8
0
  9
$CELTYPE
  6
BYLAYER
  9
$CECOLOR
 62
   256
  9
$DIMSCALE
 40
1.0
  9
$DIMASZ
 40
0.1875
  9
$DIMEXO
 40
0.2125
  9
$DIMDLI
 40
1.292
  9
$DIMRND
 40
0.0
  9
$DIMDLE
 40
0.0
  9
$DIMEXE
 40
0.612
  9
$DIMTP
 40
0.0
  9
$DIMTM
 40
0.0
  9
$DIMTXT
 40
0.15625
  9
$DIMCEN
 40
0.306
  9
$DIMTSZ
 40
0.0
  9
$DIMTOL
 70
     0
  9
$DIMLIM
 70
     0
  9
$DIMTIH
 70
     1
  9
$DIMTOH
 70
     1
  9
$DIMSE1
 70
     0
  9
$DIMSE2
 70
     0
  9
$DIMTAD
 70
     0
  9
$DIMZIN
 70
     0
  9
$DIMBLK
  1

  9
$DIMASO
 70
     1
  9
$DIMSHO
 70
     1
  9
$DIMPOST
  1

  9
$DIMAPOST
  1

  9
$DIMALT
 70
     0
  9
$DIMALTD
 70
     2
  9
$DIMALTF
 40
25.399999999999999
  9
$DIMLFAC
 40
1.0
  9
$DIMTOFL
 70
     0
  9
$DIMTVP
 40
0.0
  9
$DIMTIX
 70
     0
  9
$DIMSOXD
 70
     0
  9
$DIMSAH
 70
     0
  9
$DIMBLK1
  1

  9
$DIMBLK2
  1

  9
$DIMSTYLE
  2
STANDARD
  9
$DIMCLRD
 70
     0
  9
$DIMCLRE
 70
     0
  9
$DIMCLRT
 70
     0
  9
$DIMTFAC
 40
1.0
  9
$DIMGAP
 40
0.09
  9
$LUNITS
 70
     2
  9
$LUPREC
 70
     4
  9
$SKETCHINC
 40
0.1
  9
$FILLETRAD
 40
0.0
  9
$AUNITS
 70
     0
  9
$AUPREC
 70
     0
  9
$MENU
  1
.
  9
$ELEVATION
 40
0.0
  9
$PELEVATION
 40
0.0
  9
$THICKNESS
 40
0.0
  9
$LIMCHECK
 70
     0
  9
$BLIPMODE
 70
     0
  9
$CHAMFERA
 40
0.0
  9
$CHAMFERB
 40
0.0
  9
$SKPOLY
 70
     0
  9
$TDCREATE
 40
2454188.3838106021
  9
$TDUPDATE
 40
2454188.4137500352
  9
$TDINDWG
 40
0.0236181481
  9
$TDUSRTIMER
 40
0.0236181481
  9
$USRTIMER
 70
     1
  9
$ANGBASE
 50
0.0
  9
$ANGDIR
 70
     0
  9
$PDMODE
 70
     3
  9
$PDSIZE
 40
0.3125
  9
$PLINEWID
 40
0.0
  9
$COORDS
 70
     1
  9
$SPLFRAME
 70
     0
  9
$SPLINETYPE
 70
     6
  9
$SPLINESEGS
 70
     8
  9
$ATTDIA
 70
     0
  9
$ATTREQ
 70
     1
  9
$HANDLING
 70
     1
  9
$HANDSEED
  5
100A
  9
$SURFTAB1
 70
     6
  9
$SURFTAB2
 70
     6
  9
$SURFTYPE
 70
     6
  9
$SURFU
 70
     6
  9
$SURFV
 70
     6
  9
$UCSNAME
  2

  9
$UCSORG
 10
0.0
 20
0.0
 30
0.0
  9
$UCSXDIR
 10
1.0
 20
0.0
 30
0.0
  9
$UCSYDIR
 10
0.0
 20
1.0
 30
0.0
  9
$PUCSNAME
  2

  9
$PUCSORG
 10
0.0
 20
0.0
 30
0.0
  9
$PUCSXDIR
 10
1.0
 20
0.0
 30
0.0
  9
$PUCSYDIR
 10
0.0
 20
1.0
 30
0.0
  9
$USERI1
 70
     0
  9
$USERI2
 70
     0
  9
$USERI3
 70
     0
  9
$USERI4
 70
     0
  9
$USERI5
 70
     0
  9
$USERR1
 40
0.0
  9
$USERR2
 40
0.0
  9
$USERR3
 40
0.0
  9
$USERR4
 40
0.0
  9
$USERR5
 40
0.0
  9
$WORLDVIEW
 70
     1
  9
$SHADEDGE
 70
     3
  9
$SHADEDIF
 70
    70
  9
$TILEMODE
 70
     1
  9
$MAXACTVP
 70
    64
  9
$PLIMCHECK
 70
     0
  9
$PEXTMIN
 10
1.0000000000000000E+020
 20
1.0000000000000000E+020
 30
1.0000000000000000E+020
  9
$PEXTMAX
 10
-1.0000000000000000E+020
 20
-1.0000000000000000E+020
 30
-1.0000000000000000E+020
  9
$PLIMMIN
 10
0.0
 20
0.0
  9
$PLIMMAX
 10
12.0
 20
9.0
  9
$UNITMODE
 70
     0
  9
$VISRETAIN
 70
     1
  9
$PLINEGEN
 70
     0
  9
$PSLTSCALE
 70
     1
  0
ENDSEC
  0
SECTION
  2
TABLES
  0
TABLE
  2
VPORT
 70
     2
  0
VPORT
  2
*ACTIVE
 70
     0
 10
0.0
 20
0.0
 11
1.0
 21
1.0
 12
0.5002225843720362
 22
-4.6929668709180152
 13
0.0
 23
0.0
 14
1.0
 24
1.0
 15
0.0
 25
0.0
 16
0.0
 26
0.0
 36
1.0
 17
0.0
 27
0.0
 37
0.0
 40
27.890139945913219
 41
1.6135770234986939
 42
50.0
 43
0.0
 44
0.0
 50
0.0
 51
0.0
 71
     0
 72
   100
 73
     1
 74
     1
 75
     0
 76
     0
 77
     0
 78
     0
  0
ENDTAB
  0
TABLE
  2
LTYPE
 70
     2
  0
LTYPE
  2
CONTINUOUS
 70
     0
  3
Solid line
 72
    65
 73
     0
 40
0.0
  0
LTYPE
  2
HIDDEN
 70
     0
  3
- - - - - - - - - - - - - - - - - - - -
 72
    65
 73
     2
 40
0.2
 49
0.1
 49
-0.1
  0
ENDTAB
  0
TABLE
  2
LAYER
 70
     3
  0
LAYER
  2
0
 70
     0
 62
     7
  6
CONTINUOUS
  0
LAYER
  2
_CURVE
 70
     0
 62
     7
  6
CONTINUOUS
  0
LAYER
  2
HIDDEN
 70
     0
 62
     7
  6
HIDDEN
  0
ENDTAB
  0
TABLE
  2
STYLE
 70
     1
  0
STYLE
  2
STANDARD
 70
     0
 40
0.0
 41
0.8
 50
0.0
 71
     0
 42
0.2
  3
txt
  4

  0
ENDTAB
  0
TABLE
  2
VIEW
 70
     0
  0
ENDTAB
  0
TABLE
  2
UCS
 70
     0
  0
ENDTAB
  0
TABLE
  2
APPID
 70
     2
  0
APPID
  2
ACAD
 70
     0
  0
APPID
  2
ACAECLAYERSTANDARD
 70
     0
  0
ENDTAB
  0
TABLE
  2
DIMSTYLE
 70
     1
  0
DIMSTYLE
  2
STANDARD
 70
     0
  3

  4

  5

  6

  7

 40
1.0
 41
0.18
 42
0.0625
 43
0.38
 44
0.18
 45
0.0
 46
0.0
 47
0.0
 48
0.0
140
0.18
141
0.09
142
0.0
143
25.399999999999999
144
1.0
145
0.0
146
1.0
147
0.09
 71
     0
 72
     0
 73
     1
 74
     1
 75
     0
 76
     0
 77
     0
 78
     0
170
     0
171
     2
172
     0
173
     0
174
     0
175
     0
176
     0
177
     0
178
     0
  0
ENDTAB
  0
ENDSEC
  0
SECTION
  2
BLOCKS
  0
BLOCK
  8
0
  2
$MODEL_SPACE
 70
     0
 10
0.0
 20
0.0
 30
0.0
  3
$MODEL_SPACE
  1

  0
ENDBLK
  5
24
  8
0
  0
BLOCK
 67
     1
  8
0
  2
$PAPER_SPACE
 70
     0
 10
0.0
 20
0.0
 30
0.0
  3
$PAPER_SPACE
  1

  0
ENDBLK
  5
20
 67
     1
  8
0
  0
ENDSEC
  0
SECTION
  2
ENTITIES
  0
POLYLINE
  5
5C
  8
_CURVE
 66
     1
 10
0.0
 20
0.0
 30
0.0
  0
VERTEX
  5
EE3
  8
_CURVE
 10
-10.325378042500001
 20
-11.5104541599
 30
0.0
  0
VERTEX
  5
EE4
  8
_CURVE
 10
-10.3248844865
 20
-11.526175587599999
 30
0.0
  0
VERTEX
  5
EE5
  8
_CURVE
 10
-10.323081397799999
 20
-11.5442906828
 30
0.0
  0
VERTEX
  5
EE6
  8
_CURVE
 10
-10.319965250499999
 20
-11.5622120181
 30
0.0
  0
VERTEX
  5
EE7
  8
_CURVE
 10
-10.3155579633
 20
-11.579848891499999
 30
0.0
  0
VERTEX
  5
EE8
  8
_CURVE
 10
-10.3098818539
 20
-11.597113635199999
 30
0.0
  0
VERTEX
  5
EE9
  8
_CURVE
 10
-10.3029663679
 20
-11.613916758
 30
0.0
  0
VERTEX
  5
EEA
  8
_CURVE
 10
-10.2948524816
 20
-11.6301703053
 30
0.0
  0
VERTEX
  5
EEB
  8
_CURVE
 10
-10.2855807628
 20
-11.645789067700001
 30
0.0
  0
VERTEX
  5
EEC
  8
_CURVE
 10
-10.2751982033
 20
-11.660690470700001
 30
0.0
  0
VERTEX
  5
EED
  8
_CURVE
 10
-10.263764113200001
 20
-11.674797079199999
 30
0.0
  0
VERTEX
  5
EEE
  8
_CURVE
 10
-10.251339033300001
 20
-11.6880327148
 30
0.0
  0
VERTEX
  5
EEF
  8
_CURVE
 10
-10.237988140400001
 20
-11.700326778899999
 30
0.0
  0
VERTEX
  5
EF0
  8
_CURVE
 10
-10.2237848563
 20
-11.711618016899999
 30
0.0
  0
VERTEX
  5
EF1
  8
_CURVE
 10
-10.2088035901
 20
-11.7218460023
 30
0.0
  0
VERTEX
  5
EF2
  8
_CURVE
 10
-10.193124209200001
 20
-11.730955464699999
 30
0.0
  0
VERTEX
  5
EF3
  8
_CURVE
 10
-10.176831655200001
 20
-11.7389036182
 30
0.0
  0
VERTEX
  5
EF4
  8
_CURVE
 10
-10.160008475
 20
-11.745649635199999
 30
0.0
  0
VERTEX
  5
EF5
  8
_CURVE
 10
-10.142741985000001
 20
-11.751156417800001
 30
0.0
  0
VERTEX
  5
EF6
  8
_CURVE
 10
-10.125121287900001
 20
-11.755398698800001
 30
0.0
  0
VERTEX
  5
EF7
  8
_CURVE
 10
-10.1072312331
 20
-11.7583531818
 30
0.0
  0
VERTEX
  5
EF8
  8
_CURVE
 10
-10.089165336800001
 20
-11.7600019178
 30
0.0
  0
VERTEX
  5
EF9
  8
_CURVE
 10
-10.0754541601
 20
-11.760378685299999
 30
0.0
  0
SEQEND
  5
EFA
  8
_CURVE
  0
LINE
  5
A8
  8
_CURVE
 10
-10.3253810592
 20
4.9324541599999998
 30
0.0
 11
-10.3253810592
 21
-11.51045416
 31
0.0
  0
POLYLINE
  5
BB
  8
_CURVE
 66
     1
 10
0.0
 20
0.0
 30
0.0
  0
VERTEX
  5
EFB
  8
_CURVE
 10
-3.5635227323999992
 20
-11.846200188799999
 30
0.0
  0
VERTEX
  5
EFC
  8
_CURVE
 10
-3.395763695699999
 20
-11.8998926486
 30
0.0
  0
VERTEX
  5
EFD
  8
_CURVE
 10
-3.2639155326999991
 20
-11.938488148099999
 30
0.0
  0
VERTEX
  5
EFE
  8
_CURVE
 10
-3.131045165499998
 20
-11.9734505599
 30
0.0
  0
VERTEX
  5
EFF
  8
_CURVE
 10
-2.9972705878999988
 20
-12.004747124
 30
0.0
  0
VERTEX
  5
F00
  8
_CURVE
 10
-2.862701241499999
 20
-12.0323491556
 30
0.0
  0
VERTEX
  5
F01
  8
_CURVE
 10
-2.7274275246999991
 20
-12.0562400541
 30
0.0
  0
VERTEX
  5
F02
  8
_CURVE
 10
-2.5915440399999992
 20
-12.076404271099999
 30
0.0
  0
VERTEX
  5
F03
  8
_CURVE
 10
-2.4551457306999991
 20
-12.0928262026
 30
0.0
  0
VERTEX
  5
F04
  8
_CURVE
 10
-2.318323526199999
 20
-12.105492376500001
 30
0.0
  0
VERTEX
  5
F05
  8
_CURVE
 10
-2.1811898798999989
 20
-12.114394835000001
 30
0.0
  0
VERTEX
  5
F06
  8
_CURVE
 10
-2.0438669149999988
 20
-12.119527034700001
 30
0.0
  0
VERTEX
  5
F07
  8
_CURVE
 10
-1.925951820299999
 20
-12.1209204911
 30
0.0
  0
SEQEND
  5
F08
  8
_CURVE
  0
LINE
  5
F8
  8
_CURVE
 10
-8.7847376308999987
 20
-9.9751411285000007
 30
0.0
 11
-8.7847376308999987
 21
3.397141128399999
 31
0.0
  0
POLYLINE
  5
106
  8
_CURVE
 66
     1
 10
0.0
 20
0.0
 30
0.0
  0
VERTEX
  5
F09
  8
_CURVE
 10
-8.7847376308999987
 20
3.397141128399999
 30
0.0
  0
VERTEX
  5
F0A
  8
_CURVE
 10
-8.7843793175999991
 20
3.4114916030999991
 30
0.0
  0
VERTEX
  5
F0B
  8
_CURVE
 10
-8.7832119990999988
 20
3.4258686985999982
 30
0.0
  0
VERTEX
  5
F0C
  8
_CURVE
 10
-8.7812262658999991
 20
3.4402257400999998
 30
0.0
  0
VERTEX
  5
F0D
  8
_CURVE
 10
-8.7784143559999972
 20
3.4545221227999998
 30
0.0
  0
VERTEX
  5
F0E
  8
_CURVE
 10
-8.7747728259999995
 20
3.4687013431999989
 30
0.0
  0
VERTEX
  5
F0F
  8
_CURVE
 10
-8.7703062069999991
 20
3.4826920855000001
 30
0.0
  0
VERTEX
  5
F10
  8
_CURVE
 10
-8.7650183183999992
 20
3.4964482777999999
 30
0.0
  0
VERTEX
  5
F11
  8
_CURVE
 10
-8.7589187249999991
 20
3.5099165036999991
 30
0.0
  0
VERTEX
  5
F12
  8
_CURVE
 10
-8.7520332155999991
 20
3.5230172005
 30
0.0
  0
VERTEX
  5
F13
  8
_CURVE
 10
-8.7443819964999996
 20
3.5357018724999998
 30
0.0
  0
VERTEX
  5
F14
  8
_CURVE
 10
-8.735986604899999
 20
3.5479264304
 30
0.0
  0
VERTEX
  5
F15
  8
_CURVE
 10
-8.7268876699999982
 20
3.5596241013999981
 30
0.0
  0
VERTEX
  5
F16
  8
_CURVE
 10
-8.7171186202999991
 20
3.570751666899997
 30
0.0
  0
VERTEX
  5
F17
  8
_CURVE
 10
-8.7067110982999996
 20
3.581273486499998
 30
0.0
  0
VERTEX
  5
F18
  8
_CURVE
 10
-8.6957121865999998
 20
3.5911413893999979
 30
0.0
  0
VERTEX
  5
F19
  8
_CURVE
 10
-8.6841579198999987
 20
3.6003253093999978
 30
0.0
  0
VERTEX
  5
F1A
  8
_CURVE
 10
-8.6720929697999996
 20
3.6087925787999988
 30
0.0
  0
VERTEX
  5
F1B
  8
_CURVE
 10
-8.6595847595999995
 20
3.6165007697999978
 30
0.0
  0
VERTEX
  5
F1C
  8
_CURVE
 10
-8.646678958399999
 20
3.6234295952999989
 30
0.0
  0
VERTEX
  5
F1D
  8
_CURVE
 10
-8.6334241762000001
 20
3.6295612874999992
 30
0.0
  0
VERTEX
  5
F1E
  8
_CURVE
 10
-8.6198985378999993
 20
3.6348706945999978
 30
0.0
  0
VERTEX
  5
F1F
  8
_CURVE
 10
-8.6061566471999988
 20
3.6393497713999992
 30
0.0
  0
VERTEX
  5
F20
  8
_CURVE
 10
-8.5922440086999998
 20
3.6429973516999978
 30
0.0
  0
VERTEX
  5
F21
  8
_CURVE
 10
-8.5782275617000003
 20
3.6458111488999978
 30
0.0
  0
VERTEX
  5
F22
  8
_CURVE
 10
-8.5641620695
 20
3.6477963626000012
 30
0.0
  0
VERTEX
  5
F23
  8
_CURVE
 10
-8.5500891056999997
 20
3.648962275999998
 30
0.0
  0
VERTEX
  5
F24
  8
_CURVE
 10
-8.5360546975999991
 20
3.6493198352
 30
0.0
  0
SEQEND
  5
F25
  8
_CURVE
  0
POLYLINE
  5
14E
  8
_CURVE
 66
     1
 10
0.0
 20
0.0
 30
0.0
  0
VERTEX
  5
F26
  8
_CURVE
 10
10.0754541601
 20
-11.760378685299999
 30
0.0
  0
VERTEX
  5
F27
  8
_CURVE
 10
10.089165336900001
 20
-11.7600019178
 30
0.0
  0
VERTEX
  5
F28
  8
_CURVE
 10
10.1072312331
 20
-11.7583531818
 30
0.0
  0
VERTEX
  5
F29
  8
_CURVE
 10
10.125121287900001
 20
-11.755398698800001
 30
0.0
  0
VERTEX
  5
F2A
  8
_CURVE
 10
10.142741985000001
 20
-11.751156417800001
 30
0.0
  0
VERTEX
  5
F2B
  8
_CURVE
 10
10.160008475
 20
-11.745649635199999
 30
0.0
  0
VERTEX
  5
F2C
  8
_CURVE
 10
10.176831655200001
 20
-11.7389036182
 30
0.0
  0
VERTEX
  5
F2D
  8
_CURVE
 10
10.193124209300001
 20
-11.730955464699999
 30
0.0
  0
VERTEX
  5
F2E
  8
_CURVE
 10
10.2088035902
 20
-11.7218460023
 30
0.0
  0
VERTEX
  5
F2F
  8
_CURVE
 10
10.2237848563
 20
-11.711618016899999
 30
0.0
  0
VERTEX
  5
F30
  8
_CURVE
 10
10.237988140400001
 20
-11.700326778899999
 30
0.0
  0
VERTEX
  5
F31
  8
_CURVE
 10
10.251339033400001
 20
-11.6880327148
 30
0.0
  0
VERTEX
  5
F32
  8
_CURVE
 10
10.263764113300001
 20
-11.674797079199999
 30
0.0
  0
VERTEX
  5
F33
  8
_CURVE
 10
10.2751982034
 20
-11.660690470700001
 30
0.0
  0
VERTEX
  5
F34
  8
_CURVE
 10
10.2855807628
 20
-11.645789067700001
 30
0.0
  0
VERTEX
  5
F35
  8
_CURVE
 10
10.2948524817
 20
-11.6301703053
 30
0.0
  0
VERTEX
  5
F36
  8
_CURVE
 10
10.3029663679
 20
-11.613916758
 30
0.0
  0
VERTEX
  5
F37
  8
_CURVE
 10
10.3098818539
 20
-11.597113635199999
 30
0.0
  0
VERTEX
  5
F38
  8
_CURVE
 10
10.3155579633
 20
-11.579848891499999
 30
0.0
  0
VERTEX
  5
F39
  8
_CURVE
 10
10.319965250599999
 20
-11.5622120181
 30
0.0
  0
VERTEX
  5
F3A
  8
_CURVE
 10
10.323081397799999
 20
-11.5442906828
 30
0.0
  0
VERTEX
  5
F3B
  8
_CURVE
 10
10.3248844866
 20
-11.526175587599999
 30
0.0
  0
VERTEX
  5
F3C
  8
_CURVE
 10
10.325378042600001
 20
-11.5104541599
 30
0.0
  0
SEQEND
  5
F3D
  8
_CURVE
  0
POLYLINE
  5
167
  8
_CURVE
 66
     1
 10
0.0
 20
0.0
 30
0.0
  0
VERTEX
  5
F3E
  8
_CURVE
 10
1.925951820299999
 20
-12.1209204911
 30
0.0
  0
VERTEX
  5
F3F
  8
_CURVE
 10
2.0438669151000002
 20
-12.119527034700001
 30
0.0
  0
VERTEX
  5
F40
  8
_CURVE
 10
2.1811898798999989
 20
-12.114394835000001
 30
0.0
  0
VERTEX
  5
F41
  8
_CURVE
 10
2.3183235262999999
 20
-12.105492376500001
 30
0.0
  0
VERTEX
  5
F42
  8
_CURVE
 10
2.4551457306999991
 20
-12.0928262026
 30
0.0
  0
VERTEX
  5
F43
  8
_CURVE
 10
2.59154404
 20
-12.076404271099999
 30
0.0
  0
VERTEX
  5
F44
  8
_CURVE
 10
2.7274275246999991
 20
-12.0562400541
 30
0.0
  0
VERTEX
  5
F45
  8
_CURVE
 10
2.862701241499999
 20
-12.0323491556
 30
0.0
  0
VERTEX
  5
F46
  8
_CURVE
 10
2.997270588000001
 20
-12.004747124
 30
0.0
  0
VERTEX
  5
F47
  8
_CURVE
 10
3.1310451656000011
 20
-11.9734505599
 30
0.0
  0
VERTEX
  5
F48
  8
_CURVE
 10
3.2639155327
 20
-11.938488148099999
 30
0.0
  0
VERTEX
  5
F49
  8
_CURVE
 10
3.3957636957000008
 20
-11.8998926486
 30
0.0
  0
SEQEND
  5
F4A
  8
_CURVE
  0
LINE
  5
175
  8
_CURVE
 10
-1.925951820299999
 20
-12.120920674500001
 30
0.0
 11
1.925951820299999
 21
-12.120920674500001
 31
0.0
  0
LINE
  5
176
  8
_CURVE
 10
-10.07545416
 20
-11.7603810593
 30
0.0
 11
-4.1429414235999991
 21
-11.7603810593
 31
0.0
  0
LINE
  5
177
  8
_CURVE
 10
4.1429414235999991
 20
-11.7603810593
 30
0.0
 11
10.0754541601
 21
-11.7603810593
 31
0.0
  0
POLYLINE
  5
178
  8
_CURVE
 66
     1
 10
0.0
 20
0.0
 30
0.0
  0
VERTEX
  5
F4B
  8
_CURVE
 10
-4.1429414235999991
 20
-11.760381263499999
 30
0.0
  0
VERTEX
  5
F4C
  8
_CURVE
 10
-4.0847179133999987
 20
-11.7612306698
 30
0.0
  0
VERTEX
  5
F4D
  8
_CURVE
 10
-4.0091413747999987
 20
-11.764865429
 30
0.0
  0
VERTEX
  5
F4E
  8
_CURVE
 10
-3.9337555202999992
 20
-11.7713555786
 30
0.0
  0
VERTEX
  5
F4F
  8
_CURVE
 10
-3.8586827700999988
 20
-11.7806935266
 30
0.0
  0
VERTEX
  5
F50
  8
_CURVE
 10
-3.784024942899999
 20
-11.7928647713
 30
0.0
  0
VERTEX
  5
F51
  8
_CURVE
 10
-3.709875928899999
 20
-11.8078538835
 30
0.0
  0
VERTEX
  5
F52
  8
_CURVE
 10
-3.6363360047999991
 20
-11.825642757600001
 30
0.0
  0
VERTEX
  5
F53
  8
_CURVE
 10
-3.5635227323999992
 20
-11.846200188799999
 30
0.0
  0
SEQEND
  5
F54
  8
_CURVE
  0
POLYLINE
  5
1F2
  8
_CURVE
 66
     1
 10
0.0
 20
0.0
 30
0.0
  0
VERTEX
  5
F55
  8
_CURVE
 10
8.5360546976000027
 20
-10.227319835199999
 30
0.0
  0
VERTEX
  5
F56
  8
_CURVE
 10
8.5500780133000003
 20
-10.2269628775
 30
0.0
  0
VERTEX
  5
F57
  8
_CURVE
 10
8.5641404452999996
 20
-10.2257987809
 30
0.0
  0
VERTEX
  5
F58
  8
_CURVE
 10
8.5781960631
 20
-10.2238165234
 30
0.0
  0
VERTEX
  5
F59
  8
_CURVE
 10
8.5922031382000004
 20
-10.2210067991
 30
0.0
  0
VERTEX
  5
F5A
  8
_CURVE
 10
8.6061072401000001
 20
-10.2173642845
 30
0.0
  0
VERTEX
  5
F5B
  8
_CURVE
 10
8.6198422113000017
 20
-10.2128909002
 30
0.0
  0
VERTEX
  5
F5C
  8
_CURVE
 10
8.6333628017000006
 20
-10.207587488
 30
0.0
  0
VERTEX
  5
F5D
  8
_CURVE
 10
8.6466141495999995
 20
-10.201461936099999
 30
0.0
  0
VERTEX
  5
F5E
  8
_CURVE
 10
8.6595180720999991
 20
-10.194539156099999
 30
0.0
  0
VERTEX
  5
F5F
  8
_CURVE
 10
8.6720260141999983
 20
-10.186836620499999
 30
0.0
  0
VERTEX
  5
F60
  8
_CURVE
 10
8.6840920958000023
 20
-10.1783744733
 30
0.0
  0
VERTEX
  5
F61
  8
_CURVE
 10
8.6956484418000013
 20
-10.169195205999999
 30
0.0
  0
VERTEX
  5
F62
  8
_CURVE
 10
8.7066502058999991
 20
-10.159331444299999
 30
0.0
  0
VERTEX
  5
F63
  8
_CURVE
 10
8.7170613606000007
 20
-10.148813066100001
 30
0.0
  0
VERTEX
  5
F64
  8
_CURVE
 10
8.7268346718999972
 20
-10.137688171900001
 30
0.0
  0
VERTEX
  5
F65
  8
_CURVE
 10
8.7359383033000011
 20
-10.1259924327
 30
0.0
  0
VERTEX
  5
F66
  8
_CURVE
 10
8.7443388037999998
 20
-10.113768887199999
 30
0.0
  0
VERTEX
  5
F67
  8
_CURVE
 10
8.7519955890999999
 20
-10.1010839139
 30
0.0
  0
VERTEX
  5
F68
  8
_CURVE
 10
8.7588869666000004
 20
-10.0879814577
 30
0.0
  0
VERTEX
  5
F69
  8
_CURVE
 10
8.7649924895000009
 20
-10.0745100252
 30
0.0
  0
VERTEX
  5
F6A
  8
_CURVE
 10
8.7702862003999993
 20
-10.0607490062
 30
0.0
  0
VERTEX
  5
F6B
  8
_CURVE
 10
8.7747583732999992
 20
-10.046751562100001
 30
0.0
  0
VERTEX
  5
F6C
  8
_CURVE
 10
8.7784048664999972
 20
-10.0325640093
 30
0.0
  0
VERTEX
  5
F6D
  8
_CURVE
 10
8.7812208196999961
 20
-10.018258295500001
 30
0.0
  0
VERTEX
  5
F6E
  8
_CURVE
 10
8.7832095335999991
 20
-10.0038912011
 30
0.0
  0
VERTEX
  5
F6F
  8
_CURVE
 10
8.7843787025999998
 20
-9.9895032213999997
 30
0.0
  0
VERTEX
  5
F70
  8
_CURVE
 10
8.7847376309000023
 20
-9.9751411285000007
 30
0.0
  0
SEQEND
  5
F71
  8
_CURVE
  0
LINE
  5
222
  8
_CURVE
 10
-8.5360546975999991
 20
-10.227319835199999
 30
0.0
 11
8.5360546976000027
 21
-10.227319835199999
 31
0.0
  0
LINE
  5
225
  8
_CURVE
 10
8.5243921840000016
 20
-10.217515799099999
 30
0.0
 11
8.5189934761000021
 21
-10.217482348200001
 31
0.0
  0
POLYLINE
  5
226
  8
_CURVE
 66
     1
 10
0.0
 20
0.0
 30
0.0
  0
VERTEX
  5
F72
  8
_CURVE
 10
8.5330167694999997
 20
-10.217629438099999
 30
0.0
  0
VERTEX
  5
F73
  8
_CURVE
 10
8.5300717044999992
 20
-10.2175830968
 30
0.0
  0
VERTEX
  5
F74
  8
_CURVE
 10
8.5243921840000016
 20
-10.217515799099999
 30
0.0
  0
SEQEND
  5
F75
  8
_CURVE
  0
POLYLINE
  5
237
  8
_CURVE
 66
     1
 10
0.0
 20
0.0
 30
0.0
  0
VERTEX
  5
F76
  8
_CURVE
 10
-8.5360546975999991
 20
-10.227319835199999
 30
0.0
  0
VERTEX
  5
F77
  8
_CURVE
 10
-8.5500780132000003
 20
-10.2269628775
 30
0.0
  0
VERTEX
  5
F78
  8
_CURVE
 10
-8.5641404452999996
 20
-10.2257987809
 30
0.0
  0
VERTEX
  5
F79
  8
_CURVE
 10
-8.578196063
 20
-10.2238165234
 30
0.0
  0
VERTEX
  5
F7A
  8
_CURVE
 10
-8.5922031381000004
 20
-10.2210067991
 30
0.0
  0
VERTEX
  5
F7B
  8
_CURVE
 10
-8.60610724
 20
-10.2173642845
 30
0.0
  0
VERTEX
  5
F7C
  8
_CURVE
 10
-8.6198422112999982
 20
-10.2128909002
 30
0.0
  0
VERTEX
  5
F7D
  8
_CURVE
 10
-8.6333628016999988
 20
-10.207587488
 30
0.0
  0
VERTEX
  5
F7E
  8
_CURVE
 10
-8.6466141494999995
 20
-10.201461936099999
 30
0.0
  0
VERTEX
  5
F7F
  8
_CURVE
 10
-8.6595180719999991
 20
-10.194539156099999
 30
0.0
  0
VERTEX
  5
F80
  8
_CURVE
 10
-8.6720260141000001
 20
-10.186836620499999
 30
0.0
  0
VERTEX
  5
F81
  8
_CURVE
 10
-8.6840920957999987
 20
-10.1783744733
 30
0.0
  0
VERTEX
  5
F82
  8
_CURVE
 10
-8.6956484417999995
 20
-10.169195205999999
 30
0.0
  0
VERTEX
  5
F83
  8
_CURVE
 10
-8.7066502058999991
 20
-10.159331444299999
 30
0.0
  0
VERTEX
  5
F84
  8
_CURVE
 10
-8.7170613605999971
 20
-10.148813066100001
 30
0.0
  0
VERTEX
  5
F85
  8
_CURVE
 10
-8.7268346717999972
 20
-10.137688171900001
 30
0.0
  0
VERTEX
  5
F86
  8
_CURVE
 10
-8.7359383032999993
 20
-10.1259924327
 30
0.0
  0
VERTEX
  5
F87
  8
_CURVE
 10
-8.7443388036999998
 20
-10.113768887199999
 30
0.0
  0
VERTEX
  5
F88
  8
_CURVE
 10
-8.7519955889999999
 20
-10.1010839139
 30
0.0
  0
VERTEX
  5
F89
  8
_CURVE
 10
-8.7588869665999987
 20
-10.0879814577
 30
0.0
  0
VERTEX
  5
F8A
  8
_CURVE
 10
-8.7649924893999991
 20
-10.0745100252
 30
0.0
  0
VERTEX
  5
F8B
  8
_CURVE
 10
-8.7702862003999993
 20
-10.0607490062
 30
0.0
  0
VERTEX
  5
F8C
  8
_CURVE
 10
-8.7747583732999992
 20
-10.046751562100001
 30
0.0
  0
VERTEX
  5
F8D
  8
_CURVE
 10
-8.7784048663999972
 20
-10.0325640093
 30
0.0
  0
VERTEX
  5
F8E
  8
_CURVE
 10
-8.7812208196999997
 20
-10.018258295500001
 30
0.0
  0
VERTEX
  5
F8F
  8
_CURVE
 10
-8.7832095335999991
 20
-10.0038912011
 30
0.0
  0
VERTEX
  5
F90
  8
_CURVE
 10
-8.7843787025999998
 20
-9.9895032213999997
 30
0.0
  0
VERTEX
  5
F91
  8
_CURVE
 10
-8.7847376308999987
 20
-9.9751411285000007
 30
0.0
  0
SEQEND
  5
F92
  8
_CURVE
  0
LINE
  5
506
  8
_CURVE
 10
8.5360546976000027
 20
3.6493198352
 30
0.0
 11
-8.5360546975999991
 21
3.6493198352
 31
0.0
  0
LINE
  5
58C
  8
_CURVE
 10
8.7847376309000023
 20
-9.9751411285000007
 30
0.0
 11
8.7847376309000023
 21
3.397141128399999
 31
0.0
  0
POLYLINE
  5
5A8
  8
_CURVE
 66
     1
 10
0.0
 20
0.0
 30
0.0
  0
VERTEX
  5
F93
  8
_CURVE
 10
-10.0754541598
 20
5.182378042499999
 30
0.0
  0
VERTEX
  5
F94
  8
_CURVE
 10
-10.0911755876
 20
5.1818844864999969
 30
0.0
  0
VERTEX
  5
F95
  8
_CURVE
 10
-10.109290682799999
 20
5.1800813978000004
 30
0.0
  0
VERTEX
  5
F96
  8
_CURVE
 10
-10.1272120181
 20
5.1769652504999977
 30
0.0
  0
VERTEX
  5
F97
  8
_CURVE
 10
-10.144848891400001
 20
5.1725579632999992
 30
0.0
  0
VERTEX
  5
F98
  8
_CURVE
 10
-10.162113635200001
 20
5.166881853799997
 30
0.0
  0
VERTEX
  5
F99
  8
_CURVE
 10
-10.178916758
 20
5.1599663678999992
 30
0.0
  0
VERTEX
  5
F9A
  8
_CURVE
 10
-10.1951703052
 20
5.1518524815999998
 30
0.0
  0
VERTEX
  5
F9B
  8
_CURVE
 10
-10.2107890676
 20
5.1425807627999989
 30
0.0
  0
VERTEX
  5
F9C
  8
_CURVE
 10
-10.2256904706
 20
5.1321982032999971
 30
0.0
  0
VERTEX
  5
F9D
  8
_CURVE
 10
-10.239797079200001
 20
5.1207641131999981
 30
0.0
  0
VERTEX
  5
F9E
  8
_CURVE
 10
-10.2530327147
 20
5.1083390333000001
 30
0.0
  0
VERTEX
  5
F9F
  8
_CURVE
 10
-10.2653267788
 20
5.0949881403000008
 30
0.0
  0
VERTEX
  5
FA0
  8
_CURVE
 10
-10.276618016800001
 20
5.0807848561999993
 30
0.0
  0
VERTEX
  5
FA1
  8
_CURVE
 10
-10.286846002300001
 20
5.0658035901000007
 30
0.0
  0
VERTEX
  5
FA2
  8
_CURVE
 10
-10.2959554647
 20
5.050124209199998
 30
0.0
  0
VERTEX
  5
FA3
  8
_CURVE
 10
-10.3039036181
 20
5.0338316551000002
 30
0.0
  0
VERTEX
  5
FA4
  8
_CURVE
 10
-10.310649635200001
 20
5.017008474999999
 30
0.0
  0
VERTEX
  5
FA5
  8
_CURVE
 10
-10.3161564177
 20
4.9997419850000009
 30
0.0
  0
VERTEX
  5
FA6
  8
_CURVE
 10
-10.3203986988
 20
4.9821212878999983
 30
0.0
  0
VERTEX
  5
FA7
  8
_CURVE
 10
-10.3233531817
 20
4.9642312330000014
 30
0.0
  0
VERTEX
  5
FA8
  8
_CURVE
 10
-10.3250019178
 20
4.9461653367999983
 30
0.0
  0
VERTEX
  5
FA9
  8
_CURVE
 10
-10.3253786853
 20
4.9324541599999998
 30
0.0
  0
SEQEND
  5
FAA
  8
_CURVE
  0
LINE
  5
5C1
  8
_CURVE
 10
10.07545416
 20
5.182381059199999
 30
0.0
 11
-10.0754541599
 21
5.182381059199999
 31
0.0
  0
POLYLINE
  5
5D1
  8
_CURVE
 66
     1
 10
0.0
 20
0.0
 30
0.0
  0
VERTEX
  5
FAB
  8
_CURVE
 10
8.7847376309000023
 20
3.397141128399999
 30
0.0
  0
VERTEX
  5
FAC
  8
_CURVE
 10
8.7843793177000027
 20
3.4114916030999991
 30
0.0
  0
VERTEX
  5
FAD
  8
_CURVE
 10
8.7832119990999988
 20
3.4258686985999982
 30
0.0
  0
VERTEX
  5
FAE
  8
_CURVE
 10
8.7812262659000009
 20
3.4402257400999998
 30
0.0
  0
VERTEX
  5
FAF
  8
_CURVE
 10
8.7784143560000008
 20
3.4545221227999998
 30
0.0
  0
VERTEX
  5
FB0
  8
_CURVE
 10
8.7747728260999995
 20
3.4687013431999989
 30
0.0
  0
VERTEX
  5
FB1
  8
_CURVE
 10
8.7703062069999991
 20
3.4826920855000001
 30
0.0
  0
VERTEX
  5
FB2
  8
_CURVE
 10
8.7650183184999992
 20
3.4964482777999999
 30
0.0
  0
VERTEX
  5
FB3
  8
_CURVE
 10
8.7589187250000027
 20
3.5099165036999991
 30
0.0
  0
VERTEX
  5
FB4
  8
_CURVE
 10
8.7520332155999991
 20
3.5230172005
 30
0.0
  0
VERTEX
  5
FB5
  8
_CURVE
 10
8.7443819965999996
 20
3.5357018724999998
 30
0.0
  0
VERTEX
  5
FB6
  8
_CURVE
 10
8.7359866049000008
 20
3.5479264304
 30
0.0
  0
VERTEX
  5
FB7
  8
_CURVE
 10
8.7268876700000018
 20
3.5596241013999981
 30
0.0
  0
VERTEX
  5
FB8
  8
_CURVE
 10
8.7171186203000008
 20
3.570751666899997
 30
0.0
  0
VERTEX
  5
FB9
  8
_CURVE
 10
8.7067110982999996
 20
3.581273486499998
 30
0.0
  0
VERTEX
  5
FBA
  8
_CURVE
 10
8.6957121865999998
 20
3.5911413893999979
 30
0.0
  0
VERTEX
  5
FBB
  8
_CURVE
 10
8.6841579199000005
 20
3.6003253093999978
 30
0.0
  0
VERTEX
  5
FBC
  8
_CURVE
 10
8.6720929698000031
 20
3.6087925787999988
 30
0.0
  0
VERTEX
  5
FBD
  8
_CURVE
 10
8.6595847595999995
 20
3.6165007697999978
 30
0.0
  0
VERTEX
  5
FBE
  8
_CURVE
 10
8.6466789584000008
 20
3.6234295952999989
 30
0.0
  0
VERTEX
  5
FBF
  8
_CURVE
 10
8.6334241763000001
 20
3.6295612874999992
 30
0.0
  0
VERTEX
  5
FC0
  8
_CURVE
 10
8.619898537900001
 20
3.6348706945999978
 30
0.0
  0
VERTEX
  5
FC1
  8
_CURVE
 10
8.6061566473000024
 20
3.6393497713999992
 30
0.0
  0
VERTEX
  5
FC2
  8
_CURVE
 10
8.5922440087000016
 20
3.6429973516999978
 30
0.0
  0
VERTEX
  5
FC3
  8
_CURVE
 10
8.5782275616999986
 20
3.6458111488999978
 30
0.0
  0
VERTEX
  5
FC4
  8
_CURVE
 10
8.5641620694999983
 20
3.6477963626000012
 30
0.0
  0
VERTEX
  5
FC5
  8
_CURVE
 10
8.5500891057999997
 20
3.648962275999998
 30
0.0
  0
VERTEX
  5
FC6
  8
_CURVE
 10
8.5360546976000027
 20
3.6493198352
 30
0.0
  0
SEQEND
  5
FC7
  8
_CURVE
  0
POLYLINE
  5
60B
  8
_CURVE
 66
     1
 10
0.0
 20
0.0
 30
0.0
  0
VERTEX
  5
FC8
  8
_CURVE
 10
8.7833773691000001
 20
-9.9708021592000016
 30
0.0
  0
VERTEX
  5
FC9
  8
_CURVE
 10
8.7828916775000021
 20
-9.9855754577000013
 30
0.0
  0
VERTEX
  5
FCA
  8
_CURVE
 10
8.7815227838000016
 20
-10.0002859028
 30
0.0
  0
VERTEX
  5
FCB
  8
_CURVE
 10
8.7792747930000008
 20
-10.0148816793
 30
0.0
  0
VERTEX
  5
FCC
  8
_CURVE
 10
8.7761552182999996
 20
-10.0293100514
 30
0.0
  0
VERTEX
  5
FCD
  8
_CURVE
 10
8.7721741533999982
 20
-10.043521181599999
 30
0.0
  0
VERTEX
  5
FCE
  8
_CURVE
 10
8.7673435096999999
 20
-10.057468112700001
 30
0.0
  0
VERTEX
  5
FCF
  8
_CURVE
 10
8.7616780517000006
 20
-10.0711024132
 30
0.0
  0
VERTEX
  5
FD0
  8
_CURVE
 10
8.7551971192999982
 20
-10.0843736252
 30
0.0
  0
VERTEX
  5
FD1
  8
_CURVE
 10
8.7479236089000008
 20
-10.097233109399999
 30
0.0
  0
VERTEX
  5
FD2
  8
_CURVE
 10
8.7398827346999983
 20
-10.1096342396
 30
0.0
  0
VERTEX
  5
FD3
  8
_CURVE
 10
8.7311015911000016
 20
-10.1215324015
 30
0.0
  0
VERTEX
  5
FD4
  8
_CURVE
 10
8.7216103468999986
 20
-10.132884343800001
 30
0.0
  0
SEQEND
  5
FD5
  8
_CURVE
  0
POLYLINE
  5
644
  8
_CURVE
 66
     1
 10
0.0
 20
0.0
 30
0.0
  0
VERTEX
  5
FD6
  8
_CURVE
 10
3.3957636957000008
 20
-11.8998926486
 30
0.0
  0
VERTEX
  5
FD7
  8
_CURVE
 10
3.5635227324000001
 20
-11.846200188799999
 30
0.0
  0
VERTEX
  5
FD8
  8
_CURVE
 10
3.6363360048000022
 20
-11.825642757600001
 30
0.0
  0
VERTEX
  5
FD9
  8
_CURVE
 10
3.7098759289999999
 20
-11.8078538835
 30
0.0
  0
VERTEX
  5
FDA
  8
_CURVE
 10
3.7840249428999999
 20
-11.7928647713
 30
0.0
  0
VERTEX
  5
FDB
  8
_CURVE
 10
3.8586827702000011
 20
-11.7806935266
 30
0.0
  0
VERTEX
  5
FDC
  8
_CURVE
 10
3.933755520300001
 20
-11.7713555786
 30
0.0
  0
VERTEX
  5
FDD
  8
_CURVE
 10
4.0091413749000022
 20
-11.764865429
 30
0.0
  0
VERTEX
  5
FDE
  8
_CURVE
 10
4.0847179134999996
 20
-11.7612306698
 30
0.0
  0
VERTEX
  5
FDF
  8
_CURVE
 10
4.1429414235999991
 20
-11.760381263499999
 30
0.0
  0
SEQEND
  5
FE0
  8
_CURVE
  0
POLYLINE
  5
67D
  8
_CURVE
 66
     1
 10
0.0
 20
0.0
 30
0.0
  0
VERTEX
  5
FE1
  8
_CURVE
 10
10.3253786853
 20
4.9324541599999998
 30
0.0
  0
VERTEX
  5
FE2
  8
_CURVE
 10
10.3250019178
 20
4.9461653367999983
 30
0.0
  0
VERTEX
  5
FE3
  8
_CURVE
 10
10.3233531818
 20
4.9642312330000014
 30
0.0
  0
VERTEX
  5
FE4
  8
_CURVE
 10
10.3203986988
 20
4.9821212878999983
 30
0.0
  0
VERTEX
  5
FE5
  8
_CURVE
 10
10.3161564177
 20
4.9997419850000009
 30
0.0
  0
VERTEX
  5
FE6
  8
_CURVE
 10
10.310649635200001
 20
5.017008474999999
 30
0.0
  0
VERTEX
  5
FE7
  8
_CURVE
 10
10.3039036182
 20
5.0338316551000002
 30
0.0
  0
VERTEX
  5
FE8
  8
_CURVE
 10
10.2959554647
 20
5.050124209199998
 30
0.0
  0
VERTEX
  5
FE9
  8
_CURVE
 10
10.286846002300001
 20
5.0658035901000007
 30
0.0
  0
VERTEX
  5
FEA
  8
_CURVE
 10
10.276618016800001
 20
5.0807848561999993
 30
0.0
  0
VERTEX
  5
FEB
  8
_CURVE
 10
10.2653267789
 20
5.0949881403000008
 30
0.0
  0
VERTEX
  5
FEC
  8
_CURVE
 10
10.2530327147
 20
5.1083390333000001
 30
0.0
  0
VERTEX
  5
FED
  8
_CURVE
 10
10.239797079200001
 20
5.1207641131999981
 30
0.0
  0
VERTEX
  5
FEE
  8
_CURVE
 10
10.2256904707
 20
5.1321982032999971
 30
0.0
  0
VERTEX
  5
FEF
  8
_CURVE
 10
10.2107890677
 20
5.1425807627999989
 30
0.0
  0
VERTEX
  5
FF0
  8
_CURVE
 10
10.1951703052
 20
5.1518524815999998
 30
0.0
  0
VERTEX
  5
FF1
  8
_CURVE
 10
10.178916758
 20
5.1599663678999992
 30
0.0
  0
VERTEX
  5
FF2
  8
_CURVE
 10
10.162113635200001
 20
5.166881853799997
 30
0.0
  0
VERTEX
  5
FF3
  8
_CURVE
 10
10.144848891500001
 20
5.1725579632999992
 30
0.0
  0
VERTEX
  5
FF4
  8
_CURVE
 10
10.1272120181
 20
5.1769652504999977
 30
0.0
  0
VERTEX
  5
FF5
  8
_CURVE
 10
10.109290682799999
 20
5.1800813978000004
 30
0.0
  0
VERTEX
  5
FF6
  8
_CURVE
 10
10.0911755876
 20
5.1818844864999969
 30
0.0
  0
VERTEX
  5
FF7
  8
_CURVE
 10
10.0754541599
 20
5.182378042499999
 30
0.0
  0
SEQEND
  5
FF8
  8
_CURVE
  0
LINE
  5
696
  8
_CURVE
 10
10.3253810592
 20
-11.51045416
 30
0.0
 11
10.3253810592
 21
4.9324541599999998
 31
0.0
  0
POLYLINE
  5
6B8
  8
_CURVE
 66
     1
 10
0.0
 20
0.0
 30
0.0
  0
VERTEX
  5
FF9
  8
_CURVE
 10
8.7216103468999986
 20
-10.132884343800001
 30
0.0
  0
VERTEX
  5
FFA
  8
_CURVE
 10
8.7120437039999992
 20
-10.143066189400001
 30
0.0
  0
VERTEX
  5
FFB
  8
_CURVE
 10
8.7018707919999994
 20
-10.152751594
 30
0.0
  0
VERTEX
  5
FFC
  8
_CURVE
 10
8.6911168633999996
 20
-10.1619020911
 30
0.0
  0
VERTEX
  5
FFD
  8
_CURVE
 10
8.6797931055000017
 20
-10.1704936127
 30
0.0
  0
VERTEX
  5
FFE
  8
_CURVE
 10
8.6679451087999997
 20
-10.178474694
 30
0.0
  0
VERTEX
  5
FFF
  8
_CURVE
 10
8.6556595711999993
 20
-10.185776458799999
 30
0.0
  0
VERTEX
  5
1000
  8
_CURVE
 10
8.642990898599999
 20
-10.192368591799999
 30
0.0
  0
VERTEX
  5
1001
  8
_CURVE
 10
8.6299675670999978
 20
-10.1982377875
 30
0.0
  0
VERTEX
  5
1002
  8
_CURVE
 10
8.6166465057000021
 20
-10.2033555577
 30
0.0
  0
VERTEX
  5
1003
  8
_CURVE
 10
8.6030773090000014
 20
-10.2077072265
 30
0.0
  0
VERTEX
  5
1004
  8
_CURVE
 10
8.5893001657999992
 20
-10.2112829429
 30
0.0
  0
VERTEX
  5
1005
  8
_CURVE
 10
8.5753599120999997
 20
-10.2140680919
 30
0.0
  0
VERTEX
  5
1006
  8
_CURVE
 10
8.5613020313000003
 20
-10.2160549031
 30
0.0
  0
VERTEX
  5
1007
  8
_CURVE
 10
8.5471724428000027
 20
-10.217242214800001
 30
0.0
  0
VERTEX
  5
1008
  8
_CURVE
 10
8.5330167694999997
 20
-10.217629438099999
 30
0.0
  0
SEQEND
  5
1009
  8
_CURVE
  0
CIRCLE
  5
DFE
  8
_CURVE
 10
0.0
 20
0.0
 30
0.0
 40
0.875
  0
ATTDEF
  5
E9B
  8
0
 10
-0.0040683551443319
 20
0.0019613499066136
 30
0.0
 40
0.001
  1
K-2339
  3

  2
MODELNUMBER
 70
     8
  0
ATTDEF
  5
E9C
  8
0
 10
-0.0040683551443319
 20
0.0002943499066124
 30
0.0
 40
0.001
  1
MEMOIRS
  3

  2
TRADENAME
 70
     8
  0
ATTDEF
  5
E9D
  8
0
 10
-0.0040683551443319
 20
-0.001371650093386
 30
0.0
 40
0.001
  1
UNDERCOUNTER LAVATORY
  3

  2
PRODUCT
 70
     8
  0
ATTDEF
  5
E9E
  8
0
 10
-0.0040683551443319
 20
-0.0030386500933854
 30
0.0
 40
0.001
  1
VITREOUS CHINA
  3

  2
MATERIAL
 70
     8
  0
ENDSEC
  0
EOF
