  0
SECTION
  2
HEADER
  9
$ACADVER
  1
AC1009
  9
$INSBASE
 10
0.0
 20
0.0
 30
0.0
  9
$EXTMIN
 10
-8.6801252310314965
 20
-8.9031335029388146
 30
0.0
  9
$EXTMAX
 10
8.6801254446502654
 20
0.0275740554453314
 30
0.0
  9
$LIMMIN
 10
0.0
 20
0.0
  9
$LIMMAX
 10
34.0
 20
22.0
  9
$ORTHOMODE
 70
     1
  9
$REGENMODE
 70
     1
  9
$FILLMODE
 70
     1
  9
$QTEXTMODE
 70
     0
  9
$MIRRTEXT
 70
     0
  9
$DRAGMODE
 70
     2
  9
$LTSCALE
 40
1.8700000000000001
  9
$OSMODE
 70
  2711
  9
$ATTMODE
 70
     1
  9
$TEXTSIZE
 40
0.2
  9
$TRACEWID
 40
0.05
  9
$TEXTSTYLE
  7
STANDARD
  9
$CLAYER
  8
HIDDEN
  9
$CELTYPE
  6
BYLAYER
  9
$CECOLOR
 62
   256
  9
$DIMSCALE
 40
1.0
  9
$DIMASZ
 40
0.1875
  9
$DIMEXO
 40
0.2125
  9
$DIMDLI
 40
1.292
  9
$DIMRND
 40
0.0
  9
$DIMDLE
 40
0.0
  9
$DIMEXE
 40
0.612
  9
$DIMTP
 40
0.0
  9
$DIMTM
 40
0.0
  9
$DIMTXT
 40
0.15625
  9
$DIMCEN
 40
0.306
  9
$DIMTSZ
 40
0.0
  9
$DIMTOL
 70
     0
  9
$DIMLIM
 70
     0
  9
$DIMTIH
 70
     1
  9
$DIMTOH
 70
     1
  9
$DIMSE1
 70
     0
  9
$DIMSE2
 70
     0
  9
$DIMTAD
 70
     0
  9
$DIMZIN
 70
     0
  9
$DIMBLK
  1

  9
$DIMASO
 70
     1
  9
$DIMSHO
 70
     1
  9
$DIMPOST
  1

  9
$DIMAPOST
  1

  9
$DIMALT
 70
     0
  9
$DIMALTD
 70
     2
  9
$DIMALTF
 40
25.399999999999999
  9
$DIMLFAC
 40
1.0
  9
$DIMTOFL
 70
     0
  9
$DIMTVP
 40
0.0
  9
$DIMTIX
 70
     0
  9
$DIMSOXD
 70
     0
  9
$DIMSAH
 70
     0
  9
$DIMBLK1
  1

  9
$DIMBLK2
  1

  9
$DIMSTYLE
  2
STANDARD
  9
$DIMCLRD
 70
     0
  9
$DIMCLRE
 70
     0
  9
$DIMCLRT
 70
     0
  9
$DIMTFAC
 40
1.0
  9
$DIMGAP
 40
0.09
  9
$LUNITS
 70
     2
  9
$LUPREC
 70
     4
  9
$SKETCHINC
 40
0.1
  9
$FILLETRAD
 40
0.0
  9
$AUNITS
 70
     0
  9
$AUPREC
 70
     0
  9
$MENU
  1
.
  9
$ELEVATION
 40
0.0
  9
$PELEVATION
 40
0.0
  9
$THICKNESS
 40
0.0
  9
$LIMCHECK
 70
     0
  9
$BLIPMODE
 70
     0
  9
$CHAMFERA
 40
0.0
  9
$CHAMFERB
 40
0.0
  9
$SKPOLY
 70
     0
  9
$TDCREATE
 40
2454188.3838106021
  9
$TDUPDATE
 40
2454188.4135559839
  9
$TDINDWG
 40
0.0260085532
  9
$TDUSRTIMER
 40
0.0260085532
  9
$USRTIMER
 70
     1
  9
$ANGBASE
 50
0.0
  9
$ANGDIR
 70
     0
  9
$PDMODE
 70
     3
  9
$PDSIZE
 40
0.3125
  9
$PLINEWID
 40
0.0
  9
$COORDS
 70
     1
  9
$SPLFRAME
 70
     0
  9
$SPLINETYPE
 70
     6
  9
$SPLINESEGS
 70
     8
  9
$ATTDIA
 70
     0
  9
$ATTREQ
 70
     1
  9
$HANDLING
 70
     1
  9
$HANDSEED
  5
F91
  9
$SURFTAB1
 70
     6
  9
$SURFTAB2
 70
     6
  9
$SURFTYPE
 70
     6
  9
$SURFU
 70
     6
  9
$SURFV
 70
     6
  9
$UCSNAME
  2

  9
$UCSORG
 10
0.0
 20
0.0
 30
0.0
  9
$UCSXDIR
 10
1.0
 20
0.0
 30
0.0
  9
$UCSYDIR
 10
0.0
 20
1.0
 30
0.0
  9
$PUCSNAME
  2

  9
$PUCSORG
 10
0.0
 20
0.0
 30
0.0
  9
$PUCSXDIR
 10
1.0
 20
0.0
 30
0.0
  9
$PUCSYDIR
 10
0.0
 20
1.0
 30
0.0
  9
$USERI1
 70
     0
  9
$USERI2
 70
     0
  9
$USERI3
 70
     0
  9
$USERI4
 70
     0
  9
$USERI5
 70
     0
  9
$USERR1
 40
0.0
  9
$USERR2
 40
0.0
  9
$USERR3
 40
0.0
  9
$USERR4
 40
0.0
  9
$USERR5
 40
0.0
  9
$WORLDVIEW
 70
     1
  9
$SHADEDGE
 70
     3
  9
$SHADEDIF
 70
    70
  9
$TILEMODE
 70
     1
  9
$MAXACTVP
 70
    64
  9
$PLIMCHECK
 70
     0
  9
$PEXTMIN
 10
1.0000000000000000E+020
 20
1.0000000000000000E+020
 30
1.0000000000000000E+020
  9
$PEXTMAX
 10
-1.0000000000000000E+020
 20
-1.0000000000000000E+020
 30
-1.0000000000000000E+020
  9
$PLIMMIN
 10
0.0
 20
0.0
  9
$PLIMMAX
 10
12.0
 20
9.0
  9
$UNITMODE
 70
     0
  9
$VISRETAIN
 70
     1
  9
$PLINEGEN
 70
     0
  9
$PSLTSCALE
 70
     1
  0
ENDSEC
  0
SECTION
  2
TABLES
  0
TABLE
  2
VPORT
 70
     2
  0
VPORT
  2
*ACTIVE
 70
     0
 10
0.0
 20
0.0
 11
1.0
 21
1.0
 12
1.3556441582101151
 22
-7.7156540051360771
 13
0.0
 23
0.0
 14
1.0
 24
1.0
 15
0.0
 25
0.0
 16
0.0
 26
0.0
 36
1.0
 17
0.0
 27
0.0
 37
0.0
 40
27.169332786189241
 41
1.6135770234986939
 42
50.0
 43
0.0
 44
0.0
 50
0.0
 51
0.0
 71
     0
 72
   100
 73
     1
 74
     1
 75
     0
 76
     0
 77
     0
 78
     0
  0
ENDTAB
  0
TABLE
  2
LTYPE
 70
     2
  0
LTYPE
  2
CONTINUOUS
 70
     0
  3
Solid line
 72
    65
 73
     0
 40
0.0
  0
LTYPE
  2
HIDDEN
 70
     0
  3
- - - - - - - - - - - - - - - - - - - -
 72
    65
 73
     2
 40
0.2
 49
0.1
 49
-0.1
  0
ENDTAB
  0
TABLE
  2
LAYER
 70
     3
  0
LAYER
  2
0
 70
     0
 62
     7
  6
CONTINUOUS
  0
LAYER
  2
_CURVE
 70
     0
 62
     7
  6
CONTINUOUS
  0
LAYER
  2
HIDDEN
 70
     0
 62
     7
  6
HIDDEN
  0
ENDTAB
  0
TABLE
  2
STYLE
 70
     1
  0
STYLE
  2
STANDARD
 70
     0
 40
0.0
 41
0.8
 50
0.0
 71
     0
 42
0.2
  3
txt
  4

  0
ENDTAB
  0
TABLE
  2
VIEW
 70
     0
  0
ENDTAB
  0
TABLE
  2
UCS
 70
     0
  0
ENDTAB
  0
TABLE
  2
APPID
 70
     2
  0
APPID
  2
ACAD
 70
     0
  0
APPID
  2
ACAECLAYERSTANDARD
 70
     0
  0
ENDTAB
  0
TABLE
  2
DIMSTYLE
 70
     1
  0
DIMSTYLE
  2
STANDARD
 70
     0
  3

  4

  5

  6

  7

 40
1.0
 41
0.18
 42
0.0625
 43
0.38
 44
0.18
 45
0.0
 46
0.0
 47
0.0
 48
0.0
140
0.18
141
0.09
142
0.0
143
25.399999999999999
144
1.0
145
0.0
146
1.0
147
0.09
 71
     0
 72
     0
 73
     1
 74
     1
 75
     0
 76
     0
 77
     0
 78
     0
170
     0
171
     2
172
     0
173
     0
174
     0
175
     0
176
     0
177
     0
178
     0
  0
ENDTAB
  0
ENDSEC
  0
SECTION
  2
BLOCKS
  0
BLOCK
  8
0
  2
$MODEL_SPACE
 70
     0
 10
0.0
 20
0.0
 30
0.0
  3
$MODEL_SPACE
  1

  0
ENDBLK
  5
24
  8
0
  0
BLOCK
 67
     1
  8
0
  2
$PAPER_SPACE
 70
     0
 10
0.0
 20
0.0
 30
0.0
  3
$PAPER_SPACE
  1

  0
ENDBLK
  5
20
 67
     1
  8
0
  0
ENDSEC
  0
SECTION
  2
ENTITIES
  0
ATTDEF
  5
E9F
  8
0
 10
-0.0040683551443266
 20
0.0067232793561907
 30
0.0
 40
0.001
  1
K-2339
  3

  2
MODELNUMBER
 70
     8
  0
ATTDEF
  5
EA0
  8
0
 10
-0.0040683551443266
 20
0.0050562793561912
 30
0.0
 40
0.001
  1
MEMOIRS
  3

  2
TRADENAME
 70
     8
  0
ATTDEF
  5
EA1
  8
0
 10
-0.0040683551443266
 20
0.0033902793561911
 30
0.0
 40
0.001
  1
UNDERCOUNTER LAVATORY
  3

  2
PRODUCT
 70
     8
  0
ATTDEF
  5
EA2
  8
0
 10
-0.0040683551443266
 20
0.0017232793561899
 30
0.0
 40
0.001
  1
VITREOUS CHINA
  3

  2
MATERIAL
 70
     8
  0
LINE
  5
EFF
  8
_CURVE
 10
-8.6515716743499986
 20
-0.1345369346000016
 30
0.0
 11
-8.6431906896500017
 21
-0.3745369346000018
 31
0.0
  0
POLYLINE
  5
F00
  8
HIDDEN
 66
     1
 10
0.0
 20
0.0
 30
0.0
  0
VERTEX
  5
F48
  8
HIDDEN
 10
-6.7495714605500012
 20
-3.7533881590999978
 30
0.0
  0
VERTEX
  5
F49
  8
HIDDEN
 10
-6.5849550384500013
 20
-4.0027197747999992
 30
0.0
  0
VERTEX
  5
F4A
  8
HIDDEN
 10
-6.4169197029499996
 20
-4.2429194769000018
 30
0.0
  0
VERTEX
  5
F4B
  8
HIDDEN
 10
-6.24585329685
 20
-4.4749119693999999
 30
0.0
  0
VERTEX
  5
F4C
  8
HIDDEN
 10
-6.0709398669500017
 20
-4.7006186223000022
 30
0.0
  0
VERTEX
  5
F4D
  8
HIDDEN
 10
-5.9336312737067178
 20
-4.86864306587076
 30
0.0
  0
SEQEND
  5
F4E
  8
HIDDEN
  0
LINE
  5
F01
  8
HIDDEN
 10
-6.7766463773500014
 20
-3.710860504799999
 30
0.0
 11
-6.7495750646500019
 21
-3.7533904667
 31
0.0
  0
LINE
  5
F02
  8
HIDDEN
 10
-6.8033220569500008
 20
-3.6684788086999971
 30
0.0
 11
-6.7766463773500014
 21
-3.710860504799999
 31
0.0
  0
LINE
  5
F03
  8
HIDDEN
 10
-6.8296023150499989
 20
-3.6262479782999999
 30
0.0
 11
-6.8033220569500008
 21
-3.6684788086999971
 31
0.0
  0
POLYLINE
  5
F04
  8
HIDDEN
 66
     1
 10
0.0
 20
0.0
 30
0.0
  0
VERTEX
  5
F4F
  8
HIDDEN
 10
-6.8682818692500014
 20
-3.563190805000001
 30
0.0
  0
VERTEX
  5
F50
  8
HIDDEN
 10
-6.8554873766500002
 20
-3.5841708779000001
 30
0.0
  0
VERTEX
  5
F51
  8
HIDDEN
 10
-6.8296023150499989
 20
-3.6262479782999999
 30
0.0
  0
SEQEND
  5
F52
  8
HIDDEN
  0
LINE
  5
F05
  8
HIDDEN
 10
4.6951531993499991
 20
-8.629999999999999
 30
0.0
 11
2.243386931149995
 21
-8.629999999999999
 31
0.0
  0
POLYLINE
  5
F06
  8
HIDDEN
 66
     1
 10
0.0
 20
0.0
 30
0.0
  0
VERTEX
  5
F53
  8
HIDDEN
 10
1.8846088304500019
 20
-8.2355892606000012
 30
0.0
  0
VERTEX
  5
F54
  8
HIDDEN
 10
1.901891097749999
 20
-8.2378686672000008
 30
0.0
  0
VERTEX
  5
F55
  8
HIDDEN
 10
1.918972597849997
 20
-8.2413468744999996
 30
0.0
  0
VERTEX
  5
F56
  8
HIDDEN
 10
1.9357702722500001
 20
-8.2460069878999995
 30
0.0
  0
VERTEX
  5
F57
  8
HIDDEN
 10
1.952202454449999
 20
-8.2518263708999982
 30
0.0
  0
VERTEX
  5
F58
  8
HIDDEN
 10
1.968189230049997
 20
-8.258776742200002
 30
0.0
  0
VERTEX
  5
F59
  8
HIDDEN
 10
1.983652828349999
 20
-8.2668243042
 30
0.0
  0
VERTEX
  5
F5A
  8
HIDDEN
 10
1.9985180422500011
 20
-8.2759299253999998
 30
0.0
  0
VERTEX
  5
F5B
  8
HIDDEN
 10
2.0127126067499961
 20
-8.2860493481999988
 30
0.0
  0
VERTEX
  5
F5C
  8
HIDDEN
 10
2.0261675125499989
 20
-8.2971333883000007
 30
0.0
  0
VERTEX
  5
F5D
  8
HIDDEN
 10
2.0388173357500001
 20
-8.3091281669000026
 30
0.0
  0
VERTEX
  5
F5E
  8
HIDDEN
 10
2.0506005550499991
 20
-8.321975366500002
 30
0.0
  0
VERTEX
  5
F5F
  8
HIDDEN
 10
2.0614598655499949
 20
-8.3356125255999984
 30
0.0
  0
VERTEX
  5
F60
  8
HIDDEN
 10
2.0713424557499951
 20
-8.3499733419000002
 30
0.0
  0
VERTEX
  5
F61
  8
HIDDEN
 10
2.080200263749997
 20
-8.3649879949999981
 30
0.0
  0
VERTEX
  5
F62
  8
HIDDEN
 10
2.087990209149996
 20
-8.3805834829000005
 30
0.0
  0
VERTEX
  5
F63
  8
HIDDEN
 10
2.0946744033500009
 20
-8.3966839786000023
 30
0.0
  0
VERTEX
  5
F64
  8
HIDDEN
 10
2.1002203340499959
 20
-8.4132111982000026
 30
0.0
  0
VERTEX
  5
F65
  8
HIDDEN
 10
2.1046010230499981
 20
-8.4300847816999998
 30
0.0
  0
VERTEX
  5
F66
  8
HIDDEN
 10
2.1077951580499992
 20
-8.4472226834999962
 30
0.0
  0
VERTEX
  5
F67
  8
HIDDEN
 10
2.109628359649999
 20
-8.4626427478999986
 30
0.0
  0
SEQEND
  5
F68
  8
HIDDEN
  0
LINE
  5
F07
  8
HIDDEN
 10
2.1138875495499958
 20
-8.5113302465000018
 30
0.0
 11
2.1096277638499958
 21
-8.4626406738000028
 31
0.0
  0
LINE
  5
F1D
  8
HIDDEN
 10
4.8246520657499969
 20
-8.5113302465000018
 30
0.0
 11
4.9202876019499966
 21
-7.4182110663999969
 31
0.0
  0
POLYLINE
  5
F1E
  8
HIDDEN
 66
     1
 10
0.0
 20
0.0
 30
0.0
  0
VERTEX
  5
F69
  8
HIDDEN
 10
4.9202871912499999
 20
-7.4182110644999986
 30
0.0
  0
VERTEX
  5
F6A
  8
HIDDEN
 10
4.921989211649997
 20
-7.4036732548999993
 30
0.0
  0
VERTEX
  5
F6B
  8
HIDDEN
 10
4.9248587217499953
 20
-7.3877417447999987
 30
0.0
  0
VERTEX
  5
F6C
  8
HIDDEN
 10
4.9287532573499986
 20
-7.3720293669999988
 30
0.0
  0
VERTEX
  5
F6D
  8
HIDDEN
 10
4.9336564845500019
 20
-7.3566019981000004
 30
0.0
  0
VERTEX
  5
F6E
  8
HIDDEN
 10
4.9395478404500004
 20
-7.341524319300003
 30
0.0
  0
VERTEX
  5
F6F
  8
HIDDEN
 10
4.9464026193499988
 20
-7.3268595452000014
 30
0.0
  0
VERTEX
  5
F70
  8
HIDDEN
 10
4.9541920764500018
 20
-7.3126691583999976
 30
0.0
  0
VERTEX
  5
F71
  8
HIDDEN
 10
4.9628835483500033
 20
-7.299012652400001
 30
0.0
  0
VERTEX
  5
F72
  8
HIDDEN
 10
4.9724405904500024
 20
-7.2859472811999977
 30
0.0
  0
VERTEX
  5
F73
  8
HIDDEN
 10
4.9828231288499971
 20
-7.2735278207
 30
0.0
  0
VERTEX
  5
F74
  8
HIDDEN
 10
4.9939876281499984
 20
-7.2618063388999969
 30
0.0
  0
VERTEX
  5
F75
  8
HIDDEN
 10
5.0058872751499983
 20
-7.2508319763999998
 30
0.0
  0
VERTEX
  5
F76
  8
HIDDEN
 10
5.0184721759499977
 20
-7.2406507397000013
 30
0.0
  0
VERTEX
  5
F77
  8
HIDDEN
 10
5.031689564249997
 20
-7.2313053099000006
 30
0.0
  0
VERTEX
  5
F78
  8
HIDDEN
 10
5.045484017949998
 20
-7.2228348665999986
 30
0.0
  0
VERTEX
  5
F79
  8
HIDDEN
 10
5.0597977035500001
 20
-7.2152749151000002
 30
0.0
  0
VERTEX
  5
F7A
  8
HIDDEN
 10
5.0745706216500004
 20
-7.2086571405999988
 30
0.0
  0
VERTEX
  5
F7B
  8
HIDDEN
 10
5.0897408536499951
 20
-7.2030092797000007
 30
0.0
  0
VERTEX
  5
F7C
  8
HIDDEN
 10
5.1052447786500004
 20
-7.1983550178999991
 30
0.0
  0
VERTEX
  5
F7D
  8
HIDDEN
 10
5.121017351649999
 20
-7.1947138746000006
 30
0.0
  0
VERTEX
  5
F7E
  8
HIDDEN
 10
5.1369924281499983
 20
-7.1921011059999991
 30
0.0
  0
VERTEX
  5
F7F
  8
HIDDEN
 10
5.1531030435499998
 20
-7.1905276510999983
 30
0.0
  0
VERTEX
  5
F80
  8
HIDDEN
 10
5.187373228625634
 20
-7.1899963921605874
 30
0.0
  0
SEQEND
  5
F81
  8
HIDDEN
  0
LINE
  5
F1F
  8
_CURVE
 10
-8.5216508668499991
 20
0.0
 30
0.0
 11
8.5216508668499991
 21
0.0
 31
0.0
  0
LINE
  5
F20
  8
HIDDEN
 10
6.8073141026500004
 20
-2.411715349400001
 30
0.0
 11
6.4942888987500034
 21
-5.9896098017000021
 31
0.0
  0
LINE
  5
F21
  8
_CURVE
 10
8.6431906896499946
 20
-0.3745369346000018
 30
0.0
 11
8.6515716743499986
 21
-0.1345369346000016
 31
0.0
  0
ARC
  5
F22
  8
HIDDEN
 10
2.2433928602499931
 20
-8.5
 30
0.0
 40
0.13
 50
185.0
 51
270.0
  0
ARC
  5
F23
  8
HIDDEN
 10
4.6951467550499926
 20
-8.5
 30
0.0
 40
0.13
 50
270.0
 51
355.0
  0
ARC
  5
F25
  8
HIDDEN
 10
-8.1519789898551949
 20
-0.7489730664799624
 30
0.0
 40
0.2480173379547422
 50
8.5538595050550281
 51
89.856281113508999
  0
ARC
  5
F26
  8
_CURVE
 10
-8.5132698821500021
 20
-0.370000000000001
 30
0.0
 40
0.13
 50
182.0
 51
270.0
  0
ARC
  5
F27
  8
_CURVE
 10
-8.5216506833499999
 20
-0.1300000000000008
 30
0.0
 40
0.13
 50
90.000080851199996
 51
181.99999717829999
  0
ARC
  5
F28
  8
_CURVE
 10
8.5132682327499971
 20
-0.370000000000001
 30
0.0
 40
0.13
 50
270.00072695479992
 51
358.00002537
  0
ARC
  5
F29
  8
_CURVE
 10
8.5216508668499991
 20
-0.1300000000000008
 30
0.0
 40
0.13
 50
358.0
 51
90.0
  0
ARC
  5
F2A
  8
HIDDEN
 10
5.1842928707499949
 20
-5.875
 30
0.0
 40
1.3149999999999991
 50
270.0
 51
355.0
  0
ARC
  5
F2B
  8
HIDDEN
 10
-0.2463735230500035
 20
0.4633250402999991
 30
0.0
 40
7.75
 50
188.72346170220001
 51
211.3021001726998
  0
POLYLINE
  5
F2E
  8
_CURVE
 66
     1
 10
0.0
 20
0.0
 30
0.0
  0
VERTEX
  5
F82
  8
_CURVE
 10
7.8213832850499934
 20
-0.5
 30
0.0
  0
VERTEX
  5
F83
  8
_CURVE
 10
8.5132698821581165
 20
-0.4999999999895373
 30
0.0
  0
SEQEND
  5
F84
  8
_CURVE
  0
POLYLINE
  5
F2F
  8
_CURVE
 66
     1
 10
0.0
 20
0.0
 30
0.0
  0
VERTEX
  5
F85
  8
_CURVE
 10
-8.5132698821500021
 20
-0.5000000000000018
 30
0.0
  0
VERTEX
  5
F86
  8
_CURVE
 10
7.8213832631923621
 20
-0.5000000000000018
 30
0.0
  0
SEQEND
  5
F87
  8
_CURVE
  0
POLYLINE
  5
F30
  8
HIDDEN
 66
     1
 10
0.0
 20
0.0
 30
0.0
  0
VERTEX
  5
F88
  8
HIDDEN
 10
6.8073126600262617
 20
-2.411715223127044
 30
0.0
  0
VERTEX
  5
F89
  8
HIDDEN
 10
6.9915462587041466
 20
-1.970528047882087
 30
0.0
  0
VERTEX
  5
F8A
  8
HIDDEN
 10
7.0674506556455947
 20
-1.8002520208346871
 30
0.0
  0
VERTEX
  5
F8B
  8
HIDDEN
 10
7.0924901336499993
 20
-1.4796793148
 30
0.0
  0
VERTEX
  5
F8C
  8
HIDDEN
 10
7.1457650147500011
 20
-1.149472238558729
 30
0.0
  0
VERTEX
  5
F8D
  8
HIDDEN
 10
7.3413103824499997
 20
-0.9483717155000004
 30
0.0
  0
VERTEX
  5
F8E
  8
HIDDEN
 10
7.6030509032455518
 20
-0.6232074702382525
 30
0.0
  0
VERTEX
  5
F8F
  8
HIDDEN
 10
7.8213832552476701
 20
-0.5000000000000018
 30
0.0
  0
SEQEND
  5
F90
  8
HIDDEN
  0
ARC
  5
F36
  8
HIDDEN
 10
2.7609341458288772
 20
4.5599595054148141
 30
0.0
 40
12.8255219886692
 50
227.31936577426751
 51
266.0821171991347
  0
ENDSEC
  0
EOF
