  0
SECTION
  2
HEADER
  9
$ACADVER
  1
AC1021
  9
$ACADMAINTVER
 70
    25
  9
$DWGCODEPAGE
  3
ANSI_1252
  9
$INSBASE
 10
0.0
 20
0.0
 30
0.0
  9
$EXTMIN
 10
1.000000000000000E+20
 20
1.000000000000000E+20
 30
1.000000000000000E+20
  9
$EXTMAX
 10
-1.000000000000000E+20
 20
-1.000000000000000E+20
 30
-1.000000000000000E+20
  9
$LIMMIN
 10
0.0
 20
0.0
  9
$LIMMAX
 10
12.0
 20
9.0
  9
$ORTHOMODE
 70
     0
  9
$REGENMODE
 70
     1
  9
$FILLMODE
 70
     1
  9
$QTEXTMODE
 70
     0
  9
$MIRRTEXT
 70
     1
  9
$LTSCALE
 40
1.0
  9
$ATTMODE
 70
     1
  9
$TEXTSIZE
 40
0.2
  9
$TRACEWID
 40
0.05
  9
$TEXTSTYLE
  7
Standard
  9
$CLAYER
  8
0
  9
$CELTYPE
  6
ByLayer
  9
$CECOLOR
 62
   256
  9
$CELTSCALE
 40
1.0
  9
$DISPSILH
 70
     0
  9
$DIMSCALE
 40
1.0
  9
$DIMASZ
 40
0.18
  9
$DIMEXO
 40
0.0625
  9
$DIMDLI
 40
0.38
  9
$DIMRND
 40
0.0
  9
$DIMDLE
 40
0.0
  9
$DIMEXE
 40
0.18
  9
$DIMTP
 40
0.0
  9
$DIMTM
 40
0.0
  9
$DIMTXT
 40
0.18
  9
$DIMCEN
 40
0.09
  9
$DIMTSZ
 40
0.0
  9
$DIMTOL
 70
     0
  9
$DIMLIM
 70
     0
  9
$DIMTIH
 70
     1
  9
$DIMTOH
 70
     1
  9
$DIMSE1
 70
     0
  9
$DIMSE2
 70
     0
  9
$DIMTAD
 70
     0
  9
$DIMZIN
 70
     0
  9
$DIMBLK
  1

  9
$DIMASO
 70
     1
  9
$DIMSHO
 70
     1
  9
$DIMPOST
  1

  9
$DIMAPOST
  1

  9
$DIMALT
 70
     0
  9
$DIMALTD
 70
     2
  9
$DIMALTF
 40
25.4
  9
$DIMLFAC
 40
1.0
  9
$DIMTOFL
 70
     0
  9
$DIMTVP
 40
0.0
  9
$DIMTIX
 70
     0
  9
$DIMSOXD
 70
     0
  9
$DIMSAH
 70
     0
  9
$DIMBLK1
  1

  9
$DIMBLK2
  1

  9
$DIMSTYLE
  2
Standard
  9
$DIMCLRD
 70
     0
  9
$DIMCLRE
 70
     0
  9
$DIMCLRT
 70
     0
  9
$DIMTFAC
 40
1.0
  9
$DIMGAP
 40
0.09
  9
$DIMJUST
 70
     0
  9
$DIMSD1
 70
     0
  9
$DIMSD2
 70
     0
  9
$DIMTOLJ
 70
     1
  9
$DIMTZIN
 70
     0
  9
$DIMALTZ
 70
     0
  9
$DIMALTTZ
 70
     0
  9
$DIMUPT
 70
     0
  9
$DIMDEC
 70
     4
  9
$DIMTDEC
 70
     4
  9
$DIMALTU
 70
     2
  9
$DIMALTTD
 70
     2
  9
$DIMTXSTY
  7
Standard
  9
$DIMAUNIT
 70
     0
  9
$DIMADEC
 70
     0
  9
$DIMALTRND
 40
0.0
  9
$DIMAZIN
 70
     0
  9
$DIMDSEP
 70
    46
  9
$DIMATFIT
 70
     3
  9
$DIMFRAC
 70
     0
  9
$DIMLDRBLK
  1

  9
$DIMLUNIT
 70
     2
  9
$DIMLWD
 70
    -2
  9
$DIMLWE
 70
    -2
  9
$DIMTMOVE
 70
     0
  9
$DIMFXL
 40
1.0
  9
$DIMFXLON
 70
     0
  9
$DIMJOGANG
 40
0.7853981633974483
  9
$DIMTFILL
 70
     0
  9
$DIMTFILLCLR
 70
     0
  9
$DIMARCSYM
 70
     0
  9
$DIMLTYPE
  6

  9
$DIMLTEX1
  6

  9
$DIMLTEX2
  6

  9
$LUNITS
 70
     2
  9
$LUPREC
 70
     4
  9
$SKETCHINC
 40
0.1
  9
$FILLETRAD
 40
0.5
  9
$AUNITS
 70
     0
  9
$AUPREC
 70
     0
  9
$MENU
  1
.
  9
$ELEVATION
 40
0.0
  9
$PELEVATION
 40
0.0
  9
$THICKNESS
 40
0.0
  9
$LIMCHECK
 70
     0
  9
$CHAMFERA
 40
0.5
  9
$CHAMFERB
 40
0.5
  9
$CHAMFERC
 40
1.0
  9
$CHAMFERD
 40
0.0
  9
$SKPOLY
 70
     0
  9
$TDCREATE
 40
2451380.638765729
  9
$TDUCREATE
 40
2451380.805432396
  9
$TDUPDATE
 40
2451380.674513889
  9
$TDUUPDATE
 40
2451380.841180556
  9
$TDINDWG
 40
0.0075605787
  9
$TDUSRTIMER
 40
0.0075515394
  9
$USRTIMER
 70
     1
  9
$ANGBASE
 50
0.0
  9
$ANGDIR
 70
     0
  9
$PDMODE
 70
     0
  9
$PDSIZE
 40
0.0
  9
$PLINEWID
 40
0.0
  9
$SPLFRAME
 70
     0
  9
$SPLINETYPE
 70
     6
  9
$SPLINESEGS
 70
     8
  9
$HANDSEED
  5
521
  9
$SURFTAB1
 70
     6
  9
$SURFTAB2
 70
     6
  9
$SURFTYPE
 70
     6
  9
$SURFU
 70
     6
  9
$SURFV
 70
     6
  9
$UCSBASE
  2

  9
$UCSNAME
  2

  9
$UCSORG
 10
0.0
 20
0.0
 30
0.0
  9
$UCSXDIR
 10
1.0
 20
0.0
 30
0.0
  9
$UCSYDIR
 10
0.0
 20
1.0
 30
0.0
  9
$UCSORTHOREF
  2

  9
$UCSORTHOVIEW
 70
     0
  9
$UCSORGTOP
 10
0.0
 20
0.0
 30
0.0
  9
$UCSORGBOTTOM
 10
0.0
 20
0.0
 30
0.0
  9
$UCSORGLEFT
 10
0.0
 20
0.0
 30
0.0
  9
$UCSORGRIGHT
 10
0.0
 20
0.0
 30
0.0
  9
$UCSORGFRONT
 10
0.0
 20
0.0
 30
0.0
  9
$UCSORGBACK
 10
0.0
 20
0.0
 30
0.0
  9
$PUCSBASE
  2

  9
$PUCSNAME
  2

  9
$PUCSORG
 10
0.0
 20
0.0
 30
0.0
  9
$PUCSXDIR
 10
1.0
 20
0.0
 30
0.0
  9
$PUCSYDIR
 10
0.0
 20
1.0
 30
0.0
  9
$PUCSORTHOREF
  2

  9
$PUCSORTHOVIEW
 70
     0
  9
$PUCSORGTOP
 10
0.0
 20
0.0
 30
0.0
  9
$PUCSORGBOTTOM
 10
0.0
 20
0.0
 30
0.0
  9
$PUCSORGLEFT
 10
0.0
 20
0.0
 30
0.0
  9
$PUCSORGRIGHT
 10
0.0
 20
0.0
 30
0.0
  9
$PUCSORGFRONT
 10
0.0
 20
0.0
 30
0.0
  9
$PUCSORGBACK
 10
0.0
 20
0.0
 30
0.0
  9
$USERI1
 70
     0
  9
$USERI2
 70
     0
  9
$USERI3
 70
     0
  9
$USERI4
 70
     0
  9
$USERI5
 70
     0
  9
$USERR1
 40
0.0
  9
$USERR2
 40
0.0
  9
$USERR3
 40
0.0
  9
$USERR4
 40
0.0
  9
$USERR5
 40
0.0
  9
$WORLDVIEW
 70
     1
  9
$SHADEDGE
 70
     3
  9
$SHADEDIF
 70
    70
  9
$TILEMODE
 70
     1
  9
$MAXACTVP
 70
    64
  9
$PINSBASE
 10
0.0
 20
0.0
 30
0.0
  9
$PLIMCHECK
 70
     0
  9
$PEXTMIN
 10
1.000000000000000E+20
 20
1.000000000000000E+20
 30
1.000000000000000E+20
  9
$PEXTMAX
 10
-1.000000000000000E+20
 20
-1.000000000000000E+20
 30
-1.000000000000000E+20
  9
$PLIMMIN
 10
0.0
 20
0.0
  9
$PLIMMAX
 10
12.0
 20
9.0
  9
$UNITMODE
 70
     0
  9
$VISRETAIN
 70
     1
  9
$PLINEGEN
 70
     0
  9
$PSLTSCALE
 70
     1
  9
$TREEDEPTH
 70
  3020
  9
$CMLSTYLE
  2
Standard
  9
$CMLJUST
 70
     0
  9
$CMLSCALE
 40
1.0
  9
$PROXYGRAPHICS
 70
     1
  9
$MEASUREMENT
 70
     0
  9
$CELWEIGHT
370
    -1
  9
$ENDCAPS
280
     0
  9
$JOINSTYLE
280
     0
  9
$LWDISPLAY
290
     0
  9
$INSUNITS
 70
     1
  9
$HYPERLINKBASE
  1

  9
$STYLESHEET
  1

  9
$XEDIT
290
     1
  9
$CEPSNTYPE
380
     0
  9
$PSTYLEMODE
290
     1
  9
$FINGERPRINTGUID
  2
{12F50282-3ED8-11D3-A8B7-0060B0F84BC6}
  9
$VERSIONGUID
  2
{12F50293-3ED8-11D3-A8B7-0060B0F84BC6}
  9
$EXTNAMES
290
     1
  9
$PSVPSCALE
 40
0.0
  9
$OLESTARTUP
290
     0
  9
$SORTENTS
280
   127
  9
$INDEXCTL
280
     0
  9
$HIDETEXT
280
     0
  9
$XCLIPFRAME
290
     0
  9
$HALOGAP
280
     0
  9
$OBSCOLOR
 70
   257
  9
$OBSLTYPE
280
     0
  9
$INTERSECTIONDISPLAY
280
     0
  9
$INTERSECTIONCOLOR
 70
   257
  9
$DIMASSOC
280
     1
  9
$PROJECTNAME
  1

  9
$CAMERADISPLAY
290
     0
  9
$LENSLENGTH
 40
50.0
  9
$CAMERAHEIGHT
 40
0.0
  9
$STEPSPERSEC
 40
2.0
  9
$STEPSIZE
 40
6.0
  9
$3DDWFPREC
 40
2.0
  9
$PSOLWIDTH
 40
0.25
  9
$PSOLHEIGHT
 40
4.0
  9
$LOFTANG1
 40
1.570796326794896
  9
$LOFTANG2
 40
1.570796326794896
  9
$LOFTMAG1
 40
0.0
  9
$LOFTMAG2
 40
0.0
  9
$LOFTPARAM
 70
     7
  9
$LOFTNORMALS
280
     1
  9
$LATITUDE
 40
37.795
  9
$LONGITUDE
 40
-122.394
  9
$NORTHDIRECTION
 40
0.0
  9
$TIMEZONE
 70
 -8000
  9
$LIGHTGLYPHDISPLAY
280
     1
  9
$TILEMODELIGHTSYNCH
280
     1
  9
$CMATERIAL
347
AB
  9
$SOLIDHIST
280
     1
  9
$SHOWHIST
280
     1
  9
$DWFFRAME
280
     2
  9
$DGNFRAME
280
     0
  9
$REALWORLDSCALE
290
     1
  9
$INTERFERECOLOR
 62
     1
  9
$INTERFEREOBJVS
345
CD
  9
$INTERFEREVPVS
346
CA
  9
$CSHADOW
280
     0
  9
$SHADOWPLANELOCATION
 40
0.0
  0
ENDSEC
  0
SECTION
  2
CLASSES
  0
CLASS
  1
ACDBDICTIONARYWDFLT
  2
AcDbDictionaryWithDefault
  3
ObjectDBX Classes
 90
        0
 91
        0
280
     0
281
     0
  0
CLASS
  1
ACDBPLACEHOLDER
  2
AcDbPlaceHolder
  3
ObjectDBX Classes
 90
        0
 91
        0
280
     0
281
     0
  0
CLASS
  1
LAYOUT
  2
AcDbLayout
  3
ObjectDBX Classes
 90
        0
 91
        3
280
     0
281
     0
  0
CLASS
  1
MATERIAL
  2
AcDbMaterial
  3
ObjectDBX Classes
 90
     1153
 91
        3
280
     0
281
     0
  0
CLASS
  1
VISUALSTYLE
  2
AcDbVisualStyle
  3
ObjectDBX Classes
 90
     4095
 91
       16
280
     0
281
     0
  0
CLASS
  1
TABLESTYLE
  2
AcDbTableStyle
  3
ObjectDBX Classes
 90
     4095
 91
        1
280
     0
281
     0
  0
CLASS
  1
SCALE
  2
AcDbScale
  3
ObjectDBX Classes
 90
     1153
 91
       33
280
     0
281
     0
  0
CLASS
  1
MLEADERSTYLE
  2
AcDbMLeaderStyle
  3
ACDB_MLEADERSTYLE_CLASS
 90
     4095
 91
        1
280
     0
281
     0
  0
CLASS
  1
DICTIONARYVAR
  2
AcDbDictionaryVar
  3
ObjectDBX Classes
 90
        0
 91
        5
280
     0
281
     0
  0
CLASS
  1
CELLSTYLEMAP
  2
AcDbCellStyleMap
  3
ObjectDBX Classes
 90
     1152
 91
        1
280
     0
281
     0
  0
ENDSEC
  0
SECTION
  2
TABLES
  0
TABLE
  2
VPORT
  5
8
330
0
100
AcDbSymbolTable
 70
     1
  0
VPORT
  5
A8
330
8
100
AcDbSymbolTableRecord
100
AcDbViewportTableRecord
  2
*Active
 70
     0
 10
0.0
 20
0.0
 11
1.0
 21
1.0
 12
1.101332902908325
 22
-2.63607120513916
 13
0.0
 23
0.0
 14
0.5
 24
0.5
 15
0.5
 25
0.5
 16
-1.0
 26
-1.0
 36
1.0
 17
0.0
 27
0.0
 37
0.0
 40
24.49995160058779
 41
1.201820332289734
 42
50.0
 43
0.0
 44
0.0
 50
0.0
 51
0.0
 71
     0
 72
   100
 73
     1
 74
     3
 75
     0
 76
     0
 77
     0
 78
     0
281
     0
 65
     1
110
0.0
120
0.0
130
0.0
111
1.0
121
0.0
131
0.0
112
0.0
122
1.0
132
0.0
 79
     0
146
0.0
348
C9
 60
     3
 61
     5
292
     1
282
     1
141
0.0
142
0.0
 63
   250
421
  3355443
  0
ENDTAB
  0
TABLE
  2
LTYPE
  5
5
330
0
100
AcDbSymbolTable
 70
     1
  0
LTYPE
  5
14
330
5
100
AcDbSymbolTableRecord
100
AcDbLinetypeTableRecord
  2
ByBlock
 70
     0
  3

 72
    65
 73
     0
 40
0.0
  0
LTYPE
  5
15
330
5
100
AcDbSymbolTableRecord
100
AcDbLinetypeTableRecord
  2
ByLayer
 70
     0
  3

 72
    65
 73
     0
 40
0.0
  0
LTYPE
  5
16
330
5
100
AcDbSymbolTableRecord
100
AcDbLinetypeTableRecord
  2
Continuous
 70
     0
  3
Solid line
 72
    65
 73
     0
 40
0.0
  0
ENDTAB
  0
TABLE
  2
LAYER
  5
2
330
0
100
AcDbSymbolTable
 70
     2
  0
LAYER
  5
10
330
2
100
AcDbSymbolTableRecord
100
AcDbLayerTableRecord
  2
0
 70
     0
 62
   111
420
 10085560
  6
Continuous
370
    -3
390
F
347
BB
  0
LAYER
  5
2B
330
2
100
AcDbSymbolTableRecord
100
AcDbLayerTableRecord
  2
ASHADE
 70
     4
 62
     7
  6
Continuous
370
    -3
390
2D
347
BB
  0
ENDTAB
  0
TABLE
  2
STYLE
  5
3
330
0
100
AcDbSymbolTable
 70
     2
  0
STYLE
  5
11
330
3
100
AcDbSymbolTableRecord
100
AcDbTextStyleTableRecord
  2
Standard
 70
     0
 40
0.0
 41
1.0
 50
0.0
 71
     0
 42
0.2
  3
txt
  4

  0
STYLE
  5
2C
330
3
100
AcDbSymbolTableRecord
100
AcDbTextStyleTableRecord
  2
ASHADE
 70
     0
 40
0.2
 41
1.0
 50
0.0
 71
     0
 42
0.2
  3
simplex
  4

  0
ENDTAB
  0
TABLE
  2
VIEW
  5
6
330
0
100
AcDbSymbolTable
 70
     0
  0
ENDTAB
  0
TABLE
  2
UCS
  5
7
330
0
100
AcDbSymbolTable
 70
     0
  0
ENDTAB
  0
TABLE
  2
APPID
  5
9
330
0
100
AcDbSymbolTable
 70
     7
  0
APPID
  5
12
330
9
100
AcDbSymbolTableRecord
100
AcDbRegAppTableRecord
  2
ACAD
 70
     0
  0
APPID
  5
8F
330
9
100
AcDbSymbolTableRecord
100
AcDbRegAppTableRecord
  2
AVE_RENDER
 70
     0
  0
APPID
  5
90
330
9
100
AcDbSymbolTableRecord
100
AcDbRegAppTableRecord
  2
AVE_ENTITY_MATERIAL
 70
     0
  0
APPID
  5
9C
330
9
100
AcDbSymbolTableRecord
100
AcDbRegAppTableRecord
  2
AVE_FINISH
 70
     0
  0
APPID
  5
9D
330
9
100
AcDbSymbolTableRecord
100
AcDbRegAppTableRecord
  2
AVE_MATERIAL
 70
     0
  0
APPID
  5
9E
330
9
100
AcDbSymbolTableRecord
100
AcDbRegAppTableRecord
  2
AVE_GLOBAL
 70
     0
  0
APPID
  5
FB
330
9
100
AcDbSymbolTableRecord
100
AcDbRegAppTableRecord
  2
ACAD_MLEADERVER
 70
     0
  0
ENDTAB
  0
TABLE
  2
DIMSTYLE
  5
A
330
0
100
AcDbSymbolTable
 70
     1
100
AcDbDimStyleTable
 71
     0
  0
DIMSTYLE
105
27
330
A
100
AcDbSymbolTableRecord
100
AcDbDimStyleTableRecord
  2
Standard
 70
     0
340
11
  0
ENDTAB
  0
TABLE
  2
BLOCK_RECORD
  5
1
330
0
100
AcDbSymbolTable
 70
     6
  0
BLOCK_RECORD
  5
1F
330
1
100
AcDbSymbolTableRecord
100
AcDbBlockTableRecord
  2
*Model_Space
340
22
 70
     0
280
     1
281
     0
  0
BLOCK_RECORD
  5
1B
330
1
100
AcDbSymbolTableRecord
100
AcDbBlockTableRecord
  2
*Paper_Space
340
1E
 70
     0
280
     1
281
     0
  0
BLOCK_RECORD
  5
23
330
1
100
AcDbSymbolTableRecord
100
AcDbBlockTableRecord
  2
*Paper_Space0
340
26
 70
     0
280
     1
281
     0
  0
BLOCK_RECORD
  5
2E
330
1
100
AcDbSymbolTableRecord
100
AcDbBlockTableRecord
  2
direct
340
0
 70
     0
280
     1
281
     0
  0
BLOCK_RECORD
  5
42
330
1
100
AcDbSymbolTableRecord
100
AcDbBlockTableRecord
  2
overhead
340
0
 70
     0
280
     1
281
     0
  0
BLOCK_RECORD
  5
5F
330
1
100
AcDbSymbolTableRecord
100
AcDbBlockTableRecord
  2
sh_spot
340
0
 70
     0
280
     1
281
     0
  0
BLOCK_RECORD
  5
91
330
1
100
AcDbSymbolTableRecord
100
AcDbBlockTableRecord
  2
AVE_RENDER
340
0
102
{BLKREFS
331
94
331
95
331
96
331
97
331
98
331
99
331
9A
331
9B
102
}
 70
     0
280
     1
281
     0
  0
BLOCK_RECORD
  5
9F
330
1
100
AcDbSymbolTableRecord
100
AcDbBlockTableRecord
  2
AVE_GLOBAL
340
0
102
{BLKREFS
331
A2
102
}
 70
     0
280
     1
281
     0
  0
ENDTAB
  0
ENDSEC
  0
SECTION
  2
BLOCKS
  0
BLOCK
  5
20
330
1F
100
AcDbEntity
  8
0
100
AcDbBlockBegin
  2
*Model_Space
 70
     0
 10
0.0
 20
0.0
 30
0.0
  3
*Model_Space
  1

  0
ENDBLK
  5
21
330
1F
100
AcDbEntity
  8
0
100
AcDbBlockEnd
  0
BLOCK
  5
1C
330
1B
100
AcDbEntity
 67
     1
  8
0
100
AcDbBlockBegin
  2
*Paper_Space
 70
     0
 10
0.0
 20
0.0
 30
0.0
  3
*Paper_Space
  1

  0
ENDBLK
  5
1D
330
1B
100
AcDbEntity
 67
     1
  8
0
100
AcDbBlockEnd
  0
BLOCK
  5
24
330
23
100
AcDbEntity
 67
     1
  8
0
100
AcDbBlockBegin
  2
*Paper_Space0
 70
     0
 10
0.0
 20
0.0
 30
0.0
  3
*Paper_Space0
  1

  0
ENDBLK
  5
25
330
23
100
AcDbEntity
 67
     1
  8
0
100
AcDbBlockEnd
  0
BLOCK
  5
40
330
2E
100
AcDbEntity
  8
0
100
AcDbBlockBegin
  2
direct
 70
     2
 10
0.0
 20
0.0
 30
0.0
  3
direct
  1

  0
ATTDEF
  5
2F
330
2E
100
AcDbEntity
  8
ASHADE
  6
Continuous
 62
     1
100
AcDbText
 10
0.0
 20
-0.1
 30
0.0
 40
0.2
  1

  7
ASHADE
 72
     1
 11
0.0
 21
-0.1
 31
0.0
100
AcDbAttributeDefinition
  3
Light Name
  2
SNAME
 70
     0
280
     0
  0
ARC
  5
30
330
2E
100
AcDbEntity
  8
ASHADE
  6
Continuous
 62
     7
100
AcDbCircle
 10
0.0
 20
0.0
 30
0.0
 40
0.3
100
AcDbArc
 50
205.6792886194569
 51
334.3207113805431
  0
ARC
  5
31
330
2E
100
AcDbEntity
  8
ASHADE
  6
Continuous
 62
     7
100
AcDbCircle
 10
0.0
 20
0.0
 30
0.0
 40
0.3
100
AcDbArc
 50
25.67928861945685
 51
154.3207113805431
  0
LINE
  5
32
330
2E
100
AcDbEntity
  8
ASHADE
  6
Continuous
 62
     7
100
AcDbLine
 10
-0.21
 20
0.2142428528562855
 30
0.0
 11
-0.21
 21
0.5
 31
0.0
  0
LINE
  5
33
330
2E
100
AcDbEntity
  8
ASHADE
  6
Continuous
 62
     7
100
AcDbLine
 10
-0.11
 20
0.2791057147390572
 30
0.0
 11
-0.11
 21
0.5
 31
0.0
  0
LINE
  5
34
330
2E
100
AcDbEntity
  8
ASHADE
  6
Continuous
 62
     7
100
AcDbLine
 10
0.21
 20
0.2142428528562855
 30
0.0
 11
0.21
 21
0.5
 31
0.0
  0
ATTDEF
  5
35
330
2E
100
AcDbEntity
  8
ASHADE
  6
Continuous
 62
     7
100
AcDbText
 10
0.0
 20
0.25
 30
0.0
 40
0.01
  1

100
AcDbAttributeDefinition
  3
Look-at Y
  2
LAY
 70
     1
280
     0
  0
ATTDEF
  5
36
330
2E
100
AcDbEntity
  8
ASHADE
  6
Continuous
 62
     7
100
AcDbText
 10
0.0
 20
0.22
 30
0.0
 40
0.01
  1
1
100
AcDbAttributeDefinition
  3
Light Intensity
  2
INTENSITY
 70
     1
280
     0
  0
ATTDEF
  5
37
330
2E
100
AcDbEntity
  8
ASHADE
  6
Continuous
 62
     7
100
AcDbText
 10
0.0
 20
0.16
 30
0.0
 40
0.01
  1
-1
100
AcDbAttributeDefinition
  3
*not used*
  2
BEAMD
 70
     1
280
     0
  0
ATTDEF
  5
38
330
2E
100
AcDbEntity
  8
ASHADE
  6
Continuous
 62
     7
100
AcDbText
 10
0.0
 20
0.175
 30
0.0
 40
0.01
  1
-1
100
AcDbAttributeDefinition
  3
*not used*
  2
CONED
 70
     1
280
     0
  0
ATTDEF
  5
39
330
2E
100
AcDbEntity
  8
ASHADE
  6
Continuous
 62
     7
100
AcDbText
 10
0.0
 20
0.19
 30
0.0
 40
0.01
  1
0
100
AcDbAttributeDefinition
  3
Depth Map Size
  2
CONEA
 70
     1
280
     0
  0
ATTDEF
  5
3A
330
2E
100
AcDbEntity
  8
ASHADE
  6
Continuous
 62
     7
100
AcDbText
 10
0.0
 20
0.2050000000000001
 30
0.0
 40
0.01
  1
1,1,1
100
AcDbAttributeDefinition
  3
Light Color (RGB)
  2
COLOR
 70
     1
280
     0
  0
ATTDEF
  5
3B
330
2E
100
AcDbEntity
  8
ASHADE
  6
Continuous
 62
     7
100
AcDbText
 10
0.0
 20
0.235
 30
0.0
 40
0.01
  1

100
AcDbAttributeDefinition
  3
Look-at Z
  2
LAZ
 70
     1
280
     0
  0
LINE
  5
3C
330
2E
100
AcDbEntity
  8
ASHADE
  6
Continuous
 62
     7
100
AcDbLine
 10
0.0
 20
0.3
 30
0.0
 11
0.0
 21
0.5
 31
0.0
  0
LINE
  5
3D
330
2E
100
AcDbEntity
  8
ASHADE
  6
Continuous
 62
     7
100
AcDbLine
 10
0.11
 20
0.2791057147390572
 30
0.0
 11
0.11
 21
0.5
 31
0.0
  0
ATTDEF
  5
3E
330
2E
100
AcDbEntity
  8
ASHADE
  6
Continuous
 62
     7
100
AcDbText
 10
0.0
 20
0.265
 30
0.0
 40
0.01
  1

100
AcDbAttributeDefinition
  3
Look-at X
  2
LAX
 70
     1
280
     0
  0
ATTDEF
  5
3F
330
2E
100
AcDbEntity
  8
ASHADE
  6
Continuous
 62
     7
100
AcDbText
 10
0.0
 20
0.28
 30
0.0
 40
0.01
  1

100
AcDbAttributeDefinition
  3

  2
GNAME
 70
     1
280
     0
  0
ENDBLK
  5
41
330
2E
100
AcDbEntity
  8
0
100
AcDbBlockEnd
  0
BLOCK
  5
5D
330
42
100
AcDbEntity
  8
0
100
AcDbBlockBegin
  2
overhead
 70
     2
 10
0.0
 20
0.0
 30
0.0
  3
overhead
  1

  0
ATTDEF
  5
43
330
42
100
AcDbEntity
  8
ASHADE
  6
Continuous
 62
     1
100
AcDbText
 10
0.0
 20
-0.1
 30
0.0
 40
0.2
  1

  7
ASHADE
 72
     1
 11
0.0
 21
-0.1
 31
0.0
100
AcDbAttributeDefinition
  3
Light Name
  2
SNAME
 70
     0
280
     0
  0
ARC
  5
44
330
42
100
AcDbEntity
  8
ASHADE
  6
Continuous
 62
     7
100
AcDbCircle
 10
0.0
 20
0.0
 30
0.0
 40
0.3
100
AcDbArc
 50
205.6792886194569
 51
334.3207113805431
  0
LINE
  5
45
330
42
100
AcDbEntity
  8
ASHADE
  6
Continuous
 62
     7
100
AcDbLine
 10
-0.2041413561583015
 20
-0.2198324514393848
 30
0.0
 11
-0.2721884748777353
 21
-0.2931099352525131
 31
0.0
  0
LINE
  5
46
330
42
100
AcDbEntity
  8
ASHADE
  6
Continuous
 62
     7
100
AcDbLine
 10
-0.1096591641591904
 20
-0.2792398032442862
 30
0.0
 11
-0.1279356915190555
 21
-0.3257797704516673
 31
0.0
  0
LINE
  5
47
330
42
100
AcDbEntity
  8
ASHADE
  6
Continuous
 62
     7
100
AcDbLine
 10
0.0
 20
-0.2999999999999999
 30
0.0
 11
0.0
 21
-0.4
 31
0.0
  0
LINE
  5
48
330
42
100
AcDbEntity
  8
ASHADE
  6
Continuous
 62
     7
100
AcDbLine
 10
0.1096591641591904
 20
-0.2792398032442862
 30
0.0
 11
0.1279356915190555
 21
-0.3257797704516673
 31
0.0
  0
LINE
  5
49
330
42
100
AcDbEntity
  8
ASHADE
  6
Continuous
 62
     7
100
AcDbLine
 10
0.2041413561583015
 20
-0.2198324514393848
 30
0.0
 11
0.2721884748777353
 21
-0.2931099352525131
 31
0.0
  0
ARC
  5
4A
330
42
100
AcDbEntity
  8
ASHADE
  6
Continuous
 62
     7
100
AcDbCircle
 10
0.0
 20
0.0
 30
0.0
 40
0.3
100
AcDbArc
 50
25.67928861945685
 51
154.3207113805431
  0
LINE
  5
4B
330
42
100
AcDbEntity
  8
ASHADE
  6
Continuous
 62
     7
100
AcDbLine
 10
-0.2703701166919155
 20
0.13
 30
0.0
 11
-0.3154318028072347
 21
0.1516666666666666
 31
0.0
  0
LINE
  5
4C
330
42
100
AcDbEntity
  8
ASHADE
  6
Continuous
 62
     7
100
AcDbLine
 10
-0.2703701166919155
 20
-0.13
 30
0.0
 11
-0.3154318028072347
 21
-0.1516666666666666
 31
0.0
  0
LINE
  5
4D
330
42
100
AcDbEntity
  8
ASHADE
  6
Continuous
 62
     7
100
AcDbLine
 10
-0.2041413561583015
 20
0.2198324514393849
 30
0.0
 11
-0.2721884748777353
 21
0.2931099352525131
 31
0.0
  0
LINE
  5
4E
330
42
100
AcDbEntity
  8
ASHADE
  6
Continuous
 62
     7
100
AcDbLine
 10
-0.1096591641591904
 20
0.2792398032442862
 30
0.0
 11
-0.1279356915190555
 21
0.3257797704516674
 31
0.0
  0
LINE
  5
4F
330
42
100
AcDbEntity
  8
ASHADE
  6
Continuous
 62
     7
100
AcDbLine
 10
0.2703701166919155
 20
-0.13
 30
0.0
 11
0.3154318028072347
 21
-0.1516666666666666
 31
0.0
  0
LINE
  5
50
330
42
100
AcDbEntity
  8
ASHADE
  6
Continuous
 62
     7
100
AcDbLine
 10
0.2703701166919155
 20
0.13
 30
0.0
 11
0.3154318028072347
 21
0.1516666666666666
 31
0.0
  0
LINE
  5
51
330
42
100
AcDbEntity
  8
ASHADE
  6
Continuous
 62
     7
100
AcDbLine
 10
0.0
 20
0.3
 30
0.0
 11
0.0
 21
0.4
 31
0.0
  0
ATTDEF
  5
52
330
42
100
AcDbEntity
  8
ASHADE
  6
Continuous
 62
     7
100
AcDbText
 10
0.0
 20
0.22
 30
0.0
 40
0.01
  1
1
100
AcDbAttributeDefinition
  3
Light Intensity
  2
INTENSITY
 70
     1
280
     0
  0
ATTDEF
  5
53
330
42
100
AcDbEntity
  8
ASHADE
  6
Continuous
 62
     7
100
AcDbText
 10
0.0
 20
0.16
 30
0.0
 40
0.01
  1
-1
100
AcDbAttributeDefinition
  3
*not used*
  2
BEAMD
 70
     1
280
     0
  0
ATTDEF
  5
54
330
42
100
AcDbEntity
  8
ASHADE
  6
Continuous
 62
     7
100
AcDbText
 10
0.0
 20
0.175
 30
0.0
 40
0.01
  1
-1
100
AcDbAttributeDefinition
  3
*not used*
  2
CONED
 70
     1
280
     0
  0
ATTDEF
  5
55
330
42
100
AcDbEntity
  8
ASHADE
  6
Continuous
 62
     7
100
AcDbText
 10
0.0
 20
0.19
 30
0.0
 40
0.01
  1
0
100
AcDbAttributeDefinition
  3
Depth Map Size
  2
CONEA
 70
     1
280
     0
  0
ATTDEF
  5
56
330
42
100
AcDbEntity
  8
ASHADE
  6
Continuous
 62
     7
100
AcDbText
 10
0.0
 20
0.2050000000000001
 30
0.0
 40
0.01
  1
1,1,1
100
AcDbAttributeDefinition
  3
Light Color (RGB)
  2
COLOR
 70
     1
280
     0
  0
ATTDEF
  5
57
330
42
100
AcDbEntity
  8
ASHADE
  6
Continuous
 62
     7
100
AcDbText
 10
0.0
 20
0.235
 30
0.0
 40
0.01
  1

100
AcDbAttributeDefinition
  3
Look-at Z
  2
LAZ
 70
     1
280
     0
  0
ATTDEF
  5
58
330
42
100
AcDbEntity
  8
ASHADE
  6
Continuous
 62
     7
100
AcDbText
 10
0.0
 20
0.25
 30
0.0
 40
0.01
  1

100
AcDbAttributeDefinition
  3
Look-at Y
  2
LAY
 70
     1
280
     0
  0
ATTDEF
  5
59
330
42
100
AcDbEntity
  8
ASHADE
  6
Continuous
 62
     7
100
AcDbText
 10
0.0
 20
0.265
 30
0.0
 40
0.01
  1

100
AcDbAttributeDefinition
  3
Look-at X
  2
LAX
 70
     1
280
     0
  0
ATTDEF
  5
5A
330
42
100
AcDbEntity
  8
ASHADE
  6
Continuous
 62
     7
100
AcDbText
 10
0.0
 20
0.28
 30
0.0
 40
0.01
  1

100
AcDbAttributeDefinition
  3

  2
GNAME
 70
     1
280
     0
  0
LINE
  5
5B
330
42
100
AcDbEntity
  8
ASHADE
  6
Continuous
 62
     7
100
AcDbLine
 10
0.1096591641591904
 20
0.2792398032442862
 30
0.0
 11
0.1279356915190555
 21
0.3257797704516674
 31
0.0
  0
LINE
  5
5C
330
42
100
AcDbEntity
  8
ASHADE
  6
Continuous
 62
     7
100
AcDbLine
 10
0.2041413561583015
 20
0.2198324514393849
 30
0.0
 11
0.2721884748777353
 21
0.2931099352525131
 31
0.0
  0
ENDBLK
  5
5E
330
42
100
AcDbEntity
  8
0
100
AcDbBlockEnd
  0
BLOCK
  5
85
330
5F
100
AcDbEntity
  8
0
100
AcDbBlockBegin
  2
sh_spot
 70
     2
 10
0.0
 20
0.0
 30
0.0
  3
sh_spot
  1

  0
LINE
  5
60
330
5F
100
AcDbEntity
  8
ASHADE
  6
Continuous
 62
     7
100
AcDbLine
 10
0.25
 20
0.26
 30
0.0
 11
-0.25
 21
0.26
 31
0.0
  0
LINE
  5
61
330
5F
100
AcDbEntity
  8
ASHADE
  6
Continuous
 62
     7
100
AcDbLine
 10
-0.25
 20
-0.3399999999999999
 30
0.0
 11
0.25
 21
-0.3399999999999999
 31
0.0
  0
ATTDEF
  5
62
330
5F
100
AcDbEntity
  8
ASHADE
  6
Continuous
 62
     1
100
AcDbText
 10
0.0
 20
-0.1
 30
0.0
 40
0.2
  1

  7
ASHADE
 72
     1
 11
0.0
 21
-0.1
 31
0.0
100
AcDbAttributeDefinition
  3
Light Name
  2
SNAME
 70
     0
280
     0
  0
LINE
  5
63
330
5F
100
AcDbEntity
  8
ASHADE
  6
Continuous
 62
     7
100
AcDbLine
 10
-0.25
 20
-0.13
 30
0.0
 11
-0.25
 21
-0.3399999999999999
 31
0.0
  0
LINE
  5
64
330
5F
100
AcDbEntity
  8
ASHADE
  6
Continuous
 62
     7
100
AcDbLine
 10
-0.25
 20
-0.18
 30
0.0
 11
-0.29
 21
-0.18
 31
0.0
  0
LINE
  5
65
330
5F
100
AcDbEntity
  8
ASHADE
  6
Continuous
 62
     7
100
AcDbLine
 10
-0.29
 20
-0.22
 30
0.0
 11
-0.25
 21
-0.22
 31
0.0
  0
LINE
  5
66
330
5F
100
AcDbEntity
  8
ASHADE
  6
Continuous
 62
     7
100
AcDbLine
 10
-0.29
 20
-0.18
 30
0.0
 11
-0.29
 21
-0.22
 31
0.0
  0
LINE
  5
67
330
5F
100
AcDbEntity
  8
ASHADE
  6
Continuous
 62
     7
100
AcDbLine
 10
-0.1045454545454545
 20
0.26
 30
0.0
 11
-0.15
 21
0.46
 31
0.0
  0
LINE
  5
68
330
5F
100
AcDbEntity
  8
ASHADE
  6
Continuous
 62
     7
100
AcDbLine
 10
-0.21
 20
0.26
 30
0.0
 11
-0.301304347826087
 21
0.46
 31
0.0
  0
LINE
  5
69
330
5F
100
AcDbEntity
  8
ASHADE
  6
Continuous
 62
     7
100
AcDbLine
 10
-0.25
 20
0.26
 30
0.0
 11
-0.25
 21
0.13
 31
0.0
  0
LINE
  5
6A
330
5F
100
AcDbEntity
  8
ASHADE
  6
Continuous
 62
     7
100
AcDbLine
 10
-0.25
 20
0.22
 30
0.0
 11
-0.29
 21
0.22
 31
0.0
  0
LINE
  5
6B
330
5F
100
AcDbEntity
  8
ASHADE
  6
Continuous
 62
     7
100
AcDbLine
 10
-0.29
 20
0.1799999999999999
 30
0.0
 11
-0.25
 21
0.1799999999999999
 31
0.0
  0
LINE
  5
6C
330
5F
100
AcDbEntity
  8
ASHADE
  6
Continuous
 62
     7
100
AcDbLine
 10
-0.29
 20
0.22
 30
0.0
 11
-0.29
 21
0.1799999999999999
 31
0.0
  0
ATTDEF
  5
6D
330
5F
100
AcDbEntity
  8
ASHADE
  6
Continuous
 62
     7
100
AcDbText
 10
0.0
 20
-0.24
 30
0.0
 40
0.01
  1
0
100
AcDbAttributeDefinition
  3
Depth Map Size
  2
ZSIZE
 70
     1
280
     0
  0
ATTDEF
  5
6E
330
5F
100
AcDbEntity
  8
ASHADE
  6
Continuous
 62
     7
100
AcDbText
 10
0.0
 20
-0.3300000000000001
 30
0.0
 40
0.01
  1
0,0,0
100
AcDbAttributeDefinition
  3
Look-from XYZ
  2
LFXYZ
 70
     1
280
     0
  0
ATTDEF
  5
6F
330
5F
100
AcDbEntity
  8
ASHADE
  6
Continuous
 62
     7
100
AcDbText
 10
0.0
 20
-0.315
 30
0.0
 40
0.01
  1
0.0
100
AcDbAttributeDefinition
  3
Beam Distribution
  2
BEAMDI
 70
     1
280
     0
  0
ATTDEF
  5
70
330
5F
100
AcDbEntity
  8
ASHADE
  6
Continuous
 62
     7
100
AcDbText
 10
0.0
 20
-0.3
 30
0.0
 40
0.01
  1
0.0
100
AcDbAttributeDefinition
  3
Cone Delta
  2
CONEDE
 70
     1
280
     0
  0
ATTDEF
  5
71
330
5F
100
AcDbEntity
  8
ASHADE
  6
Continuous
 62
     7
100
AcDbText
 10
0.0
 20
-0.2850000000000001
 30
0.0
 40
0.01
  1
10.0
100
AcDbAttributeDefinition
  3
Cone Angle
  2
CONEAN
 70
     1
280
     0
  0
ATTDEF
  5
72
330
5F
100
AcDbEntity
  8
ASHADE
  6
Continuous
 62
     7
100
AcDbText
 10
0.0
 20
-0.27
 30
0.0
 40
0.01
  1
-1
100
AcDbAttributeDefinition
  3
*not used*
  2
BIASMAX
 70
     1
280
     0
  0
ATTDEF
  5
73
330
5F
100
AcDbEntity
  8
ASHADE
  6
Continuous
 62
     7
100
AcDbText
 10
0.0
 20
-0.255
 30
0.0
 40
0.01
  1
-1
100
AcDbAttributeDefinition
  3
*not used*
  2
BIASMIN
 70
     1
280
     0
  0
ATTDEF
  5
74
330
5F
100
AcDbEntity
  8
ASHADE
  6
Continuous
 62
     7
100
AcDbText
 10
0.0
 20
-0.225
 30
0.0
 40
0.01
  1
1,1,1
100
AcDbAttributeDefinition
  3
Light Color (RGB)
  2
COLOR
 70
     1
280
     0
  0
ATTDEF
  5
75
330
5F
100
AcDbEntity
  8
ASHADE
  6
Continuous
 62
     7
100
AcDbText
 10
0.0
 20
-0.21
 30
0.0
 40
0.01
  1
1
100
AcDbAttributeDefinition
  3
Light Intensity
  2
INTENSITY
 70
     1
280
     0
  0
ATTDEF
  5
76
330
5F
100
AcDbEntity
  8
ASHADE
  6
Continuous
 62
     7
100
AcDbText
 10
0.0
 20
-0.15
 30
0.0
 40
0.01
  1

100
AcDbAttributeDefinition
  3

  2
GNAME
 70
     1
280
     0
  0
ATTDEF
  5
77
330
5F
100
AcDbEntity
  8
ASHADE
  6
Continuous
 62
     7
100
AcDbText
 10
0.0
 20
-0.195
 30
0.0
 40
0.01
  1

100
AcDbAttributeDefinition
  3
Look-at Z
  2
LAZ
 70
     1
280
     0
  0
ATTDEF
  5
78
330
5F
100
AcDbEntity
  8
ASHADE
  6
Continuous
 62
     7
100
AcDbText
 10
0.0
 20
-0.18
 30
0.0
 40
0.01
  1

100
AcDbAttributeDefinition
  3
Look-at Y
  2
LAY
 70
     1
280
     0
  0
ATTDEF
  5
79
330
5F
100
AcDbEntity
  8
ASHADE
  6
Continuous
 62
     7
100
AcDbText
 10
0.0
 20
-0.165
 30
0.0
 40
0.01
  1

100
AcDbAttributeDefinition
  3
Look-at X
  2
LAX
 70
     1
280
     0
  0
LINE
  5
7A
330
5F
100
AcDbEntity
  8
ASHADE
  6
Continuous
 62
     7
100
AcDbLine
 10
0.25
 20
-0.3399999999999999
 30
0.0
 11
0.25
 21
-0.13
 31
0.0
  0
LINE
  5
7B
330
5F
100
AcDbEntity
  8
ASHADE
  6
Continuous
 62
     7
100
AcDbLine
 10
0.25
 20
-0.18
 30
0.0
 11
0.29
 21
-0.18
 31
0.0
  0
LINE
  5
7C
330
5F
100
AcDbEntity
  8
ASHADE
  6
Continuous
 62
     7
100
AcDbLine
 10
0.29
 20
-0.22
 30
0.0
 11
0.25
 21
-0.22
 31
0.0
  0
LINE
  5
7D
330
5F
100
AcDbEntity
  8
ASHADE
  6
Continuous
 62
     7
100
AcDbLine
 10
0.29
 20
-0.18
 30
0.0
 11
0.29
 21
-0.22
 31
0.0
  0
LINE
  5
7E
330
5F
100
AcDbEntity
  8
ASHADE
  6
Continuous
 62
     7
100
AcDbLine
 10
0.21
 20
0.26
 30
0.0
 11
0.301304347826087
 21
0.46
 31
0.0
  0
LINE
  5
7F
330
5F
100
AcDbEntity
  8
ASHADE
  6
Continuous
 62
     7
100
AcDbLine
 10
0.1045454545454545
 20
0.26
 30
0.0
 11
0.15
 21
0.46
 31
0.0
  0
LINE
  5
80
330
5F
100
AcDbEntity
  8
ASHADE
  6
Continuous
 62
     7
100
AcDbLine
 10
0.0
 20
0.26
 30
0.0
 11
0.0
 21
0.46
 31
0.0
  0
LINE
  5
81
330
5F
100
AcDbEntity
  8
ASHADE
  6
Continuous
 62
     7
100
AcDbLine
 10
0.25
 20
0.13
 30
0.0
 11
0.25
 21
0.26
 31
0.0
  0
LINE
  5
82
330
5F
100
AcDbEntity
  8
ASHADE
  6
Continuous
 62
     7
100
AcDbLine
 10
0.25
 20
0.22
 30
0.0
 11
0.29
 21
0.22
 31
0.0
  0
LINE
  5
83
330
5F
100
AcDbEntity
  8
ASHADE
  6
Continuous
 62
     7
100
AcDbLine
 10
0.29
 20
0.1799999999999999
 30
0.0
 11
0.25
 21
0.1799999999999999
 31
0.0
  0
LINE
  5
84
330
5F
100
AcDbEntity
  8
ASHADE
  6
Continuous
 62
     7
100
AcDbLine
 10
0.29
 20
0.22
 30
0.0
 11
0.29
 21
0.1799999999999999
 31
0.0
  0
ENDBLK
  5
86
330
5F
100
AcDbEntity
  8
0
100
AcDbBlockEnd
  0
BLOCK
  5
92
330
91
100
AcDbEntity
  8
ASHADE
100
AcDbBlockBegin
  2
AVE_RENDER
 70
     0
 10
0.0
 20
0.0
 30
0.0
  3
AVE_RENDER
  1
AVE_RENDER
  0
ENDBLK
  5
93
330
91
100
AcDbEntity
  8
0
100
AcDbBlockEnd
  0
BLOCK
  5
A0
330
9F
100
AcDbEntity
  8
ASHADE
100
AcDbBlockBegin
  2
AVE_GLOBAL
 70
     0
 10
0.0
 20
0.0
 30
0.0
  3
AVE_GLOBAL
  1
AVE_GLOBAL
  0
ENDBLK
  5
A1
330
9F
100
AcDbEntity
  8
0
100
AcDbBlockEnd
  0
ENDSEC
  0
SECTION
  2
ENTITIES
  0
INSERT
  5
94
330
1F
100
AcDbEntity
  8
ASHADE
 62
     1
100
AcDbBlockReference
  2
AVE_RENDER
 10
0.0
 20
0.0
 30
0.0
1001
AVE_RENDER
1002
{
1070
     7
1000
Pref
1070
    30
1070
    20
1070
     1
1070
     0
1000

1070
    10
1070
     1
1070
    10
1040
1.0
1070
     1
1040
0.3
1040
0.7
1040
0.0
1040
10.0
1010
-1.0
1020
-1.0
1030
-1.0
1040
0.3
1070
    49
1070
     0
1070
     0
1010
1.0
1020
1.0
1030
1.0
1040
45.0
1070
     1
1070
     0
1000
WCS
1040
0.0
1070
     0
1040
10.0
1002
}
  0
INSERT
  5
95
330
1F
100
AcDbEntity
  8
ASHADE
 62
     3
100
AcDbBlockReference
  2
AVE_RENDER
 10
0.0
 20
0.0
 30
0.0
1001
AVE_RENDER
1002
{
1070
     0
1000
Full Opt
1070
     0
1070
     1
1070
     1
1070
     1
1070
     0
1070
     0
1070
     0
1070
     1
1070
     1
1040
0.0001
1040
0.0001
1002
}
  0
INSERT
  5
96
330
1F
100
AcDbEntity
  8
ASHADE
 62
     4
100
AcDbBlockReference
  2
AVE_RENDER
 10
0.0
 20
0.0
 30
0.0
1001
AVE_RENDER
1002
{
1070
     0
1000
Quick Opt
1070
     0
1070
     1
1070
     1
1070
     1
1070
     0
1070
     0
1070
     1
1002
}
  0
INSERT
  5
97
330
1F
100
AcDbEntity
  8
ASHADE
 62
     5
100
AcDbBlockReference
  2
AVE_RENDER
 10
0.0
 20
0.0
 30
0.0
1001
AVE_RENDER
1002
{
1070
     1
1000
Scanl Opt
1070
     2
1070
     0
1070
     2
1040
2.0
1040
4.0
1070
     0
1070
     1
1070
     0
1040
0.03
1002
}
  0
INSERT
  5
98
330
1F
100
AcDbEntity
  8
ASHADE
 62
     6
100
AcDbBlockReference
  2
AVE_RENDER
 10
0.0
 20
0.0
 30
0.0
1001
AVE_RENDER
1002
{
1070
     2
1000
Raytr Opt
1070
     2
1070
     0
1070
     2
1040
2.0
1040
4.0
1070
     0
1070
     1
1070
     1
1040
0.03
1070
     3
1040
0.03
1002
}
  0
INSERT
  5
99
330
1F
100
AcDbEntity
  8
ASHADE
 62
     7
100
AcDbBlockReference
  2
AVE_RENDER
 10
0.0
 20
0.0
 30
0.0
1001
AVE_RENDER
1002
{
1070
     0
1000
RFile Opt
1070
     1
1070
   640
1070
   480
1070
 10000
1070
     1
1070
     8
1070
     8
1070
     0
1070
     0
1070
     0
1070
     0
1070
     0
1070
     0
1070
     0
1002
}
  0
INSERT
  5
9A
330
1F
100
AcDbEntity
  8
ASHADE
 62
     8
100
AcDbBlockReference
  2
AVE_RENDER
 10
0.0
 20
0.0
 30
0.0
1001
AVE_RENDER
1002
{
1070
     0
1000
Fog Opt
1070
     0
1070
     0
1040
0.0
1040
1.0
1040
0.0
1040
1.0
1010
0.5
1020
0.5
1030
0.5
1002
}
  0
INSERT
  5
9B
330
1F
100
AcDbEntity
  8
ASHADE
 62
     9
100
AcDbBlockReference
  2
AVE_RENDER
 10
0.0
 20
0.0
 30
0.0
1001
AVE_RENDER
1002
{
1070
     0
1000
BG Opt
1070
     0
1070
     1
1010
0.0
1020
0.0
1030
0.0
1010
1.0
1020
0.0
1030
0.0
1010
0.0
1020
1.0
1030
0.0
1010
0.0
1020
0.0
1030
1.0
1040
0.5
1040
0.33
1040
0.0
1000

1070
     1
1000

1070
     1
1070
     1
1040
1.0
1040
1.0
1040
0.0
1040
0.0
1070
     0
1002
}
  0
INSERT
  5
A2
330
1F
100
AcDbEntity
  8
ASHADE
 62
     1
100
AcDbBlockReference
  2
AVE_GLOBAL
 10
0.0
 20
0.0
 30
0.0
1001
AVE_MATERIAL
1002
{
1000
*GLOBAL*
1000
2
1000
Global finish.
1002
{
1002
}
1002
{
1070
    63
1002
{
1002
{
1010
-1.0
1020
-1.0
1030
-1.0
1002
}
1040
0.1000000014901161
1000

1040
0.0
1002
{
1002
}
1040
0.0
1002
{
1002
}
1040
0.0
1002
}
1002
{
1002
{
1010
-1.0
1020
-1.0
1030
-1.0
1002
}
1040
0.6999999880790711
1000

1040
0.0
1002
{
1002
}
1040
0.0
1002
{
1002
}
1040
0.0
1002
}
1002
{
1002
{
1010
-1.0
1020
-1.0
1030
-1.0
1002
}
1040
0.2000000029802322
1000

1040
0.0
1002
{
1002
}
1040
0.0
1002
{
1002
}
1040
0.0
1002
}
1002
{
1070
     0
1002
{
1070
     1
1002
{
1040
1.0
1040
1.0
1000

1040
0.0
1002
{
1002
}
1040
0.0
1002
{
1002
}
1040
0.0
1002
}
1002
}
1040
1.0
1040
0.0
1040
0.0
1002
}
1002
{
1040
1.0
1040
1.0
1000

1040
0.0
1002
{
1002
}
1040
0.0
1002
{
1002
}
1040
0.0
1002
}
1002
{
1040
0.5
1040
1.0
1000

1040
0.0
1002
{
1002
}
1040
0.0
1002
{
1002
}
1040
0.0
1002
}
1002
{
1070
     0
1040
0.0
1002
{
1002
}
1040
1.0
1002
{
1002
}
1040
0.0
1002
}
1002
{
1040
0.0
1002
{
1002
{
1010
0.0
1020
0.0
1030
0.0
1002
}
1040
1.0
1000

1040
0.0
1002
{
1002
}
1040
0.0
1002
{
1002
}
1040
0.0
1002
}
1002
}
1002
{
1002
{
1070
     1
1002
{
1040
0.0
1040
1.0
1000

1040
0.0
1002
{
1002
}
1040
0.0
1002
{
1002
}
1040
0.0
1002
}
1002
}
1040
0.0
1002
{
1002
}
1010
1.0
1020
0.0
1030
0.0
1010
0.0
1020
1.0
1030
0.0
1010
0.0
1020
0.0
1030
1.0
1070
     0
1002
}
1002
{
1002
{
1040
1.0
1040
1.0
1002
{
1070
     1
1002
{
1040
1.0
1040
1.0
1000

1040
0.0
1002
{
1002
}
1040
0.0
1002
{
1002
}
1040
0.0
1002
}
1002
}
1002
}
1070
     0
1040
0.0
1002
{
1002
}
1002
}
1002
{
1002
}
1002
}
1002
{
1071
        3
1070
     3
1070
     0
1002
{
1070
     2
1070
     0
1070
     0
1040
0.0
1002
}
1070
     0
1070
     2
1002
{
1002
}
1002
}
1002
{
1040
8030.0
1040
190.3000030517578
1040
0.3050000071525574
1040
228.0
1040
545.0
1040
14.0
1040
17.39999961853027
1040
0.4560000002384186
1002
}
1002
}
  0
POLYLINE
  5
FC
330
1F
100
AcDbEntity
  8
0
 62
   121
420
 10085590
100
AcDbPolyFaceMesh
 66
     1
 10
0.0
 20
0.0
 30
0.0
 70
    64
 71
   354
 72
   696
  0
VERTEX
  5
FD
330
FC
100
AcDbEntity
  8
0
 62
   121
420
 10085590
100
AcDbVertex
100
AcDbPolyFaceMeshVertex
 10
-8.569007873535156
 20
-8.126589775085449
 30
-0.0578274019062519
 70
   192
  0
VERTEX
  5
FE
330
FC
100
AcDbEntity
  8
0
 62
   121
420
 10085590
100
AcDbVertex
100
AcDbPolyFaceMeshVertex
 10
-7.648665904998779
 20
-8.139444351196289
 30
-0.0708238184452057
 70
   192
  0
VERTEX
  5
FF
330
FC
100
AcDbEntity
  8
0
 62
   121
420
 10085590
100
AcDbVertex
100
AcDbPolyFaceMeshVertex
 10
-2.225233316421508
 20
-8.139444351196289
 30
-0.0708238184452057
 70
   192
  0
VERTEX
  5
100
330
FC
100
AcDbEntity
  8
0
 62
   121
420
 10085590
100
AcDbVertex
100
AcDbPolyFaceMeshVertex
 10
0.9180002212524414
 20
-8.139444351196289
 30
-0.0708238184452057
 70
   192
  0
VERTEX
  5
101
330
FC
100
AcDbEntity
  8
0
 62
   121
420
 10085590
100
AcDbVertex
100
AcDbPolyFaceMeshVertex
 10
4.061233520507812
 20
-8.139444351196289
 30
-0.0708238184452057
 70
   192
  0
VERTEX
  5
102
330
FC
100
AcDbEntity
  8
0
 62
   121
420
 10085590
100
AcDbVertex
100
AcDbPolyFaceMeshVertex
 10
9.476396560668945
 20
-8.139444351196289
 30
-0.0708238184452057
 70
   192
  0
VERTEX
  5
103
330
FC
100
AcDbEntity
  8
0
 62
   121
420
 10085590
100
AcDbVertex
100
AcDbPolyFaceMeshVertex
 10
10.40500831604004
 20
-8.126589775085449
 30
-0.0578273981809616
 70
   192
  0
VERTEX
  5
104
330
FC
100
AcDbEntity
  8
0
 62
   121
420
 10085590
100
AcDbVertex
100
AcDbPolyFaceMeshVertex
 10
-8.581888198852539
 20
-7.199501037597656
 30
-0.0708238184452057
 70
   192
  0
VERTEX
  5
105
330
FC
100
AcDbEntity
  8
0
 62
   121
420
 10085590
100
AcDbVertex
100
AcDbPolyFaceMeshVertex
 10
-7.648665904998779
 20
-7.199501037597656
 30
-0.1001600027084351
 70
   192
  0
VERTEX
  5
106
330
FC
100
AcDbEntity
  8
0
 62
   121
420
 10085590
100
AcDbVertex
100
AcDbPolyFaceMeshVertex
 10
-2.225233316421508
 20
-7.199501037597656
 30
-0.1001600027084351
 70
   192
  0
VERTEX
  5
107
330
FC
100
AcDbEntity
  8
0
 62
   121
420
 10085590
100
AcDbVertex
100
AcDbPolyFaceMeshVertex
 10
0.9180002212524414
 20
-7.199501037597656
 30
-0.1001600027084351
 70
   192
  0
VERTEX
  5
108
330
FC
100
AcDbEntity
  8
0
 62
   121
420
 10085590
100
AcDbVertex
100
AcDbPolyFaceMeshVertex
 10
4.061233520507812
 20
-7.199501037597656
 30
-0.1001600027084351
 70
   192
  0
VERTEX
  5
109
330
FC
100
AcDbEntity
  8
0
 62
   121
420
 10085590
100
AcDbVertex
100
AcDbPolyFaceMeshVertex
 10
9.476396560668945
 20
-7.199501037597656
 30
-0.1001600027084351
 70
   192
  0
VERTEX
  5
10A
330
FC
100
AcDbEntity
  8
0
 62
   121
420
 10085590
100
AcDbVertex
100
AcDbPolyFaceMeshVertex
 10
10.41788864135742
 20
-7.199501037597656
 30
-0.0708238407969475
 70
   192
  0
VERTEX
  5
10B
330
FC
100
AcDbEntity
  8
0
 62
   121
420
 10085590
100
AcDbVertex
100
AcDbPolyFaceMeshVertex
 10
-8.581888198852539
 20
-3.116144657135009
 30
-0.0708238184452057
 70
   192
  0
VERTEX
  5
10C
330
FC
100
AcDbEntity
  8
0
 62
   121
420
 10085590
100
AcDbVertex
100
AcDbPolyFaceMeshVertex
 10
-7.648665904998779
 20
-3.116144657135009
 30
-0.1001600027084351
 70
   192
  0
VERTEX
  5
10D
330
FC
100
AcDbEntity
  8
0
 62
   121
420
 10085590
100
AcDbVertex
100
AcDbPolyFaceMeshVertex
 10
9.476396560668945
 20
-3.116144657135009
 30
-0.1001600027084351
 70
   192
  0
VERTEX
  5
10E
330
FC
100
AcDbEntity
  8
0
 62
   121
420
 10085590
100
AcDbVertex
100
AcDbPolyFaceMeshVertex
 10
10.41788864135742
 20
-3.116144657135009
 30
-0.0708238184452057
 70
   192
  0
VERTEX
  5
10F
330
FC
100
AcDbEntity
  8
0
 62
   121
420
 10085590
100
AcDbVertex
100
AcDbPolyFaceMeshVertex
 10
-8.581888198852539
 20
-0.6395195722579956
 30
-0.0708238184452057
 70
   192
  0
VERTEX
  5
110
330
FC
100
AcDbEntity
  8
0
 62
   121
420
 10085590
100
AcDbVertex
100
AcDbPolyFaceMeshVertex
 10
-7.648665904998779
 20
-0.6395195722579956
 30
-0.1001600027084351
 70
   192
  0
VERTEX
  5
111
330
FC
100
AcDbEntity
  8
0
 62
   121
420
 10085590
100
AcDbVertex
100
AcDbPolyFaceMeshVertex
 10
9.476396560668945
 20
-0.6395195722579956
 30
-0.1001600027084351
 70
   192
  0
VERTEX
  5
112
330
FC
100
AcDbEntity
  8
0
 62
   121
420
 10085590
100
AcDbVertex
100
AcDbPolyFaceMeshVertex
 10
10.41788864135742
 20
-0.6395195722579956
 30
-0.0708238184452057
 70
   192
  0
VERTEX
  5
113
330
FC
100
AcDbEntity
  8
0
 62
   121
420
 10085590
100
AcDbVertex
100
AcDbPolyFaceMeshVertex
 10
-8.581888198852539
 20
1.837105393409729
 30
-0.0708238184452057
 70
   192
  0
VERTEX
  5
114
330
FC
100
AcDbEntity
  8
0
 62
   121
420
 10085590
100
AcDbVertex
100
AcDbPolyFaceMeshVertex
 10
-7.648665904998779
 20
1.837105393409729
 30
-0.1001600027084351
 70
   192
  0
VERTEX
  5
115
330
FC
100
AcDbEntity
  8
0
 62
   121
420
 10085590
100
AcDbVertex
100
AcDbPolyFaceMeshVertex
 10
9.476396560668945
 20
1.837105393409729
 30
-0.1001600027084351
 70
   192
  0
VERTEX
  5
116
330
FC
100
AcDbEntity
  8
0
 62
   121
420
 10085590
100
AcDbVertex
100
AcDbPolyFaceMeshVertex
 10
10.41788864135742
 20
1.837105393409729
 30
-0.0708238184452057
 70
   192
  0
VERTEX
  5
117
330
FC
100
AcDbEntity
  8
0
 62
   121
420
 10085590
100
AcDbVertex
100
AcDbPolyFaceMeshVertex
 10
-8.581888198852539
 20
6.033227920532226
 30
-0.0708238184452057
 70
   192
  0
VERTEX
  5
118
330
FC
100
AcDbEntity
  8
0
 62
   121
420
 10085590
100
AcDbVertex
100
AcDbPolyFaceMeshVertex
 10
-7.648665904998779
 20
6.033227920532226
 30
-0.1001600027084351
 70
   192
  0
VERTEX
  5
119
330
FC
100
AcDbEntity
  8
0
 62
   121
420
 10085590
100
AcDbVertex
100
AcDbPolyFaceMeshVertex
 10
-2.225233316421508
 20
6.033227920532226
 30
-0.1001600027084351
 70
   192
  0
VERTEX
  5
11A
330
FC
100
AcDbEntity
  8
0
 62
   121
420
 10085590
100
AcDbVertex
100
AcDbPolyFaceMeshVertex
 10
0.9180002212524414
 20
6.033227920532226
 30
-0.1001600027084351
 70
   192
  0
VERTEX
  5
11B
330
FC
100
AcDbEntity
  8
0
 62
   121
420
 10085590
100
AcDbVertex
100
AcDbPolyFaceMeshVertex
 10
4.061233520507812
 20
6.033227920532226
 30
-0.1001600027084351
 70
   192
  0
VERTEX
  5
11C
330
FC
100
AcDbEntity
  8
0
 62
   121
420
 10085590
100
AcDbVertex
100
AcDbPolyFaceMeshVertex
 10
9.476396560668945
 20
6.033227920532226
 30
-0.1001600027084351
 70
   192
  0
VERTEX
  5
11D
330
FC
100
AcDbEntity
  8
0
 62
   121
420
 10085590
100
AcDbVertex
100
AcDbPolyFaceMeshVertex
 10
10.41788864135742
 20
6.033227920532226
 30
-0.0708238333463669
 70
   192
  0
VERTEX
  5
11E
330
FC
100
AcDbEntity
  8
0
 62
   121
420
 10085590
100
AcDbVertex
100
AcDbPolyFaceMeshVertex
 10
-8.569007873535156
 20
6.847550392150878
 30
-0.0578274019062519
 70
   192
  0
VERTEX
  5
11F
330
FC
100
AcDbEntity
  8
0
 62
   121
420
 10085590
100
AcDbVertex
100
AcDbPolyFaceMeshVertex
 10
-7.648665904998779
 20
6.860404968261718
 30
-0.0708238184452057
 70
   192
  0
VERTEX
  5
120
330
FC
100
AcDbEntity
  8
0
 62
   121
420
 10085590
100
AcDbVertex
100
AcDbPolyFaceMeshVertex
 10
-2.225233316421508
 20
6.860404968261718
 30
-0.0708238184452057
 70
   192
  0
VERTEX
  5
121
330
FC
100
AcDbEntity
  8
0
 62
   121
420
 10085590
100
AcDbVertex
100
AcDbPolyFaceMeshVertex
 10
0.9180002212524414
 20
6.860404968261718
 30
-0.0708238184452057
 70
   192
  0
VERTEX
  5
122
330
FC
100
AcDbEntity
  8
0
 62
   121
420
 10085590
100
AcDbVertex
100
AcDbPolyFaceMeshVertex
 10
4.061233520507812
 20
6.860404968261718
 30
-0.0708238184452057
 70
   192
  0
VERTEX
  5
123
330
FC
100
AcDbEntity
  8
0
 62
   121
420
 10085590
100
AcDbVertex
100
AcDbPolyFaceMeshVertex
 10
9.476396560668945
 20
6.860404968261718
 30
-0.0708238184452057
 70
   192
  0
VERTEX
  5
124
330
FC
100
AcDbEntity
  8
0
 62
   121
420
 10085590
100
AcDbVertex
100
AcDbPolyFaceMeshVertex
 10
10.40500831604004
 20
6.847550392150878
 30
-0.0578273981809616
 70
   192
  0
VERTEX
  5
125
330
FC
100
AcDbEntity
  8
0
 62
   121
420
 10085590
100
AcDbVertex
100
AcDbPolyFaceMeshVertex
 10
-8.568052291870117
 20
-8.125627517700195
 30
0.3673188090324402
 70
   192
  0
VERTEX
  5
126
330
FC
100
AcDbEntity
  8
0
 62
   121
420
 10085590
100
AcDbVertex
100
AcDbPolyFaceMeshVertex
 10
-7.648665904998779
 20
-8.135909080505371
 30
0.3818268477916717
 70
   192
  0
VERTEX
  5
127
330
FC
100
AcDbEntity
  8
0
 62
   121
420
 10085590
100
AcDbVertex
100
AcDbPolyFaceMeshVertex
 10
-2.225233316421508
 20
-8.135909080505371
 30
0.3818268477916717
 70
   192
  0
VERTEX
  5
128
330
FC
100
AcDbEntity
  8
0
 62
   121
420
 10085590
100
AcDbVertex
100
AcDbPolyFaceMeshVertex
 10
0.9180002212524414
 20
-8.135909080505371
 30
0.3818268179893494
 70
   192
  0
VERTEX
  5
129
330
FC
100
AcDbEntity
  8
0
 62
   121
420
 10085590
100
AcDbVertex
100
AcDbPolyFaceMeshVertex
 10
4.061233520507812
 20
-8.135909080505371
 30
0.3818268179893494
 70
   192
  0
VERTEX
  5
12A
330
FC
100
AcDbEntity
  8
0
 62
   121
420
 10085590
100
AcDbVertex
100
AcDbPolyFaceMeshVertex
 10
9.474599838256835
 20
-8.136818885803222
 30
0.3809601664543152
 70
   192
  0
VERTEX
  5
12B
330
FC
100
AcDbEntity
  8
0
 62
   121
420
 10085590
100
AcDbVertex
100
AcDbPolyFaceMeshVertex
 10
10.40500831604004
 20
-8.126589775085449
 30
0.3654281497001648
 70
   192
  0
VERTEX
  5
12C
330
FC
100
AcDbEntity
  8
0
 62
   121
420
 10085590
100
AcDbVertex
100
AcDbPolyFaceMeshVertex
 10
-8.578310012817382
 20
-7.199501037597656
 30
0.3818595111370087
 70
   192
  0
VERTEX
  5
12D
330
FC
100
AcDbEntity
  8
0
 62
   121
420
 10085590
100
AcDbVertex
100
AcDbPolyFaceMeshVertex
 10
-7.624770641326904
 20
-7.176519870758056
 30
0.3150455951690674
 70
   192
  0
VERTEX
  5
12E
330
FC
100
AcDbEntity
  8
0
 62
   121
420
 10085590
100
AcDbVertex
100
AcDbPolyFaceMeshVertex
 10
-2.225233554840087
 20
-7.137310028076171
 30
0.2986124753952026
 70
   192
  0
VERTEX
  5
12F
330
FC
100
AcDbEntity
  8
0
 62
   121
420
 10085590
100
AcDbVertex
100
AcDbPolyFaceMeshVertex
 10
0.9180002212524414
 20
-7.137310028076171
 30
0.2986124753952026
 70
   192
  0
VERTEX
  5
130
330
FC
100
AcDbEntity
  8
0
 62
   121
420
 10085590
100
AcDbVertex
100
AcDbPolyFaceMeshVertex
 10
4.061233520507812
 20
-7.137310028076171
 30
0.2986124753952026
 70
   192
  0
VERTEX
  5
131
330
FC
100
AcDbEntity
  8
0
 62
   121
420
 10085590
100
AcDbVertex
100
AcDbPolyFaceMeshVertex
 10
9.451370239257812
 20
-7.175333499908447
 30
0.3144426047801971
 70
   192
  0
VERTEX
  5
132
330
FC
100
AcDbEntity
  8
0
 62
   121
420
 10085590
100
AcDbVertex
100
AcDbPolyFaceMeshVertex
 10
10.41525650024414
 20
-7.197707653045654
 30
0.3809614181518555
 70
   192
  0
VERTEX
  5
133
330
FC
100
AcDbEntity
  8
0
 62
   121
420
 10085590
100
AcDbVertex
100
AcDbPolyFaceMeshVertex
 10
-8.578310012817382
 20
-3.116144657135009
 30
0.3818595111370087
 70
   192
  0
VERTEX
  5
134
330
FC
100
AcDbEntity
  8
0
 62
   121
420
 10085590
100
AcDbVertex
100
AcDbPolyFaceMeshVertex
 10
-7.589644908905029
 20
-3.116144657135009
 30
0.3011790215969086
 70
   192
  0
VERTEX
  5
135
330
FC
100
AcDbEntity
  8
0
 62
   121
420
 10085590
100
AcDbVertex
100
AcDbPolyFaceMeshVertex
 10
-0.2945127487182617
 20
-1.585410356521606
 30
-5.795038223266601
 70
   192
  0
VERTEX
  5
136
330
FC
100
AcDbEntity
  8
0
 62
   121
420
 10085590
100
AcDbVertex
100
AcDbPolyFaceMeshVertex
 10
0.9173431396484375
 20
-1.585410356521606
 30
-5.795038223266601
 70
   192
  0
VERTEX
  5
137
330
FC
100
AcDbEntity
  8
0
 62
   121
420
 10085590
100
AcDbVertex
100
AcDbPolyFaceMeshVertex
 10
2.129198551177978
 20
-1.585410356521606
 30
-5.795038223266601
 70
   192
  0
VERTEX
  5
138
330
FC
100
AcDbEntity
  8
0
 62
   121
420
 10085590
100
AcDbVertex
100
AcDbPolyFaceMeshVertex
 10
9.417404174804687
 20
-3.116144657135009
 30
0.3012002408504486
 70
   192
  0
VERTEX
  5
139
330
FC
100
AcDbEntity
  8
0
 62
   121
420
 10085590
100
AcDbVertex
100
AcDbPolyFaceMeshVertex
 10
10.41434478759765
 20
-3.116144657135009
 30
0.3818279802799225
 70
   192
  0
VERTEX
  5
13A
330
FC
100
AcDbEntity
  8
0
 62
   121
420
 10085590
100
AcDbVertex
100
AcDbPolyFaceMeshVertex
 10
-8.578310012817382
 20
-0.6395195722579956
 30
0.3818595111370087
 70
   192
  0
VERTEX
  5
13B
330
FC
100
AcDbEntity
  8
0
 62
   121
420
 10085590
100
AcDbVertex
100
AcDbPolyFaceMeshVertex
 10
-7.589644908905029
 20
-0.6395195722579956
 30
0.3011790215969086
 70
   192
  0
VERTEX
  5
13C
330
FC
100
AcDbEntity
  8
0
 62
   121
420
 10085590
100
AcDbVertex
100
AcDbPolyFaceMeshVertex
 10
-0.2945127487182617
 20
-0.6305617690086365
 30
-5.795038223266601
 70
   192
  0
VERTEX
  5
13D
330
FC
100
AcDbEntity
  8
0
 62
   121
420
 10085590
100
AcDbVertex
100
AcDbPolyFaceMeshVertex
 10
0.9173431396484375
 20
-0.6305617690086365
 30
-5.795038223266601
 70
   192
  0
VERTEX
  5
13E
330
FC
100
AcDbEntity
  8
0
 62
   121
420
 10085590
100
AcDbVertex
100
AcDbPolyFaceMeshVertex
 10
2.129198551177978
 20
-0.6305617690086365
 30
-5.795038223266601
 70
   192
  0
VERTEX
  5
13F
330
FC
100
AcDbEntity
  8
0
 62
   121
420
 10085590
100
AcDbVertex
100
AcDbPolyFaceMeshVertex
 10
9.417404174804687
 20
-0.6395195722579956
 30
0.3012002408504486
 70
   192
  0
VERTEX
  5
140
330
FC
100
AcDbEntity
  8
0
 62
   121
420
 10085590
100
AcDbVertex
100
AcDbPolyFaceMeshVertex
 10
10.41434478759765
 20
-0.6395195722579956
 30
0.3818279504776001
 70
   192
  0
VERTEX
  5
141
330
FC
100
AcDbEntity
  8
0
 62
   121
420
 10085590
100
AcDbVertex
100
AcDbPolyFaceMeshVertex
 10
-8.578310012817382
 20
1.837105393409729
 30
0.3818595111370087
 70
   192
  0
VERTEX
  5
142
330
FC
100
AcDbEntity
  8
0
 62
   121
420
 10085590
100
AcDbVertex
100
AcDbPolyFaceMeshVertex
 10
-7.589644908905029
 20
1.837105393409729
 30
0.3011790215969086
 70
   192
  0
VERTEX
  5
143
330
FC
100
AcDbEntity
  8
0
 62
   121
420
 10085590
100
AcDbVertex
100
AcDbPolyFaceMeshVertex
 10
-0.2945127487182617
 20
0.3242867588996887
 30
-5.795038223266601
 70
   192
  0
VERTEX
  5
144
330
FC
100
AcDbEntity
  8
0
 62
   121
420
 10085590
100
AcDbVertex
100
AcDbPolyFaceMeshVertex
 10
0.9173431396484375
 20
0.3242867588996887
 30
-5.795038223266601
 70
   192
  0
VERTEX
  5
145
330
FC
100
AcDbEntity
  8
0
 62
   121
420
 10085590
100
AcDbVertex
100
AcDbPolyFaceMeshVertex
 10
2.129198551177978
 20
0.3242867588996887
 30
-5.795038223266601
 70
   192
  0
VERTEX
  5
146
330
FC
100
AcDbEntity
  8
0
 62
   121
420
 10085590
100
AcDbVertex
100
AcDbPolyFaceMeshVertex
 10
9.417404174804687
 20
1.837105393409729
 30
0.3012002408504486
 70
   192
  0
VERTEX
  5
147
330
FC
100
AcDbEntity
  8
0
 62
   121
420
 10085590
100
AcDbVertex
100
AcDbPolyFaceMeshVertex
 10
10.41434478759765
 20
1.837105393409729
 30
0.3818279504776001
 70
   192
  0
VERTEX
  5
148
330
FC
100
AcDbEntity
  8
0
 62
   121
420
 10085590
100
AcDbVertex
100
AcDbPolyFaceMeshVertex
 10
-8.579307556152343
 20
6.031338214874267
 30
0.3809117078781128
 70
   192
  0
VERTEX
  5
149
330
FC
100
AcDbEntity
  8
0
 62
   121
420
 10085590
100
AcDbVertex
100
AcDbPolyFaceMeshVertex
 10
-7.623676776885986
 20
6.00835371017456
 30
0.3142636120319366
 70
   192
  0
VERTEX
  5
14A
330
FC
100
AcDbEntity
  8
0
 62
   121
420
 10085590
100
AcDbVertex
100
AcDbPolyFaceMeshVertex
 10
-2.225233554840087
 20
5.970602989196777
 30
0.2982562780380249
 70
   192
  0
VERTEX
  5
14B
330
FC
100
AcDbEntity
  8
0
 62
   121
420
 10085590
100
AcDbVertex
100
AcDbPolyFaceMeshVertex
 10
0.9180002212524414
 20
5.970602989196777
 30
0.2982562780380249
 70
   192
  0
VERTEX
  5
14C
330
FC
100
AcDbEntity
  8
0
 62
   121
420
 10085590
100
AcDbVertex
100
AcDbPolyFaceMeshVertex
 10
4.061233520507812
 20
5.970602989196777
 30
0.2982562780380249
 70
   192
  0
VERTEX
  5
14D
330
FC
100
AcDbEntity
  8
0
 62
   121
420
 10085590
100
AcDbVertex
100
AcDbPolyFaceMeshVertex
 10
9.452728271484375
 20
6.009567260742187
 30
0.3149320781230926
 70
   192
  0
VERTEX
  5
14E
330
FC
100
AcDbEntity
  8
0
 62
   121
420
 10085590
100
AcDbVertex
100
AcDbPolyFaceMeshVertex
 10
10.41434288024902
 20
6.033227920532226
 30
0.3818279802799225
 70
   192
  0
VERTEX
  5
14F
330
FC
100
AcDbEntity
  8
0
 62
   121
420
 10085590
100
AcDbVertex
100
AcDbPolyFaceMeshVertex
 10
-8.569007873535156
 20
6.847550392150878
 30
0.3654281497001648
 70
   192
  0
VERTEX
  5
150
330
FC
100
AcDbEntity
  8
0
 62
   121
420
 10085590
100
AcDbVertex
100
AcDbPolyFaceMeshVertex
 10
-7.646690845489501
 20
6.857299327850341
 30
0.3814038038253784
 70
   192
  0
VERTEX
  5
151
330
FC
100
AcDbEntity
  8
0
 62
   121
420
 10085590
100
AcDbVertex
100
AcDbPolyFaceMeshVertex
 10
-2.225233316421508
 20
6.856333255767822
 30
0.3823144435882568
 70
   192
  0
VERTEX
  5
152
330
FC
100
AcDbEntity
  8
0
 62
   121
420
 10085590
100
AcDbVertex
100
AcDbPolyFaceMeshVertex
 10
0.9180002212524414
 20
6.856333255767822
 30
0.3823144435882568
 70
   192
  0
VERTEX
  5
153
330
FC
100
AcDbEntity
  8
0
 62
   121
420
 10085590
100
AcDbVertex
100
AcDbPolyFaceMeshVertex
 10
4.061233520507812
 20
6.856333255767822
 30
0.3823144435882568
 70
   192
  0
VERTEX
  5
154
330
FC
100
AcDbEntity
  8
0
 62
   121
420
 10085590
100
AcDbVertex
100
AcDbPolyFaceMeshVertex
 10
9.476396560668945
 20
6.856333255767822
 30
0.3823144435882568
 70
   192
  0
VERTEX
  5
155
330
FC
100
AcDbEntity
  8
0
 62
   121
420
 10085590
100
AcDbVertex
100
AcDbPolyFaceMeshVertex
 10
10.40392875671386
 20
6.846590042114257
 30
0.3674358129501343
 70
   192
  0
VERTEX
  5
156
330
FC
100
AcDbEntity
  8
0
 62
   121
420
 10085590
100
AcDbVertex
100
AcDbPolyFaceMeshVertex
 10
-5.804691314697265
 20
-5.768378257751464
 30
-3.109584808349609
 70
   192
  0
VERTEX
  5
157
330
FC
100
AcDbEntity
  8
0
 62
   121
420
 10085590
100
AcDbVertex
100
AcDbPolyFaceMeshVertex
 10
-1.56852102279663
 20
-5.739563465118408
 30
-3.12014365196228
 70
   192
  0
VERTEX
  5
158
330
FC
100
AcDbEntity
  8
0
 62
   121
420
 10085590
100
AcDbVertex
100
AcDbPolyFaceMeshVertex
 10
0.9177011251449584
 20
-5.739563465118408
 30
-3.12014365196228
 70
   192
  0
VERTEX
  5
159
330
FC
100
AcDbEntity
  8
0
 62
   121
420
 10085590
100
AcDbVertex
100
AcDbPolyFaceMeshVertex
 10
3.403922319412231
 20
-5.739563465118408
 30
-3.12014365196228
 70
   192
  0
VERTEX
  5
15A
330
FC
100
AcDbEntity
  8
0
 62
   121
420
 10085590
100
AcDbVertex
100
AcDbPolyFaceMeshVertex
 10
7.633540153503417
 20
-5.768375396728515
 30
-3.109596252441406
 70
   192
  0
VERTEX
  5
15B
330
FC
100
AcDbEntity
  8
0
 62
   121
420
 10085590
100
AcDbVertex
100
AcDbPolyFaceMeshVertex
 10
-5.779515266418457
 20
-2.594390869140625
 30
-3.111259937286376
 70
   192
  0
VERTEX
  5
15C
330
FC
100
AcDbEntity
  8
0
 62
   121
420
 10085590
100
AcDbVertex
100
AcDbPolyFaceMeshVertex
 10
7.608356475830078
 20
-2.594390869140625
 30
-3.111283302307128
 70
   192
  0
VERTEX
  5
15D
330
FC
100
AcDbEntity
  8
0
 62
   121
420
 10085590
100
AcDbVertex
100
AcDbPolyFaceMeshVertex
 10
-5.779515266418457
 20
-0.6354406476020813
 30
-3.111259937286376
 70
   192
  0
VERTEX
  5
15E
330
FC
100
AcDbEntity
  8
0
 62
   121
420
 10085590
100
AcDbVertex
100
AcDbPolyFaceMeshVertex
 10
7.608356475830078
 20
-0.6354406476020813
 30
-3.111283302307128
 70
   192
  0
VERTEX
  5
15F
330
FC
100
AcDbEntity
  8
0
 62
   121
420
 10085590
100
AcDbVertex
100
AcDbPolyFaceMeshVertex
 10
-5.779515266418457
 20
1.323509931564331
 30
-3.111259460449218
 70
   192
  0
VERTEX
  5
160
330
FC
100
AcDbEntity
  8
0
 62
   121
420
 10085590
100
AcDbVertex
100
AcDbPolyFaceMeshVertex
 10
7.608356475830078
 20
1.323509931564331
 30
-3.11128282546997
 70
   192
  0
VERTEX
  5
161
330
FC
100
AcDbEntity
  8
0
 62
   121
420
 10085590
100
AcDbVertex
100
AcDbPolyFaceMeshVertex
 10
-5.804745197296142
 20
4.586820125579833
 30
-3.109423875808715
 70
   192
  0
VERTEX
  5
162
330
FC
100
AcDbEntity
  8
0
 62
   121
420
 10085590
100
AcDbVertex
100
AcDbPolyFaceMeshVertex
 10
-1.56852102279663
 20
4.558136940002441
 30
-3.119717121124267
 70
   192
  0
VERTEX
  5
163
330
FC
100
AcDbEntity
  8
0
 62
   121
420
 10085590
100
AcDbVertex
100
AcDbPolyFaceMeshVertex
 10
0.9177011251449584
 20
4.558136940002441
 30
-3.119717121124267
 70
   192
  0
VERTEX
  5
164
330
FC
100
AcDbEntity
  8
0
 62
   121
420
 10085590
100
AcDbVertex
100
AcDbPolyFaceMeshVertex
 10
3.403922319412231
 20
4.558136940002441
 30
-3.119717121124267
 70
   192
  0
VERTEX
  5
165
330
FC
100
AcDbEntity
  8
0
 62
   121
420
 10085590
100
AcDbVertex
100
AcDbPolyFaceMeshVertex
 10
7.633594512939453
 20
4.586816310882568
 30
-3.109434843063354
 70
   192
  0
VERTEX
  5
166
330
FC
100
AcDbEntity
  8
0
 62
   121
420
 10085590
100
AcDbVertex
100
AcDbPolyFaceMeshVertex
 10
-2.361162662506103
 20
-3.129003047943115
 30
-5.803194046020507
 70
   192
  0
VERTEX
  5
167
330
FC
100
AcDbEntity
  8
0
 62
   121
420
 10085590
100
AcDbVertex
100
AcDbPolyFaceMeshVertex
 10
-0.2945127487182617
 20
-3.12156867980957
 30
-5.802765846252441
 70
   192
  0
VERTEX
  5
168
330
FC
100
AcDbEntity
  8
0
 62
   121
420
 10085590
100
AcDbVertex
100
AcDbPolyFaceMeshVertex
 10
0.9173431396484375
 20
-3.12156867980957
 30
-5.802765846252441
 70
   192
  0
VERTEX
  5
169
330
FC
100
AcDbEntity
  8
0
 62
   121
420
 10085590
100
AcDbVertex
100
AcDbPolyFaceMeshVertex
 10
2.129198551177978
 20
-3.12156867980957
 30
-5.802765846252441
 70
   192
  0
VERTEX
  5
16A
330
FC
100
AcDbEntity
  8
0
 62
   121
420
 10085590
100
AcDbVertex
100
AcDbPolyFaceMeshVertex
 10
4.192644119262695
 20
-3.129005432128906
 30
-5.803197383880615
 70
   192
  0
VERTEX
  5
16B
330
FC
100
AcDbEntity
  8
0
 62
   121
420
 10085590
100
AcDbVertex
100
AcDbPolyFaceMeshVertex
 10
-2.353293418884277
 20
-1.585410356521606
 30
-5.800452232360839
 70
   192
  0
VERTEX
  5
16C
330
FC
100
AcDbEntity
  8
0
 62
   121
420
 10085590
100
AcDbVertex
100
AcDbPolyFaceMeshVertex
 10
4.184773445129394
 20
-1.585410356521606
 30
-5.800457954406738
 70
   192
  0
VERTEX
  5
16D
330
FC
100
AcDbEntity
  8
0
 62
   121
420
 10085590
100
AcDbVertex
100
AcDbPolyFaceMeshVertex
 10
-2.353293418884277
 20
-0.6305617690086365
 30
-5.800452232360839
 70
   192
  0
VERTEX
  5
16E
330
FC
100
AcDbEntity
  8
0
 62
   121
420
 10085590
100
AcDbVertex
100
AcDbPolyFaceMeshVertex
 10
4.184773445129394
 20
-0.6305617690086365
 30
-5.800457954406738
 70
   192
  0
VERTEX
  5
16F
330
FC
100
AcDbEntity
  8
0
 62
   121
420
 10085590
100
AcDbVertex
100
AcDbPolyFaceMeshVertex
 10
-2.353293418884277
 20
0.3242867588996887
 30
-5.800452232360839
 70
   192
  0
VERTEX
  5
170
330
FC
100
AcDbEntity
  8
0
 62
   121
420
 10085590
100
AcDbVertex
100
AcDbPolyFaceMeshVertex
 10
4.184773445129394
 20
0.3242867588996887
 30
-5.800457954406738
 70
   192
  0
VERTEX
  5
171
330
FC
100
AcDbEntity
  8
0
 62
   121
420
 10085590
100
AcDbVertex
100
AcDbPolyFaceMeshVertex
 10
-2.361135721206665
 20
1.911656022071838
 30
-5.803099155426025
 70
   192
  0
VERTEX
  5
172
330
FC
100
AcDbEntity
  8
0
 62
   121
420
 10085590
100
AcDbVertex
100
AcDbPolyFaceMeshVertex
 10
-0.2945127487182617
 20
1.904228091239929
 30
-5.802637100219726
 70
   192
  0
VERTEX
  5
173
330
FC
100
AcDbEntity
  8
0
 62
   121
420
 10085590
100
AcDbVertex
100
AcDbPolyFaceMeshVertex
 10
0.9173431396484375
 20
1.904228091239929
 30
-5.802637100219726
 70
   192
  0
VERTEX
  5
174
330
FC
100
AcDbEntity
  8
0
 62
   121
420
 10085590
100
AcDbVertex
100
AcDbPolyFaceMeshVertex
 10
2.129198551177978
 20
1.904228091239929
 30
-5.802637100219726
 70
   192
  0
VERTEX
  5
175
330
FC
100
AcDbEntity
  8
0
 62
   121
420
 10085590
100
AcDbVertex
100
AcDbPolyFaceMeshVertex
 10
4.192616939544677
 20
1.911658406257629
 30
-5.803102493286132
 70
   192
  0
VERTEX
  5
176
330
FC
100
AcDbEntity
  8
0
 62
   121
420
 10085590
100
AcDbVertex
100
AcDbPolyFaceMeshVertex
 10
-8.511699676513671
 20
-8.0693941116333
 30
0.0
 70
   192
  0
VERTEX
  5
177
330
FC
100
AcDbEntity
  8
0
 62
   121
420
 10085590
100
AcDbVertex
100
AcDbPolyFaceMeshVertex
 10
-7.648665904998779
 20
-8.0693941116333
 30
0.0
 70
   192
  0
VERTEX
  5
178
330
FC
100
AcDbEntity
  8
0
 62
   121
420
 10085590
100
AcDbVertex
100
AcDbPolyFaceMeshVertex
 10
-2.225233316421508
 20
-8.0693941116333
 30
0.0
 70
   192
  0
VERTEX
  5
179
330
FC
100
AcDbEntity
  8
0
 62
   121
420
 10085590
100
AcDbVertex
100
AcDbPolyFaceMeshVertex
 10
0.9180002212524414
 20
-8.0693941116333
 30
0.0
 70
   192
  0
VERTEX
  5
17A
330
FC
100
AcDbEntity
  8
0
 62
   121
420
 10085590
100
AcDbVertex
100
AcDbPolyFaceMeshVertex
 10
4.061233520507812
 20
-8.0693941116333
 30
0.0
 70
   192
  0
VERTEX
  5
17B
330
FC
100
AcDbEntity
  8
0
 62
   121
420
 10085590
100
AcDbVertex
100
AcDbPolyFaceMeshVertex
 10
9.476396560668945
 20
-8.0693941116333
 30
0.0
 70
   192
  0
VERTEX
  5
17C
330
FC
100
AcDbEntity
  8
0
 62
   121
420
 10085590
100
AcDbVertex
100
AcDbPolyFaceMeshVertex
 10
10.34770011901855
 20
-8.0693941116333
 30
0.0
 70
   192
  0
VERTEX
  5
17D
330
FC
100
AcDbEntity
  8
0
 62
   121
420
 10085590
100
AcDbVertex
100
AcDbPolyFaceMeshVertex
 10
-8.511699676513671
 20
-7.199501037597656
 30
0.0
 70
   192
  0
VERTEX
  5
17E
330
FC
100
AcDbEntity
  8
0
 62
   121
420
 10085590
100
AcDbVertex
100
AcDbPolyFaceMeshVertex
 10
-7.648665904998779
 20
-7.199501037597656
 30
0.0
 70
   192
  0
VERTEX
  5
17F
330
FC
100
AcDbEntity
  8
0
 62
   121
420
 10085590
100
AcDbVertex
100
AcDbPolyFaceMeshVertex
 10
-2.225233316421508
 20
-7.199501037597656
 30
0.0
 70
   192
  0
VERTEX
  5
180
330
FC
100
AcDbEntity
  8
0
 62
   121
420
 10085590
100
AcDbVertex
100
AcDbPolyFaceMeshVertex
 10
0.9180002212524414
 20
-7.199501037597656
 30
0.0
 70
   192
  0
VERTEX
  5
181
330
FC
100
AcDbEntity
  8
0
 62
   121
420
 10085590
100
AcDbVertex
100
AcDbPolyFaceMeshVertex
 10
4.061233520507812
 20
-7.199501037597656
 30
0.0
 70
   192
  0
VERTEX
  5
182
330
FC
100
AcDbEntity
  8
0
 62
   121
420
 10085590
100
AcDbVertex
100
AcDbPolyFaceMeshVertex
 10
9.476396560668945
 20
-7.199501037597656
 30
0.0
 70
   192
  0
VERTEX
  5
183
330
FC
100
AcDbEntity
  8
0
 62
   121
420
 10085590
100
AcDbVertex
100
AcDbPolyFaceMeshVertex
 10
10.34770011901855
 20
-7.199501037597656
 30
0.0
 70
   192
  0
VERTEX
  5
184
330
FC
100
AcDbEntity
  8
0
 62
   121
420
 10085590
100
AcDbVertex
100
AcDbPolyFaceMeshVertex
 10
-8.511699676513671
 20
-3.116144657135009
 30
0.0
 70
   192
  0
VERTEX
  5
185
330
FC
100
AcDbEntity
  8
0
 62
   121
420
 10085590
100
AcDbVertex
100
AcDbPolyFaceMeshVertex
 10
-7.648665904998779
 20
-3.116144657135009
 30
0.0
 70
   192
  0
VERTEX
  5
186
330
FC
100
AcDbEntity
  8
0
 62
   121
420
 10085590
100
AcDbVertex
100
AcDbPolyFaceMeshVertex
 10
9.476396560668945
 20
-3.116144657135009
 30
0.0
 70
   192
  0
VERTEX
  5
187
330
FC
100
AcDbEntity
  8
0
 62
   121
420
 10085590
100
AcDbVertex
100
AcDbPolyFaceMeshVertex
 10
10.34770011901855
 20
-3.116144657135009
 30
0.0
 70
   192
  0
VERTEX
  5
188
330
FC
100
AcDbEntity
  8
0
 62
   121
420
 10085590
100
AcDbVertex
100
AcDbPolyFaceMeshVertex
 10
-8.511699676513671
 20
-0.6395195722579956
 30
0.0
 70
   192
  0
VERTEX
  5
189
330
FC
100
AcDbEntity
  8
0
 62
   121
420
 10085590
100
AcDbVertex
100
AcDbPolyFaceMeshVertex
 10
-7.648665904998779
 20
-0.6395195722579956
 30
0.0
 70
   192
  0
VERTEX
  5
18A
330
FC
100
AcDbEntity
  8
0
 62
   121
420
 10085590
100
AcDbVertex
100
AcDbPolyFaceMeshVertex
 10
9.476396560668945
 20
-0.6395195722579956
 30
0.0
 70
   192
  0
VERTEX
  5
18B
330
FC
100
AcDbEntity
  8
0
 62
   121
420
 10085590
100
AcDbVertex
100
AcDbPolyFaceMeshVertex
 10
10.34770011901855
 20
-0.6395195722579956
 30
0.0
 70
   192
  0
VERTEX
  5
18C
330
FC
100
AcDbEntity
  8
0
 62
   121
420
 10085590
100
AcDbVertex
100
AcDbPolyFaceMeshVertex
 10
-8.511699676513671
 20
1.837105393409729
 30
0.0
 70
   192
  0
VERTEX
  5
18D
330
FC
100
AcDbEntity
  8
0
 62
   121
420
 10085590
100
AcDbVertex
100
AcDbPolyFaceMeshVertex
 10
-7.648665904998779
 20
1.837105393409729
 30
0.0
 70
   192
  0
VERTEX
  5
18E
330
FC
100
AcDbEntity
  8
0
 62
   121
420
 10085590
100
AcDbVertex
100
AcDbPolyFaceMeshVertex
 10
9.476396560668945
 20
1.837105393409729
 30
0.0
 70
   192
  0
VERTEX
  5
18F
330
FC
100
AcDbEntity
  8
0
 62
   121
420
 10085590
100
AcDbVertex
100
AcDbPolyFaceMeshVertex
 10
10.34770011901855
 20
1.837105393409729
 30
0.0
 70
   192
  0
VERTEX
  5
190
330
FC
100
AcDbEntity
  8
0
 62
   121
420
 10085590
100
AcDbVertex
100
AcDbPolyFaceMeshVertex
 10
-8.511699676513671
 20
6.033227920532226
 30
0.0
 70
   192
  0
VERTEX
  5
191
330
FC
100
AcDbEntity
  8
0
 62
   121
420
 10085590
100
AcDbVertex
100
AcDbPolyFaceMeshVertex
 10
-7.648665904998779
 20
6.033227920532226
 30
0.0
 70
   192
  0
VERTEX
  5
192
330
FC
100
AcDbEntity
  8
0
 62
   121
420
 10085590
100
AcDbVertex
100
AcDbPolyFaceMeshVertex
 10
-2.225233316421508
 20
6.033227920532226
 30
0.0
 70
   192
  0
VERTEX
  5
193
330
FC
100
AcDbEntity
  8
0
 62
   121
420
 10085590
100
AcDbVertex
100
AcDbPolyFaceMeshVertex
 10
0.9180002212524414
 20
6.033227920532226
 30
0.0
 70
   192
  0
VERTEX
  5
194
330
FC
100
AcDbEntity
  8
0
 62
   121
420
 10085590
100
AcDbVertex
100
AcDbPolyFaceMeshVertex
 10
4.061233520507812
 20
6.033227920532226
 30
0.0
 70
   192
  0
VERTEX
  5
195
330
FC
100
AcDbEntity
  8
0
 62
   121
420
 10085590
100
AcDbVertex
100
AcDbPolyFaceMeshVertex
 10
9.476396560668945
 20
6.033227920532226
 30
0.0
 70
   192
  0
VERTEX
  5
196
330
FC
100
AcDbEntity
  8
0
 62
   121
420
 10085590
100
AcDbVertex
100
AcDbPolyFaceMeshVertex
 10
10.34770011901855
 20
6.033227920532226
 30
0.0
 70
   192
  0
VERTEX
  5
197
330
FC
100
AcDbEntity
  8
0
 62
   121
420
 10085590
100
AcDbVertex
100
AcDbPolyFaceMeshVertex
 10
-8.511699676513671
 20
6.790355205535888
 30
0.0
 70
   192
  0
VERTEX
  5
198
330
FC
100
AcDbEntity
  8
0
 62
   121
420
 10085590
100
AcDbVertex
100
AcDbPolyFaceMeshVertex
 10
-7.648665904998779
 20
6.790355205535888
 30
0.0
 70
   192
  0
VERTEX
  5
199
330
FC
100
AcDbEntity
  8
0
 62
   121
420
 10085590
100
AcDbVertex
100
AcDbPolyFaceMeshVertex
 10
-2.225233316421508
 20
6.790355205535888
 30
0.0
 70
   192
  0
VERTEX
  5
19A
330
FC
100
AcDbEntity
  8
0
 62
   121
420
 10085590
100
AcDbVertex
100
AcDbPolyFaceMeshVertex
 10
0.9180002212524414
 20
6.790355205535888
 30
0.0
 70
   192
  0
VERTEX
  5
19B
330
FC
100
AcDbEntity
  8
0
 62
   121
420
 10085590
100
AcDbVertex
100
AcDbPolyFaceMeshVertex
 10
4.061233520507812
 20
6.790355205535888
 30
0.0
 70
   192
  0
VERTEX
  5
19C
330
FC
100
AcDbEntity
  8
0
 62
   121
420
 10085590
100
AcDbVertex
100
AcDbPolyFaceMeshVertex
 10
9.476396560668945
 20
6.790355205535888
 30
0.0
 70
   192
  0
VERTEX
  5
19D
330
FC
100
AcDbEntity
  8
0
 62
   121
420
 10085590
100
AcDbVertex
100
AcDbPolyFaceMeshVertex
 10
10.34770011901855
 20
6.790355205535888
 30
0.0
 70
   192
  0
VERTEX
  5
19E
330
FC
100
AcDbEntity
  8
0
 62
   121
420
 10085590
100
AcDbVertex
100
AcDbPolyFaceMeshVertex
 10
-8.511699676513671
 20
-8.0693941116333
 30
0.307600736618042
 70
   192
  0
VERTEX
  5
19F
330
FC
100
AcDbEntity
  8
0
 62
   121
420
 10085590
100
AcDbVertex
100
AcDbPolyFaceMeshVertex
 10
-7.648665904998779
 20
-8.0693941116333
 30
0.307600736618042
 70
   192
  0
VERTEX
  5
1A0
330
FC
100
AcDbEntity
  8
0
 62
   121
420
 10085590
100
AcDbVertex
100
AcDbPolyFaceMeshVertex
 10
-2.225233316421508
 20
-8.0693941116333
 30
0.307600736618042
 70
   192
  0
VERTEX
  5
1A1
330
FC
100
AcDbEntity
  8
0
 62
   121
420
 10085590
100
AcDbVertex
100
AcDbPolyFaceMeshVertex
 10
0.9180002212524414
 20
-8.0693941116333
 30
0.307600736618042
 70
   192
  0
VERTEX
  5
1A2
330
FC
100
AcDbEntity
  8
0
 62
   121
420
 10085590
100
AcDbVertex
100
AcDbPolyFaceMeshVertex
 10
4.061233520507812
 20
-8.0693941116333
 30
0.307600736618042
 70
   192
  0
VERTEX
  5
1A3
330
FC
100
AcDbEntity
  8
0
 62
   121
420
 10085590
100
AcDbVertex
100
AcDbPolyFaceMeshVertex
 10
9.476396560668945
 20
-8.0693941116333
 30
0.307600736618042
 70
   192
  0
VERTEX
  5
1A4
330
FC
100
AcDbEntity
  8
0
 62
   121
420
 10085590
100
AcDbVertex
100
AcDbPolyFaceMeshVertex
 10
10.34770011901855
 20
-8.0693941116333
 30
0.307600736618042
 70
   192
  0
VERTEX
  5
1A5
330
FC
100
AcDbEntity
  8
0
 62
   121
420
 10085590
100
AcDbVertex
100
AcDbPolyFaceMeshVertex
 10
-8.511699676513671
 20
-7.199501037597656
 30
0.307600736618042
 70
   192
  0
VERTEX
  5
1A6
330
FC
100
AcDbEntity
  8
0
 62
   121
420
 10085590
100
AcDbVertex
100
AcDbPolyFaceMeshVertex
 10
-7.648665904998779
 20
-7.199501037597656
 30
0.2206488698720932
 70
   192
  0
VERTEX
  5
1A7
330
FC
100
AcDbEntity
  8
0
 62
   121
420
 10085590
100
AcDbVertex
100
AcDbPolyFaceMeshVertex
 10
-2.225233554840087
 20
-7.199501037597656
 30
0.2206488698720932
 70
   192
  0
VERTEX
  5
1A8
330
FC
100
AcDbEntity
  8
0
 62
   121
420
 10085590
100
AcDbVertex
100
AcDbPolyFaceMeshVertex
 10
0.9180002212524414
 20
-7.199501037597656
 30
0.2206488698720932
 70
   192
  0
VERTEX
  5
1A9
330
FC
100
AcDbEntity
  8
0
 62
   121
420
 10085590
100
AcDbVertex
100
AcDbPolyFaceMeshVertex
 10
4.061233520507812
 20
-7.199501037597656
 30
0.2206488698720932
 70
   192
  0
VERTEX
  5
1AA
330
FC
100
AcDbEntity
  8
0
 62
   121
420
 10085590
100
AcDbVertex
100
AcDbPolyFaceMeshVertex
 10
9.476396560668945
 20
-7.199501037597656
 30
0.2206488698720932
 70
   192
  0
VERTEX
  5
1AB
330
FC
100
AcDbEntity
  8
0
 62
   121
420
 10085590
100
AcDbVertex
100
AcDbPolyFaceMeshVertex
 10
10.34770011901855
 20
-7.199501037597656
 30
0.307600736618042
 70
   192
  0
VERTEX
  5
1AC
330
FC
100
AcDbEntity
  8
0
 62
   121
420
 10085590
100
AcDbVertex
100
AcDbPolyFaceMeshVertex
 10
-8.511699676513671
 20
-3.116144657135009
 30
0.307600736618042
 70
   192
  0
VERTEX
  5
1AD
330
FC
100
AcDbEntity
  8
0
 62
   121
420
 10085590
100
AcDbVertex
100
AcDbPolyFaceMeshVertex
 10
-7.648665904998779
 20
-3.116144657135009
 30
0.2206488698720932
 70
   192
  0
VERTEX
  5
1AE
330
FC
100
AcDbEntity
  8
0
 62
   121
420
 10085590
100
AcDbVertex
100
AcDbPolyFaceMeshVertex
 10
-0.2945127487182617
 20
-1.585410356521606
 30
-5.895198345184326
 70
   192
  0
VERTEX
  5
1AF
330
FC
100
AcDbEntity
  8
0
 62
   121
420
 10085590
100
AcDbVertex
100
AcDbPolyFaceMeshVertex
 10
0.9173431396484375
 20
-1.585410356521606
 30
-5.895198345184326
 70
   192
  0
VERTEX
  5
1B0
330
FC
100
AcDbEntity
  8
0
 62
   121
420
 10085590
100
AcDbVertex
100
AcDbPolyFaceMeshVertex
 10
2.129198551177978
 20
-1.585410356521606
 30
-5.895198345184326
 70
   192
  0
VERTEX
  5
1B1
330
FC
100
AcDbEntity
  8
0
 62
   121
420
 10085590
100
AcDbVertex
100
AcDbPolyFaceMeshVertex
 10
9.476396560668945
 20
-3.116144657135009
 30
0.2206488698720932
 70
   192
  0
VERTEX
  5
1B2
330
FC
100
AcDbEntity
  8
0
 62
   121
420
 10085590
100
AcDbVertex
100
AcDbPolyFaceMeshVertex
 10
10.34770011901855
 20
-3.116144657135009
 30
0.307600736618042
 70
   192
  0
VERTEX
  5
1B3
330
FC
100
AcDbEntity
  8
0
 62
   121
420
 10085590
100
AcDbVertex
100
AcDbPolyFaceMeshVertex
 10
-8.511699676513671
 20
-0.6395195722579956
 30
0.307600736618042
 70
   192
  0
VERTEX
  5
1B4
330
FC
100
AcDbEntity
  8
0
 62
   121
420
 10085590
100
AcDbVertex
100
AcDbPolyFaceMeshVertex
 10
-7.648665904998779
 20
-0.6395195722579956
 30
0.2206488698720932
 70
   192
  0
VERTEX
  5
1B5
330
FC
100
AcDbEntity
  8
0
 62
   121
420
 10085590
100
AcDbVertex
100
AcDbPolyFaceMeshVertex
 10
-0.2945127487182617
 20
-0.6305617690086365
 30
-5.895198345184326
 70
   192
  0
VERTEX
  5
1B6
330
FC
100
AcDbEntity
  8
0
 62
   121
420
 10085590
100
AcDbVertex
100
AcDbPolyFaceMeshVertex
 10
0.9173431396484375
 20
-0.6305617690086365
 30
-5.895198345184326
 70
   192
  0
VERTEX
  5
1B7
330
FC
100
AcDbEntity
  8
0
 62
   121
420
 10085590
100
AcDbVertex
100
AcDbPolyFaceMeshVertex
 10
2.129198551177978
 20
-0.6305617690086365
 30
-5.895198345184326
 70
   192
  0
VERTEX
  5
1B8
330
FC
100
AcDbEntity
  8
0
 62
   121
420
 10085590
100
AcDbVertex
100
AcDbPolyFaceMeshVertex
 10
9.476396560668945
 20
-0.6395195722579956
 30
0.2206488698720932
 70
   192
  0
VERTEX
  5
1B9
330
FC
100
AcDbEntity
  8
0
 62
   121
420
 10085590
100
AcDbVertex
100
AcDbPolyFaceMeshVertex
 10
10.34770011901855
 20
-0.6395195722579956
 30
0.307600736618042
 70
   192
  0
VERTEX
  5
1BA
330
FC
100
AcDbEntity
  8
0
 62
   121
420
 10085590
100
AcDbVertex
100
AcDbPolyFaceMeshVertex
 10
-8.511699676513671
 20
1.837105393409729
 30
0.307600736618042
 70
   192
  0
VERTEX
  5
1BB
330
FC
100
AcDbEntity
  8
0
 62
   121
420
 10085590
100
AcDbVertex
100
AcDbPolyFaceMeshVertex
 10
-7.648665904998779
 20
1.837105393409729
 30
0.2206488698720932
 70
   192
  0
VERTEX
  5
1BC
330
FC
100
AcDbEntity
  8
0
 62
   121
420
 10085590
100
AcDbVertex
100
AcDbPolyFaceMeshVertex
 10
-0.2945127487182617
 20
0.3242867588996887
 30
-5.895198345184326
 70
   192
  0
VERTEX
  5
1BD
330
FC
100
AcDbEntity
  8
0
 62
   121
420
 10085590
100
AcDbVertex
100
AcDbPolyFaceMeshVertex
 10
0.9173431396484375
 20
0.3242867588996887
 30
-5.895198345184326
 70
   192
  0
VERTEX
  5
1BE
330
FC
100
AcDbEntity
  8
0
 62
   121
420
 10085590
100
AcDbVertex
100
AcDbPolyFaceMeshVertex
 10
2.129198551177978
 20
0.3242867588996887
 30
-5.895198345184326
 70
   192
  0
VERTEX
  5
1BF
330
FC
100
AcDbEntity
  8
0
 62
   121
420
 10085590
100
AcDbVertex
100
AcDbPolyFaceMeshVertex
 10
9.476396560668945
 20
1.837105393409729
 30
0.2206488698720932
 70
   192
  0
VERTEX
  5
1C0
330
FC
100
AcDbEntity
  8
0
 62
   121
420
 10085590
100
AcDbVertex
100
AcDbPolyFaceMeshVertex
 10
10.34770011901855
 20
1.837105393409729
 30
0.307600736618042
 70
   192
  0
VERTEX
  5
1C1
330
FC
100
AcDbEntity
  8
0
 62
   121
420
 10085590
100
AcDbVertex
100
AcDbPolyFaceMeshVertex
 10
-8.511699676513671
 20
6.033227920532226
 30
0.307600736618042
 70
   192
  0
VERTEX
  5
1C2
330
FC
100
AcDbEntity
  8
0
 62
   121
420
 10085590
100
AcDbVertex
100
AcDbPolyFaceMeshVertex
 10
-7.648665904998779
 20
6.033227920532226
 30
0.2206488698720932
 70
   192
  0
VERTEX
  5
1C3
330
FC
100
AcDbEntity
  8
0
 62
   121
420
 10085590
100
AcDbVertex
100
AcDbPolyFaceMeshVertex
 10
-2.225233554840087
 20
6.033227920532226
 30
0.2206488698720932
 70
   192
  0
VERTEX
  5
1C4
330
FC
100
AcDbEntity
  8
0
 62
   121
420
 10085590
100
AcDbVertex
100
AcDbPolyFaceMeshVertex
 10
0.9180002212524414
 20
6.033227920532226
 30
0.2206488698720932
 70
   192
  0
VERTEX
  5
1C5
330
FC
100
AcDbEntity
  8
0
 62
   121
420
 10085590
100
AcDbVertex
100
AcDbPolyFaceMeshVertex
 10
4.061233520507812
 20
6.033227920532226
 30
0.2206488698720932
 70
   192
  0
VERTEX
  5
1C6
330
FC
100
AcDbEntity
  8
0
 62
   121
420
 10085590
100
AcDbVertex
100
AcDbPolyFaceMeshVertex
 10
9.476396560668945
 20
6.033227920532226
 30
0.2206488698720932
 70
   192
  0
VERTEX
  5
1C7
330
FC
100
AcDbEntity
  8
0
 62
   121
420
 10085590
100
AcDbVertex
100
AcDbPolyFaceMeshVertex
 10
10.34770011901855
 20
6.033227920532226
 30
0.307600736618042
 70
   192
  0
VERTEX
  5
1C8
330
FC
100
AcDbEntity
  8
0
 62
   121
420
 10085590
100
AcDbVertex
100
AcDbPolyFaceMeshVertex
 10
-8.511699676513671
 20
6.790355205535888
 30
0.307600736618042
 70
   192
  0
VERTEX
  5
1C9
330
FC
100
AcDbEntity
  8
0
 62
   121
420
 10085590
100
AcDbVertex
100
AcDbPolyFaceMeshVertex
 10
-7.648665904998779
 20
6.790355205535888
 30
0.307600736618042
 70
   192
  0
VERTEX
  5
1CA
330
FC
100
AcDbEntity
  8
0
 62
   121
420
 10085590
100
AcDbVertex
100
AcDbPolyFaceMeshVertex
 10
-2.225233316421508
 20
6.790355205535888
 30
0.307600736618042
 70
   192
  0
VERTEX
  5
1CB
330
FC
100
AcDbEntity
  8
0
 62
   121
420
 10085590
100
AcDbVertex
100
AcDbPolyFaceMeshVertex
 10
0.9180002212524414
 20
6.790355205535888
 30
0.307600736618042
 70
   192
  0
VERTEX
  5
1CC
330
FC
100
AcDbEntity
  8
0
 62
   121
420
 10085590
100
AcDbVertex
100
AcDbPolyFaceMeshVertex
 10
4.061233520507812
 20
6.790355205535888
 30
0.307600736618042
 70
   192
  0
VERTEX
  5
1CD
330
FC
100
AcDbEntity
  8
0
 62
   121
420
 10085590
100
AcDbVertex
100
AcDbPolyFaceMeshVertex
 10
9.476396560668945
 20
6.790355205535888
 30
0.307600736618042
 70
   192
  0
VERTEX
  5
1CE
330
FC
100
AcDbEntity
  8
0
 62
   121
420
 10085590
100
AcDbVertex
100
AcDbPolyFaceMeshVertex
 10
10.34770011901855
 20
6.790355205535888
 30
0.307600736618042
 70
   192
  0
VERTEX
  5
1CF
330
FC
100
AcDbEntity
  8
0
 62
   121
420
 10085590
100
AcDbVertex
100
AcDbPolyFaceMeshVertex
 10
-5.858325004577636
 20
-5.824225902557373
 30
-3.172152757644653
 70
   192
  0
VERTEX
  5
1D0
330
FC
100
AcDbEntity
  8
0
 62
   121
420
 10085590
100
AcDbVertex
100
AcDbPolyFaceMeshVertex
 10
-1.56852102279663
 20
-5.824225902557373
 30
-3.172152757644653
 70
   192
  0
VERTEX
  5
1D1
330
FC
100
AcDbEntity
  8
0
 62
   121
420
 10085590
100
AcDbVertex
100
AcDbPolyFaceMeshVertex
 10
0.9177011251449584
 20
-5.824225902557373
 30
-3.172152757644653
 70
   192
  0
VERTEX
  5
1D2
330
FC
100
AcDbEntity
  8
0
 62
   121
420
 10085590
100
AcDbVertex
100
AcDbPolyFaceMeshVertex
 10
3.403922319412231
 20
-5.824225902557373
 30
-3.172152757644653
 70
   192
  0
VERTEX
  5
1D3
330
FC
100
AcDbEntity
  8
0
 62
   121
420
 10085590
100
AcDbVertex
100
AcDbPolyFaceMeshVertex
 10
7.687184333801269
 20
-5.824225902557373
 30
-3.172152757644653
 70
   192
  0
VERTEX
  5
1D4
330
FC
100
AcDbEntity
  8
0
 62
   121
420
 10085590
100
AcDbVertex
100
AcDbPolyFaceMeshVertex
 10
-5.858325004577636
 20
-2.594390869140625
 30
-3.172152519226074
 70
   192
  0
VERTEX
  5
1D5
330
FC
100
AcDbEntity
  8
0
 62
   121
420
 10085590
100
AcDbVertex
100
AcDbPolyFaceMeshVertex
 10
7.687184333801269
 20
-2.594390869140625
 30
-3.172152519226074
 70
   192
  0
VERTEX
  5
1D6
330
FC
100
AcDbEntity
  8
0
 62
   121
420
 10085590
100
AcDbVertex
100
AcDbPolyFaceMeshVertex
 10
-5.858325004577636
 20
-0.6354406476020813
 30
-3.172152519226074
 70
   192
  0
VERTEX
  5
1D7
330
FC
100
AcDbEntity
  8
0
 62
   121
420
 10085590
100
AcDbVertex
100
AcDbPolyFaceMeshVertex
 10
7.687184333801269
 20
-0.6354406476020813
 30
-3.172152519226074
 70
   192
  0
VERTEX
  5
1D8
330
FC
100
AcDbEntity
  8
0
 62
   121
420
 10085590
100
AcDbVertex
100
AcDbPolyFaceMeshVertex
 10
-5.858325004577636
 20
1.323509931564331
 30
-3.172152042388916
 70
   192
  0
VERTEX
  5
1D9
330
FC
100
AcDbEntity
  8
0
 62
   121
420
 10085590
100
AcDbVertex
100
AcDbPolyFaceMeshVertex
 10
7.687184333801269
 20
1.323509931564331
 30
-3.172152042388916
 70
   192
  0
VERTEX
  5
1DA
330
FC
100
AcDbEntity
  8
0
 62
   121
420
 10085590
100
AcDbVertex
100
AcDbPolyFaceMeshVertex
 10
-5.858325004577636
 20
4.642541885375976
 30
-3.172152280807495
 70
   192
  0
VERTEX
  5
1DB
330
FC
100
AcDbEntity
  8
0
 62
   121
420
 10085590
100
AcDbVertex
100
AcDbPolyFaceMeshVertex
 10
-1.56852102279663
 20
4.642541885375976
 30
-3.172152280807495
 70
   192
  0
VERTEX
  5
1DC
330
FC
100
AcDbEntity
  8
0
 62
   121
420
 10085590
100
AcDbVertex
100
AcDbPolyFaceMeshVertex
 10
0.9177011251449584
 20
4.642541885375976
 30
-3.172152280807495
 70
   192
  0
VERTEX
  5
1DD
330
FC
100
AcDbEntity
  8
0
 62
   121
420
 10085590
100
AcDbVertex
100
AcDbPolyFaceMeshVertex
 10
3.403922319412231
 20
4.642541885375976
 30
-3.172152280807495
 70
   192
  0
VERTEX
  5
1DE
330
FC
100
AcDbEntity
  8
0
 62
   121
420
 10085590
100
AcDbVertex
100
AcDbPolyFaceMeshVertex
 10
7.687184333801269
 20
4.642541885375976
 30
-3.172152280807495
 70
   192
  0
VERTEX
  5
1DF
330
FC
100
AcDbEntity
  8
0
 62
   121
420
 10085590
100
AcDbVertex
100
AcDbPolyFaceMeshVertex
 10
-2.385485887527465
 20
-3.159725189208984
 30
-5.895198345184326
 70
   192
  0
VERTEX
  5
1E0
330
FC
100
AcDbEntity
  8
0
 62
   121
420
 10085590
100
AcDbVertex
100
AcDbPolyFaceMeshVertex
 10
-0.2945127487182617
 20
-3.159725189208984
 30
-5.895198345184326
 70
   192
  0
VERTEX
  5
1E1
330
FC
100
AcDbEntity
  8
0
 62
   121
420
 10085590
100
AcDbVertex
100
AcDbPolyFaceMeshVertex
 10
0.9173431396484375
 20
-3.159725189208984
 30
-5.895198345184326
 70
   192
  0
VERTEX
  5
1E2
330
FC
100
AcDbEntity
  8
0
 62
   121
420
 10085590
100
AcDbVertex
100
AcDbPolyFaceMeshVertex
 10
2.129198551177978
 20
-3.159725189208984
 30
-5.895198345184326
 70
   192
  0
VERTEX
  5
1E3
330
FC
100
AcDbEntity
  8
0
 62
   121
420
 10085590
100
AcDbVertex
100
AcDbPolyFaceMeshVertex
 10
4.216982841491699
 20
-3.159725189208984
 30
-5.895198345184326
 70
   192
  0
VERTEX
  5
1E4
330
FC
100
AcDbEntity
  8
0
 62
   121
420
 10085590
100
AcDbVertex
100
AcDbPolyFaceMeshVertex
 10
-2.385485887527465
 20
-1.585410356521606
 30
-5.895198345184326
 70
   192
  0
VERTEX
  5
1E5
330
FC
100
AcDbEntity
  8
0
 62
   121
420
 10085590
100
AcDbVertex
100
AcDbPolyFaceMeshVertex
 10
4.216982841491699
 20
-1.585410356521606
 30
-5.895198345184326
 70
   192
  0
VERTEX
  5
1E6
330
FC
100
AcDbEntity
  8
0
 62
   121
420
 10085590
100
AcDbVertex
100
AcDbPolyFaceMeshVertex
 10
-2.385485887527465
 20
-0.6305617690086365
 30
-5.895198345184326
 70
   192
  0
VERTEX
  5
1E7
330
FC
100
AcDbEntity
  8
0
 62
   121
420
 10085590
100
AcDbVertex
100
AcDbPolyFaceMeshVertex
 10
4.216982841491699
 20
-0.6305617690086365
 30
-5.895198345184326
 70
   192
  0
VERTEX
  5
1E8
330
FC
100
AcDbEntity
  8
0
 62
   121
420
 10085590
100
AcDbVertex
100
AcDbPolyFaceMeshVertex
 10
-2.385485887527465
 20
0.3242867588996887
 30
-5.895198345184326
 70
   192
  0
VERTEX
  5
1E9
330
FC
100
AcDbEntity
  8
0
 62
   121
420
 10085590
100
AcDbVertex
100
AcDbPolyFaceMeshVertex
 10
4.216982841491699
 20
0.3242867588996887
 30
-5.895198345184326
 70
   192
  0
VERTEX
  5
1EA
330
FC
100
AcDbEntity
  8
0
 62
   121
420
 10085590
100
AcDbVertex
100
AcDbPolyFaceMeshVertex
 10
-2.385485887527465
 20
1.942077755928039
 30
-5.895198345184326
 70
   192
  0
VERTEX
  5
1EB
330
FC
100
AcDbEntity
  8
0
 62
   121
420
 10085590
100
AcDbVertex
100
AcDbPolyFaceMeshVertex
 10
-0.2945127487182617
 20
1.942077755928039
 30
-5.895198345184326
 70
   192
  0
VERTEX
  5
1EC
330
FC
100
AcDbEntity
  8
0
 62
   121
420
 10085590
100
AcDbVertex
100
AcDbPolyFaceMeshVertex
 10
0.9173431396484375
 20
1.942077755928039
 30
-5.895198345184326
 70
   192
  0
VERTEX
  5
1ED
330
FC
100
AcDbEntity
  8
0
 62
   121
420
 10085590
100
AcDbVertex
100
AcDbPolyFaceMeshVertex
 10
2.129198551177978
 20
1.942077755928039
 30
-5.895198345184326
 70
   192
  0
VERTEX
  5
1EE
330
FC
100
AcDbEntity
  8
0
 62
   121
420
 10085590
100
AcDbVertex
100
AcDbPolyFaceMeshVertex
 10
4.216982841491699
 20
1.942077755928039
 30
-5.895198345184326
 70
   192
  0
VERTEX
  5
1EF
330
FC
100
AcDbEntity
  8
0
 62
   121
420
 10085590
100
AcDbVertex
100
AcDbPolyFaceMeshVertex
 10
0.9941481947898864
 20
-0.7416986823081971
 30
-7.117824077606201
 70
   192
  0
VERTEX
  5
1F0
330
FC
100
AcDbEntity
  8
0
 62
   121
420
 10085590
100
AcDbVertex
100
AcDbPolyFaceMeshVertex
 10
2.018464088439941
 20
-0.7416986823081971
 30
-7.117824077606201
 70
   192
  0
VERTEX
  5
1F1
330
FC
100
AcDbEntity
  8
0
 62
   121
420
 10085590
100
AcDbVertex
100
AcDbPolyFaceMeshVertex
 10
1.956690073013305
 20
-0.3920503258705139
 30
-7.117824077606201
 70
   192
  0
VERTEX
  5
1F2
330
FC
100
AcDbEntity
  8
0
 62
   121
420
 10085590
100
AcDbVertex
100
AcDbPolyFaceMeshVertex
 10
1.778819561004638
 20
-0.0845746994018555
 30
-7.117824077606201
 70
   192
  0
VERTEX
  5
1F3
330
FC
100
AcDbEntity
  8
0
 62
   121
420
 10085590
100
AcDbVertex
100
AcDbPolyFaceMeshVertex
 10
1.506306052207946
 20
0.1436420083045959
 30
-7.117824077606201
 70
   192
  0
VERTEX
  5
1F4
330
FC
100
AcDbEntity
  8
0
 62
   121
420
 10085590
100
AcDbVertex
100
AcDbPolyFaceMeshVertex
 10
1.172018647193908
 20
0.2650735974311829
 30
-7.117824077606201
 70
   192
  0
VERTEX
  5
1F5
330
FC
100
AcDbEntity
  8
0
 62
   121
420
 10085590
100
AcDbVertex
100
AcDbPolyFaceMeshVertex
 10
0.8162775039672851
 20
0.2650735974311829
 30
-7.117824077606201
 70
   192
  0
VERTEX
  5
1F6
330
FC
100
AcDbEntity
  8
0
 62
   121
420
 10085590
100
AcDbVertex
100
AcDbPolyFaceMeshVertex
 10
0.481990247964859
 20
0.1436419486999512
 30
-7.117824077606201
 70
   192
  0
VERTEX
  5
1F7
330
FC
100
AcDbEntity
  8
0
 62
   121
420
 10085590
100
AcDbVertex
100
AcDbPolyFaceMeshVertex
 10
0.2094768285751343
 20
-0.0845746994018555
 30
-7.117824077606201
 70
   192
  0
VERTEX
  5
1F8
330
FC
100
AcDbEntity
  8
0
 62
   121
420
 10085590
100
AcDbVertex
100
AcDbPolyFaceMeshVertex
 10
0.0316062569618225
 20
-0.3920502662658691
 30
-7.117824077606201
 70
   192
  0
VERTEX
  5
1F9
330
FC
100
AcDbEntity
  8
0
 62
   121
420
 10085590
100
AcDbVertex
100
AcDbPolyFaceMeshVertex
 10
-0.0301675200462341
 20
-0.7416985630989075
 30
-7.117824077606201
 70
   192
  0
VERTEX
  5
1FA
330
FC
100
AcDbEntity
  8
0
 62
   121
420
 10085590
100
AcDbVertex
100
AcDbPolyFaceMeshVertex
 10
0.031606137752533
 20
-1.091346859931945
 30
-7.117824077606201
 70
   192
  0
VERTEX
  5
1FB
330
FC
100
AcDbEntity
  8
0
 62
   121
420
 10085590
100
AcDbVertex
100
AcDbPolyFaceMeshVertex
 10
0.2094766497611999
 20
-1.398822426795959
 30
-7.117824077606201
 70
   192
  0
VERTEX
  5
1FC
330
FC
100
AcDbEntity
  8
0
 62
   121
420
 10085590
100
AcDbVertex
100
AcDbPolyFaceMeshVertex
 10
0.4819900095462799
 20
-1.627039194107055
 30
-7.117824077606201
 70
   192
  0
VERTEX
  5
1FD
330
FC
100
AcDbEntity
  8
0
 62
   121
420
 10085590
100
AcDbVertex
100
AcDbPolyFaceMeshVertex
 10
0.8162772059440612
 20
-1.748470902442932
 30
-7.117824077606201
 70
   192
  0
VERTEX
  5
1FE
330
FC
100
AcDbEntity
  8
0
 62
   121
420
 10085590
100
AcDbVertex
100
AcDbPolyFaceMeshVertex
 10
1.17201828956604
 20
-1.748471140861511
 30
-7.117824077606201
 70
   192
  0
VERTEX
  5
1FF
330
FC
100
AcDbEntity
  8
0
 62
   121
420
 10085590
100
AcDbVertex
100
AcDbPolyFaceMeshVertex
 10
1.506305456161499
 20
-1.627039670944213
 30
-7.117824077606201
 70
   192
  0
VERTEX
  5
200
330
FC
100
AcDbEntity
  8
0
 62
   121
420
 10085590
100
AcDbVertex
100
AcDbPolyFaceMeshVertex
 10
1.77881908416748
 20
-1.398823142051696
 30
-7.117824077606201
 70
   192
  0
VERTEX
  5
201
330
FC
100
AcDbEntity
  8
0
 62
   121
420
 10085590
100
AcDbVertex
100
AcDbPolyFaceMeshVertex
 10
1.956689834594726
 20
-1.091347694396972
 30
-7.117824077606201
 70
   192
  0
VERTEX
  5
202
330
FC
100
AcDbEntity
  8
0
 62
   121
420
 10085590
100
AcDbVertex
100
AcDbPolyFaceMeshVertex
 10
2.018464088439941
 20
-0.7416986823081971
 30
-5.873228073120117
 70
   192
  0
VERTEX
  5
203
330
FC
100
AcDbEntity
  8
0
 62
   121
420
 10085590
100
AcDbVertex
100
AcDbPolyFaceMeshVertex
 10
1.956690073013305
 20
-0.3920503258705139
 30
-5.873228073120117
 70
   192
  0
VERTEX
  5
204
330
FC
100
AcDbEntity
  8
0
 62
   121
420
 10085590
100
AcDbVertex
100
AcDbPolyFaceMeshVertex
 10
1.778819561004638
 20
-0.0845746994018555
 30
-5.873228073120117
 70
   192
  0
VERTEX
  5
205
330
FC
100
AcDbEntity
  8
0
 62
   121
420
 10085590
100
AcDbVertex
100
AcDbPolyFaceMeshVertex
 10
1.506306052207946
 20
0.1436420083045959
 30
-5.873228073120117
 70
   192
  0
VERTEX
  5
206
330
FC
100
AcDbEntity
  8
0
 62
   121
420
 10085590
100
AcDbVertex
100
AcDbPolyFaceMeshVertex
 10
1.172018647193908
 20
0.2650735974311829
 30
-5.873228073120117
 70
   192
  0
VERTEX
  5
207
330
FC
100
AcDbEntity
  8
0
 62
   121
420
 10085590
100
AcDbVertex
100
AcDbPolyFaceMeshVertex
 10
0.8162775039672851
 20
0.2650735974311829
 30
-5.873228073120117
 70
   192
  0
VERTEX
  5
208
330
FC
100
AcDbEntity
  8
0
 62
   121
420
 10085590
100
AcDbVertex
100
AcDbPolyFaceMeshVertex
 10
0.481990247964859
 20
0.1436419486999512
 30
-5.873228073120117
 70
   192
  0
VERTEX
  5
209
330
FC
100
AcDbEntity
  8
0
 62
   121
420
 10085590
100
AcDbVertex
100
AcDbPolyFaceMeshVertex
 10
0.2094768285751343
 20
-0.0845746994018555
 30
-5.873228073120117
 70
   192
  0
VERTEX
  5
20A
330
FC
100
AcDbEntity
  8
0
 62
   121
420
 10085590
100
AcDbVertex
100
AcDbPolyFaceMeshVertex
 10
0.0316062569618225
 20
-0.3920502662658691
 30
-5.873228073120117
 70
   192
  0
VERTEX
  5
20B
330
FC
100
AcDbEntity
  8
0
 62
   121
420
 10085590
100
AcDbVertex
100
AcDbPolyFaceMeshVertex
 10
-0.0301675200462341
 20
-0.7416985630989075
 30
-5.873228073120117
 70
   192
  0
VERTEX
  5
20C
330
FC
100
AcDbEntity
  8
0
 62
   121
420
 10085590
100
AcDbVertex
100
AcDbPolyFaceMeshVertex
 10
0.031606137752533
 20
-1.091346859931945
 30
-5.873228073120117
 70
   192
  0
VERTEX
  5
20D
330
FC
100
AcDbEntity
  8
0
 62
   121
420
 10085590
100
AcDbVertex
100
AcDbPolyFaceMeshVertex
 10
0.2094766497611999
 20
-1.398822426795959
 30
-5.873228073120117
 70
   192
  0
VERTEX
  5
20E
330
FC
100
AcDbEntity
  8
0
 62
   121
420
 10085590
100
AcDbVertex
100
AcDbPolyFaceMeshVertex
 10
0.4819900095462799
 20
-1.627039194107055
 30
-5.873228073120117
 70
   192
  0
VERTEX
  5
20F
330
FC
100
AcDbEntity
  8
0
 62
   121
420
 10085590
100
AcDbVertex
100
AcDbPolyFaceMeshVertex
 10
0.8162772059440612
 20
-1.748470902442932
 30
-5.873228073120117
 70
   192
  0
VERTEX
  5
210
330
FC
100
AcDbEntity
  8
0
 62
   121
420
 10085590
100
AcDbVertex
100
AcDbPolyFaceMeshVertex
 10
1.17201828956604
 20
-1.748471140861511
 30
-5.873228073120117
 70
   192
  0
VERTEX
  5
211
330
FC
100
AcDbEntity
  8
0
 62
   121
420
 10085590
100
AcDbVertex
100
AcDbPolyFaceMeshVertex
 10
1.506305456161499
 20
-1.627039670944213
 30
-5.873228073120117
 70
   192
  0
VERTEX
  5
212
330
FC
100
AcDbEntity
  8
0
 62
   121
420
 10085590
100
AcDbVertex
100
AcDbPolyFaceMeshVertex
 10
1.77881908416748
 20
-1.398823142051696
 30
-5.873228073120117
 70
   192
  0
VERTEX
  5
213
330
FC
100
AcDbEntity
  8
0
 62
   121
420
 10085590
100
AcDbVertex
100
AcDbPolyFaceMeshVertex
 10
1.956689834594726
 20
-1.091347694396972
 30
-5.873228073120117
 70
   192
  0
VERTEX
  5
214
330
FC
100
AcDbEntity
  8
0
 62
   121
420
 10085590
100
AcDbVertex
100
AcDbPolyFaceMeshVertex
 10
0.9941481947898864
 20
-0.7416986823081971
 30
-5.873228073120117
 70
   192
  0
VERTEX
  5
215
330
FC
100
AcDbEntity
  8
0
 62
   121
420
 10085590
100
AcDbVertex
100
AcDbPolyFaceMeshVertex
 10
0.9959275126457214
 20
-0.76010000705719
 30
-5.86084508895874
 70
   192
  0
VERTEX
  5
216
330
FC
100
AcDbEntity
  8
0
 62
   121
420
 10085590
100
AcDbVertex
100
AcDbPolyFaceMeshVertex
 10
2.024825811386108
 20
-0.76010000705719
 30
-5.86084508895874
 70
   192
  0
VERTEX
  5
217
330
FC
100
AcDbEntity
  8
0
 62
   121
420
 10085590
100
AcDbVertex
100
AcDbPolyFaceMeshVertex
 10
1.962775707244873
 20
-0.4081960916519165
 30
-5.86084508895874
 70
   192
  0
VERTEX
  5
218
330
FC
100
AcDbEntity
  8
0
 62
   121
420
 10085590
100
AcDbVertex
100
AcDbPolyFaceMeshVertex
 10
1.784109354019165
 20
-0.0987370014190674
 30
-5.86084508895874
 70
   192
  0
VERTEX
  5
219
330
FC
100
AcDbEntity
  8
0
 62
   121
420
 10085590
100
AcDbVertex
100
AcDbPolyFaceMeshVertex
 10
1.510376691818237
 20
0.1309520602226257
 30
-5.86084508895874
 70
   192
  0
VERTEX
  5
21A
330
FC
100
AcDbEntity
  8
0
 62
   121
420
 10085590
100
AcDbVertex
100
AcDbPolyFaceMeshVertex
 10
1.174593687057495
 20
0.2531668543815613
 30
-5.86084508895874
 70
   192
  0
VERTEX
  5
21B
330
FC
100
AcDbEntity
  8
0
 62
   121
420
 10085590
100
AcDbVertex
100
AcDbPolyFaceMeshVertex
 10
0.8172610402107238
 20
0.2531668543815613
 30
-5.86084508895874
 70
   192
  0
VERTEX
  5
21C
330
FC
100
AcDbEntity
  8
0
 62
   121
420
 10085590
100
AcDbVertex
100
AcDbPolyFaceMeshVertex
 10
0.4814783036708832
 20
0.130952000617981
 30
-5.86084508895874
 70
   192
  0
VERTEX
  5
21D
330
FC
100
AcDbEntity
  8
0
 62
   121
420
 10085590
100
AcDbVertex
100
AcDbPolyFaceMeshVertex
 10
0.2077456712722778
 20
-0.0987370014190674
 30
-5.86084508895874
 70
   192
  0
VERTEX
  5
21E
330
FC
100
AcDbEntity
  8
0
 62
   121
420
 10085590
100
AcDbVertex
100
AcDbPolyFaceMeshVertex
 10
0.0290793180465698
 20
-0.4081960320472718
 30
-5.86084508895874
 70
   192
  0
VERTEX
  5
21F
330
FC
100
AcDbEntity
  8
0
 62
   121
420
 10085590
100
AcDbVertex
100
AcDbPolyFaceMeshVertex
 10
-0.0329707860946655
 20
-0.7600998878479004
 30
-5.86084508895874
 70
   192
  0
VERTEX
  5
220
330
FC
100
AcDbEntity
  8
0
 62
   121
420
 10085590
100
AcDbVertex
100
AcDbPolyFaceMeshVertex
 10
0.0290792584419251
 20
-1.112003803253173
 30
-5.86084508895874
 70
   192
  0
VERTEX
  5
221
330
FC
100
AcDbEntity
  8
0
 62
   121
420
 10085590
100
AcDbVertex
100
AcDbPolyFaceMeshVertex
 10
0.2077454328536987
 20
-1.421462774276733
 30
-5.86084508895874
 70
   192
  0
VERTEX
  5
222
330
FC
100
AcDbEntity
  8
0
 62
   121
420
 10085590
100
AcDbVertex
100
AcDbPolyFaceMeshVertex
 10
0.4814780652523041
 20
-1.651151895523071
 30
-5.86084508895874
 70
   192
  0
VERTEX
  5
223
330
FC
100
AcDbEntity
  8
0
 62
   121
420
 10085590
100
AcDbVertex
100
AcDbPolyFaceMeshVertex
 10
0.8172607421875
 20
-1.773366928100585
 30
-5.86084508895874
 70
   192
  0
VERTEX
  5
224
330
FC
100
AcDbEntity
  8
0
 62
   121
420
 10085590
100
AcDbVertex
100
AcDbPolyFaceMeshVertex
 10
1.174593329429626
 20
-1.773367047309875
 30
-5.86084508895874
 70
   192
  0
VERTEX
  5
225
330
FC
100
AcDbEntity
  8
0
 62
   121
420
 10085590
100
AcDbVertex
100
AcDbPolyFaceMeshVertex
 10
1.510376214981079
 20
-1.651152372360229
 30
-5.86084508895874
 70
   192
  0
VERTEX
  5
226
330
FC
100
AcDbEntity
  8
0
 62
   121
420
 10085590
100
AcDbVertex
100
AcDbPolyFaceMeshVertex
 10
1.784108877182006
 20
-1.42146348953247
 30
-5.86084508895874
 70
   192
  0
VERTEX
  5
227
330
FC
100
AcDbEntity
  8
0
 62
   121
420
 10085590
100
AcDbVertex
100
AcDbPolyFaceMeshVertex
 10
1.962775468826293
 20
-1.1120046377182
 30
-5.86084508895874
 70
   192
  0
VERTEX
  5
228
330
FC
100
AcDbEntity
  8
0
 62
   121
420
 10085590
100
AcDbVertex
100
AcDbPolyFaceMeshVertex
 10
2.024825811386108
 20
-0.76010000705719
 30
-5.729325294494628
 70
   192
  0
VERTEX
  5
229
330
FC
100
AcDbEntity
  8
0
 62
   121
420
 10085590
100
AcDbVertex
100
AcDbPolyFaceMeshVertex
 10
1.962775707244873
 20
-0.4081960916519165
 30
-5.729325294494628
 70
   192
  0
VERTEX
  5
22A
330
FC
100
AcDbEntity
  8
0
 62
   121
420
 10085590
100
AcDbVertex
100
AcDbPolyFaceMeshVertex
 10
1.784109354019165
 20
-0.0987370014190674
 30
-5.729325294494628
 70
   192
  0
VERTEX
  5
22B
330
FC
100
AcDbEntity
  8
0
 62
   121
420
 10085590
100
AcDbVertex
100
AcDbPolyFaceMeshVertex
 10
1.510376691818237
 20
0.1309520602226257
 30
-5.729325294494628
 70
   192
  0
VERTEX
  5
22C
330
FC
100
AcDbEntity
  8
0
 62
   121
420
 10085590
100
AcDbVertex
100
AcDbPolyFaceMeshVertex
 10
1.174593687057495
 20
0.2531668543815613
 30
-5.729325294494628
 70
   192
  0
VERTEX
  5
22D
330
FC
100
AcDbEntity
  8
0
 62
   121
420
 10085590
100
AcDbVertex
100
AcDbPolyFaceMeshVertex
 10
0.8172610402107238
 20
0.2531668543815613
 30
-5.729325294494628
 70
   192
  0
VERTEX
  5
22E
330
FC
100
AcDbEntity
  8
0
 62
   121
420
 10085590
100
AcDbVertex
100
AcDbPolyFaceMeshVertex
 10
0.4814783036708832
 20
0.130952000617981
 30
-5.729325294494628
 70
   192
  0
VERTEX
  5
22F
330
FC
100
AcDbEntity
  8
0
 62
   121
420
 10085590
100
AcDbVertex
100
AcDbPolyFaceMeshVertex
 10
0.2077456712722778
 20
-0.0987370014190674
 30
-5.729325294494628
 70
   192
  0
VERTEX
  5
230
330
FC
100
AcDbEntity
  8
0
 62
   121
420
 10085590
100
AcDbVertex
100
AcDbPolyFaceMeshVertex
 10
0.0290793180465698
 20
-0.4081960320472718
 30
-5.729325294494628
 70
   192
  0
VERTEX
  5
231
330
FC
100
AcDbEntity
  8
0
 62
   121
420
 10085590
100
AcDbVertex
100
AcDbPolyFaceMeshVertex
 10
-0.0329707860946655
 20
-0.7600998878479004
 30
-5.729325294494628
 70
   192
  0
VERTEX
  5
232
330
FC
100
AcDbEntity
  8
0
 62
   121
420
 10085590
100
AcDbVertex
100
AcDbPolyFaceMeshVertex
 10
0.0290792584419251
 20
-1.112003803253173
 30
-5.729325294494628
 70
   192
  0
VERTEX
  5
233
330
FC
100
AcDbEntity
  8
0
 62
   121
420
 10085590
100
AcDbVertex
100
AcDbPolyFaceMeshVertex
 10
0.2077454328536987
 20
-1.421462774276733
 30
-5.729325294494628
 70
   192
  0
VERTEX
  5
234
330
FC
100
AcDbEntity
  8
0
 62
   121
420
 10085590
100
AcDbVertex
100
AcDbPolyFaceMeshVertex
 10
0.4814780652523041
 20
-1.651151895523071
 30
-5.729325294494628
 70
   192
  0
VERTEX
  5
235
330
FC
100
AcDbEntity
  8
0
 62
   121
420
 10085590
100
AcDbVertex
100
AcDbPolyFaceMeshVertex
 10
0.8172607421875
 20
-1.773366928100585
 30
-5.729325294494628
 70
   192
  0
VERTEX
  5
236
330
FC
100
AcDbEntity
  8
0
 62
   121
420
 10085590
100
AcDbVertex
100
AcDbPolyFaceMeshVertex
 10
1.174593329429626
 20
-1.773367047309875
 30
-5.729325294494628
 70
   192
  0
VERTEX
  5
237
330
FC
100
AcDbEntity
  8
0
 62
   121
420
 10085590
100
AcDbVertex
100
AcDbPolyFaceMeshVertex
 10
1.510376214981079
 20
-1.651152372360229
 30
-5.729325294494628
 70
   192
  0
VERTEX
  5
238
330
FC
100
AcDbEntity
  8
0
 62
   121
420
 10085590
100
AcDbVertex
100
AcDbPolyFaceMeshVertex
 10
1.784108877182006
 20
-1.42146348953247
 30
-5.729325294494628
 70
   192
  0
VERTEX
  5
239
330
FC
100
AcDbEntity
  8
0
 62
   121
420
 10085590
100
AcDbVertex
100
AcDbPolyFaceMeshVertex
 10
1.962775468826293
 20
-1.1120046377182
 30
-5.729325294494628
 70
   192
  0
VERTEX
  5
23A
330
FC
100
AcDbEntity
  8
0
 62
   121
420
 10085590
100
AcDbVertex
100
AcDbPolyFaceMeshVertex
 10
0.9959274530410766
 20
-0.76010000705719
 30
-5.789551258087158
 70
   192
  0
VERTEX
  5
23B
330
FC
100
AcDbEntity
  8
0
 62
   121
420
 10085590
100
AcDbVertex
100
AcDbPolyFaceMeshVertex
 10
1.722537755966186
 20
-0.76010000705719
 30
-5.727320671081542
 70
   192
  0
VERTEX
  5
23C
330
FC
100
AcDbEntity
  8
0
 62
   121
420
 10085590
100
AcDbVertex
100
AcDbPolyFaceMeshVertex
 10
1.678717851638793
 20
-0.5115846991539002
 30
-5.727320671081542
 70
   192
  0
VERTEX
  5
23D
330
FC
100
AcDbEntity
  8
0
 62
   121
420
 10085590
100
AcDbVertex
100
AcDbPolyFaceMeshVertex
 10
1.55254316329956
 20
-0.2930439710617065
 30
-5.727320671081542
 70
   192
  0
VERTEX
  5
23E
330
FC
100
AcDbEntity
  8
0
 62
   121
420
 10085590
100
AcDbVertex
100
AcDbPolyFaceMeshVertex
 10
1.359232664108276
 20
-0.130837082862854
 30
-5.727320671081542
 70
   192
  0
VERTEX
  5
23F
330
FC
100
AcDbEntity
  8
0
 62
   121
420
 10085590
100
AcDbVertex
100
AcDbPolyFaceMeshVertex
 10
1.12210202217102
 20
-0.0445286631584168
 30
-5.727320671081542
 70
   192
  0
VERTEX
  5
240
330
FC
100
AcDbEntity
  8
0
 62
   121
420
 10085590
100
AcDbVertex
100
AcDbPolyFaceMeshVertex
 10
0.869752824306488
 20
-0.0445286631584168
 30
-5.727320671081542
 70
   192
  0
VERTEX
  5
241
330
FC
100
AcDbEntity
  8
0
 62
   121
420
 10085590
100
AcDbVertex
100
AcDbPolyFaceMeshVertex
 10
0.6326223611831665
 20
-0.1308371424674988
 30
-5.727320671081542
 70
   192
  0
VERTEX
  5
242
330
FC
100
AcDbEntity
  8
0
 62
   121
420
 10085590
100
AcDbVertex
100
AcDbPolyFaceMeshVertex
 10
0.4393117129802704
 20
-0.2930439710617065
 30
-5.727320671081542
 70
   192
  0
VERTEX
  5
243
330
FC
100
AcDbEntity
  8
0
 62
   121
420
 10085590
100
AcDbVertex
100
AcDbPolyFaceMeshVertex
 10
0.3131371140480041
 20
-0.5115846395492554
 30
-5.727320671081542
 70
   192
  0
VERTEX
  5
244
330
FC
100
AcDbEntity
  8
0
 62
   121
420
 10085590
100
AcDbVertex
100
AcDbPolyFaceMeshVertex
 10
0.2693172693252563
 20
-0.7600998878479004
 30
-5.727320671081542
 70
   192
  0
VERTEX
  5
245
330
FC
100
AcDbEntity
  8
0
 62
   121
420
 10085590
100
AcDbVertex
100
AcDbPolyFaceMeshVertex
 10
0.3131370544433594
 20
-1.008615255355834
 30
-5.727320671081542
 70
   192
  0
VERTEX
  5
246
330
FC
100
AcDbEntity
  8
0
 62
   121
420
 10085590
100
AcDbVertex
100
AcDbPolyFaceMeshVertex
 10
0.4393115937709809
 20
-1.227155923843383
 30
-5.727320671081542
 70
   192
  0
VERTEX
  5
247
330
FC
100
AcDbEntity
  8
0
 62
   121
420
 10085590
100
AcDbVertex
100
AcDbPolyFaceMeshVertex
 10
0.6326221227645874
 20
-1.389362812042236
 30
-5.727320671081542
 70
   192
  0
VERTEX
  5
248
330
FC
100
AcDbEntity
  8
0
 62
   121
420
 10085590
100
AcDbVertex
100
AcDbPolyFaceMeshVertex
 10
0.8697525858879089
 20
-1.475671291351318
 30
-5.727320671081542
 70
   192
  0
VERTEX
  5
249
330
FC
100
AcDbEntity
  8
0
 62
   121
420
 10085590
100
AcDbVertex
100
AcDbPolyFaceMeshVertex
 10
1.122101664543151
 20
-1.475671291351318
 30
-5.727320671081542
 70
   192
  0
VERTEX
  5
24A
330
FC
100
AcDbEntity
  8
0
 62
   121
420
 10085590
100
AcDbVertex
100
AcDbPolyFaceMeshVertex
 10
1.359232187271118
 20
-1.389363050460815
 30
-5.727320671081542
 70
   192
  0
VERTEX
  5
24B
330
FC
100
AcDbEntity
  8
0
 62
   121
420
 10085590
100
AcDbVertex
100
AcDbPolyFaceMeshVertex
 10
1.552542924880981
 20
-1.227156400680541
 30
-5.727320671081542
 70
   192
  0
VERTEX
  5
24C
330
FC
100
AcDbEntity
  8
0
 62
   121
420
 10085590
100
AcDbVertex
100
AcDbPolyFaceMeshVertex
 10
1.678717613220214
 20
-1.008615851402282
 30
-5.727320671081542
 70
   192
  0
VERTEX
  5
24D
330
FC
100
AcDbEntity
  8
0
 62
   121
420
 10085590
100
AcDbVertex
100
AcDbPolyFaceMeshVertex
 10
1.722537755966186
 20
-0.76010000705719
 30
-5.789551258087158
 70
   192
  0
VERTEX
  5
24E
330
FC
100
AcDbEntity
  8
0
 62
   121
420
 10085590
100
AcDbVertex
100
AcDbPolyFaceMeshVertex
 10
1.678717851638793
 20
-0.511584758758545
 30
-5.789551258087158
 70
   192
  0
VERTEX
  5
24F
330
FC
100
AcDbEntity
  8
0
 62
   121
420
 10085590
100
AcDbVertex
100
AcDbPolyFaceMeshVertex
 10
1.55254316329956
 20
-0.2930440306663513
 30
-5.789551258087158
 70
   192
  0
VERTEX
  5
250
330
FC
100
AcDbEntity
  8
0
 62
   121
420
 10085590
100
AcDbVertex
100
AcDbPolyFaceMeshVertex
 10
1.359232664108276
 20
-0.1308372020721435
 30
-5.789551258087158
 70
   192
  0
VERTEX
  5
251
330
FC
100
AcDbEntity
  8
0
 62
   121
420
 10085590
100
AcDbVertex
100
AcDbPolyFaceMeshVertex
 10
1.12210202217102
 20
-0.0445286631584168
 30
-5.789551258087158
 70
   192
  0
VERTEX
  5
252
330
FC
100
AcDbEntity
  8
0
 62
   121
420
 10085590
100
AcDbVertex
100
AcDbPolyFaceMeshVertex
 10
0.869752824306488
 20
-0.0445286631584168
 30
-5.789551258087158
 70
   192
  0
VERTEX
  5
253
330
FC
100
AcDbEntity
  8
0
 62
   121
420
 10085590
100
AcDbVertex
100
AcDbPolyFaceMeshVertex
 10
0.6326223611831665
 20
-0.1308372616767883
 30
-5.789551258087158
 70
   192
  0
VERTEX
  5
254
330
FC
100
AcDbEntity
  8
0
 62
   121
420
 10085590
100
AcDbVertex
100
AcDbPolyFaceMeshVertex
 10
0.4393117129802704
 20
-0.2930440306663513
 30
-5.789551258087158
 70
   192
  0
VERTEX
  5
255
330
FC
100
AcDbEntity
  8
0
 62
   121
420
 10085590
100
AcDbVertex
100
AcDbPolyFaceMeshVertex
 10
0.3131371140480041
 20
-0.5115846991539002
 30
-5.789551258087158
 70
   192
  0
VERTEX
  5
256
330
FC
100
AcDbEntity
  8
0
 62
   121
420
 10085590
100
AcDbVertex
100
AcDbPolyFaceMeshVertex
 10
0.2693173885345459
 20
-0.7600998878479004
 30
-5.789551258087158
 70
   192
  0
VERTEX
  5
257
330
FC
100
AcDbEntity
  8
0
 62
   121
420
 10085590
100
AcDbVertex
100
AcDbPolyFaceMeshVertex
 10
0.3131370544433594
 20
-1.008615136146545
 30
-5.789551258087158
 70
   192
  0
VERTEX
  5
258
330
FC
100
AcDbEntity
  8
0
 62
   121
420
 10085590
100
AcDbVertex
100
AcDbPolyFaceMeshVertex
 10
0.4393115937709809
 20
-1.227155685424804
 30
-5.789551258087158
 70
   192
  0
VERTEX
  5
259
330
FC
100
AcDbEntity
  8
0
 62
   121
420
 10085590
100
AcDbVertex
100
AcDbPolyFaceMeshVertex
 10
0.6326221227645874
 20
-1.389362573623657
 30
-5.789551258087158
 70
   192
  0
VERTEX
  5
25A
330
FC
100
AcDbEntity
  8
0
 62
   121
420
 10085590
100
AcDbVertex
100
AcDbPolyFaceMeshVertex
 10
0.8697525858879089
 20
-1.475671052932739
 30
-5.789551258087158
 70
   192
  0
VERTEX
  5
25B
330
FC
100
AcDbEntity
  8
0
 62
   121
420
 10085590
100
AcDbVertex
100
AcDbPolyFaceMeshVertex
 10
1.122101664543151
 20
-1.475671052932739
 30
-5.789551258087158
 70
   192
  0
VERTEX
  5
25C
330
FC
100
AcDbEntity
  8
0
 62
   121
420
 10085590
100
AcDbVertex
100
AcDbPolyFaceMeshVertex
 10
1.359232187271118
 20
-1.389362812042236
 30
-5.789551258087158
 70
   192
  0
VERTEX
  5
25D
330
FC
100
AcDbEntity
  8
0
 62
   121
420
 10085590
100
AcDbVertex
100
AcDbPolyFaceMeshVertex
 10
1.552542924880981
 20
-1.227156281471252
 30
-5.789551258087158
 70
   192
  0
VERTEX
  5
25E
330
FC
100
AcDbEntity
  8
0
 62
   121
420
 10085590
100
AcDbVertex
100
AcDbPolyFaceMeshVertex
 10
1.678717613220214
 20
-1.008615732192993
 30
-5.789551258087158
 70
   192
  0
VERTEX
  5
25F
330
FC
100
AcDbEntity
  8
0
 62
   121
420
 10085590
100
AcDbFaceRecord
 10
0.0
 20
0.0
 30
0.0
 70
   128
 71
     1
 72
     8
 73
    -9
 74
    -1
  0
VERTEX
  5
260
330
FC
100
AcDbEntity
  8
0
 62
   121
420
 10085590
100
AcDbFaceRecord
 10
0.0
 20
0.0
 30
0.0
 70
   128
 71
     9
 72
     2
 73
    -1
 74
    -9
  0
VERTEX
  5
261
330
FC
100
AcDbEntity
  8
0
 62
   121
420
 10085590
100
AcDbFaceRecord
 10
0.0
 20
0.0
 30
0.0
 70
   128
 71
     2
 72
     9
 73
   -10
 74
    -2
  0
VERTEX
  5
262
330
FC
100
AcDbEntity
  8
0
 62
   121
420
 10085590
100
AcDbFaceRecord
 10
0.0
 20
0.0
 30
0.0
 70
   128
 71
    10
 72
     3
 73
    -2
 74
   -10
  0
VERTEX
  5
263
330
FC
100
AcDbEntity
  8
0
 62
   121
420
 10085590
100
AcDbFaceRecord
 10
0.0
 20
0.0
 30
0.0
 70
   128
 71
     3
 72
    10
 73
   -11
 74
    -3
  0
VERTEX
  5
264
330
FC
100
AcDbEntity
  8
0
 62
   121
420
 10085590
100
AcDbFaceRecord
 10
0.0
 20
0.0
 30
0.0
 70
   128
 71
    11
 72
     4
 73
    -3
 74
   -11
  0
VERTEX
  5
265
330
FC
100
AcDbEntity
  8
0
 62
   121
420
 10085590
100
AcDbFaceRecord
 10
0.0
 20
0.0
 30
0.0
 70
   128
 71
     4
 72
    11
 73
   -12
 74
    -4
  0
VERTEX
  5
266
330
FC
100
AcDbEntity
  8
0
 62
   121
420
 10085590
100
AcDbFaceRecord
 10
0.0
 20
0.0
 30
0.0
 70
   128
 71
    12
 72
     5
 73
    -4
 74
   -12
  0
VERTEX
  5
267
330
FC
100
AcDbEntity
  8
0
 62
   121
420
 10085590
100
AcDbFaceRecord
 10
0.0
 20
0.0
 30
0.0
 70
   128
 71
     5
 72
    12
 73
   -13
 74
    -5
  0
VERTEX
  5
268
330
FC
100
AcDbEntity
  8
0
 62
   121
420
 10085590
100
AcDbFaceRecord
 10
0.0
 20
0.0
 30
0.0
 70
   128
 71
    13
 72
     6
 73
    -5
 74
   -13
  0
VERTEX
  5
269
330
FC
100
AcDbEntity
  8
0
 62
   121
420
 10085590
100
AcDbFaceRecord
 10
0.0
 20
0.0
 30
0.0
 70
   128
 71
     6
 72
    13
 73
   -14
 74
    -6
  0
VERTEX
  5
26A
330
FC
100
AcDbEntity
  8
0
 62
   121
420
 10085590
100
AcDbFaceRecord
 10
0.0
 20
0.0
 30
0.0
 70
   128
 71
    14
 72
     7
 73
    -6
 74
   -14
  0
VERTEX
  5
26B
330
FC
100
AcDbEntity
  8
0
 62
   121
420
 10085590
100
AcDbFaceRecord
 10
0.0
 20
0.0
 30
0.0
 70
   128
 71
     8
 72
    15
 73
   -16
 74
    -8
  0
VERTEX
  5
26C
330
FC
100
AcDbEntity
  8
0
 62
   121
420
 10085590
100
AcDbFaceRecord
 10
0.0
 20
0.0
 30
0.0
 70
   128
 71
    16
 72
     9
 73
    -8
 74
   -16
  0
VERTEX
  5
26D
330
FC
100
AcDbEntity
  8
0
 62
   121
420
 10085590
100
AcDbFaceRecord
 10
0.0
 20
0.0
 30
0.0
 70
   128
 71
    13
 72
    17
 73
   -18
 74
   -13
  0
VERTEX
  5
26E
330
FC
100
AcDbEntity
  8
0
 62
   121
420
 10085590
100
AcDbFaceRecord
 10
0.0
 20
0.0
 30
0.0
 70
   128
 71
    18
 72
    14
 73
   -13
 74
   -18
  0
VERTEX
  5
26F
330
FC
100
AcDbEntity
  8
0
 62
   121
420
 10085590
100
AcDbFaceRecord
 10
0.0
 20
0.0
 30
0.0
 70
   128
 71
    15
 72
    19
 73
   -20
 74
   -15
  0
VERTEX
  5
270
330
FC
100
AcDbEntity
  8
0
 62
   121
420
 10085590
100
AcDbFaceRecord
 10
0.0
 20
0.0
 30
0.0
 70
   128
 71
    20
 72
    16
 73
   -15
 74
   -20
  0
VERTEX
  5
271
330
FC
100
AcDbEntity
  8
0
 62
   121
420
 10085590
100
AcDbFaceRecord
 10
0.0
 20
0.0
 30
0.0
 70
   128
 71
    17
 72
    21
 73
   -22
 74
   -17
  0
VERTEX
  5
272
330
FC
100
AcDbEntity
  8
0
 62
   121
420
 10085590
100
AcDbFaceRecord
 10
0.0
 20
0.0
 30
0.0
 70
   128
 71
    22
 72
    18
 73
   -17
 74
   -22
  0
VERTEX
  5
273
330
FC
100
AcDbEntity
  8
0
 62
   121
420
 10085590
100
AcDbFaceRecord
 10
0.0
 20
0.0
 30
0.0
 70
   128
 71
    19
 72
    23
 73
   -24
 74
   -19
  0
VERTEX
  5
274
330
FC
100
AcDbEntity
  8
0
 62
   121
420
 10085590
100
AcDbFaceRecord
 10
0.0
 20
0.0
 30
0.0
 70
   128
 71
    24
 72
    20
 73
   -19
 74
   -24
  0
VERTEX
  5
275
330
FC
100
AcDbEntity
  8
0
 62
   121
420
 10085590
100
AcDbFaceRecord
 10
0.0
 20
0.0
 30
0.0
 70
   128
 71
    21
 72
    25
 73
   -26
 74
   -21
  0
VERTEX
  5
276
330
FC
100
AcDbEntity
  8
0
 62
   121
420
 10085590
100
AcDbFaceRecord
 10
0.0
 20
0.0
 30
0.0
 70
   128
 71
    26
 72
    22
 73
   -21
 74
   -26
  0
VERTEX
  5
277
330
FC
100
AcDbEntity
  8
0
 62
   121
420
 10085590
100
AcDbFaceRecord
 10
0.0
 20
0.0
 30
0.0
 70
   128
 71
    23
 72
    27
 73
   -28
 74
   -23
  0
VERTEX
  5
278
330
FC
100
AcDbEntity
  8
0
 62
   121
420
 10085590
100
AcDbFaceRecord
 10
0.0
 20
0.0
 30
0.0
 70
   128
 71
    28
 72
    24
 73
   -23
 74
   -28
  0
VERTEX
  5
279
330
FC
100
AcDbEntity
  8
0
 62
   121
420
 10085590
100
AcDbFaceRecord
 10
0.0
 20
0.0
 30
0.0
 70
   128
 71
    25
 72
    32
 73
   -33
 74
   -25
  0
VERTEX
  5
27A
330
FC
100
AcDbEntity
  8
0
 62
   121
420
 10085590
100
AcDbFaceRecord
 10
0.0
 20
0.0
 30
0.0
 70
   128
 71
    33
 72
    26
 73
   -25
 74
   -33
  0
VERTEX
  5
27B
330
FC
100
AcDbEntity
  8
0
 62
   121
420
 10085590
100
AcDbFaceRecord
 10
0.0
 20
0.0
 30
0.0
 70
   128
 71
    27
 72
    34
 73
   -35
 74
   -27
  0
VERTEX
  5
27C
330
FC
100
AcDbEntity
  8
0
 62
   121
420
 10085590
100
AcDbFaceRecord
 10
0.0
 20
0.0
 30
0.0
 70
   128
 71
    35
 72
    28
 73
   -27
 74
   -35
  0
VERTEX
  5
27D
330
FC
100
AcDbEntity
  8
0
 62
   121
420
 10085590
100
AcDbFaceRecord
 10
0.0
 20
0.0
 30
0.0
 70
   128
 71
    28
 72
    35
 73
   -36
 74
   -28
  0
VERTEX
  5
27E
330
FC
100
AcDbEntity
  8
0
 62
   121
420
 10085590
100
AcDbFaceRecord
 10
0.0
 20
0.0
 30
0.0
 70
   128
 71
    36
 72
    29
 73
   -28
 74
   -36
  0
VERTEX
  5
27F
330
FC
100
AcDbEntity
  8
0
 62
   121
420
 10085590
100
AcDbFaceRecord
 10
0.0
 20
0.0
 30
0.0
 70
   128
 71
    29
 72
    36
 73
   -37
 74
   -29
  0
VERTEX
  5
280
330
FC
100
AcDbEntity
  8
0
 62
   121
420
 10085590
100
AcDbFaceRecord
 10
0.0
 20
0.0
 30
0.0
 70
   128
 71
    37
 72
    30
 73
   -29
 74
   -37
  0
VERTEX
  5
281
330
FC
100
AcDbEntity
  8
0
 62
   121
420
 10085590
100
AcDbFaceRecord
 10
0.0
 20
0.0
 30
0.0
 70
   128
 71
    30
 72
    37
 73
   -38
 74
   -30
  0
VERTEX
  5
282
330
FC
100
AcDbEntity
  8
0
 62
   121
420
 10085590
100
AcDbFaceRecord
 10
0.0
 20
0.0
 30
0.0
 70
   128
 71
    38
 72
    31
 73
   -30
 74
   -38
  0
VERTEX
  5
283
330
FC
100
AcDbEntity
  8
0
 62
   121
420
 10085590
100
AcDbFaceRecord
 10
0.0
 20
0.0
 30
0.0
 70
   128
 71
    31
 72
    38
 73
   -39
 74
   -31
  0
VERTEX
  5
284
330
FC
100
AcDbEntity
  8
0
 62
   121
420
 10085590
100
AcDbFaceRecord
 10
0.0
 20
0.0
 30
0.0
 70
   128
 71
    39
 72
    32
 73
   -31
 74
   -39
  0
VERTEX
  5
285
330
FC
100
AcDbEntity
  8
0
 62
   121
420
 10085590
100
AcDbFaceRecord
 10
0.0
 20
0.0
 30
0.0
 70
   128
 71
    32
 72
    39
 73
   -40
 74
   -32
  0
VERTEX
  5
286
330
FC
100
AcDbEntity
  8
0
 62
   121
420
 10085590
100
AcDbFaceRecord
 10
0.0
 20
0.0
 30
0.0
 70
   128
 71
    40
 72
    33
 73
   -32
 74
   -40
  0
VERTEX
  5
287
330
FC
100
AcDbEntity
  8
0
 62
   121
420
 10085590
100
AcDbFaceRecord
 10
0.0
 20
0.0
 30
0.0
 70
   128
 71
    41
 72
    42
 73
   -49
 74
   -41
  0
VERTEX
  5
288
330
FC
100
AcDbEntity
  8
0
 62
   121
420
 10085590
100
AcDbFaceRecord
 10
0.0
 20
0.0
 30
0.0
 70
   128
 71
    49
 72
    48
 73
   -41
 74
   -49
  0
VERTEX
  5
289
330
FC
100
AcDbEntity
  8
0
 62
   121
420
 10085590
100
AcDbFaceRecord
 10
0.0
 20
0.0
 30
0.0
 70
   128
 71
    42
 72
    43
 73
   -50
 74
   -42
  0
VERTEX
  5
28A
330
FC
100
AcDbEntity
  8
0
 62
   121
420
 10085590
100
AcDbFaceRecord
 10
0.0
 20
0.0
 30
0.0
 70
   128
 71
    50
 72
    49
 73
   -42
 74
   -50
  0
VERTEX
  5
28B
330
FC
100
AcDbEntity
  8
0
 62
   121
420
 10085590
100
AcDbFaceRecord
 10
0.0
 20
0.0
 30
0.0
 70
   128
 71
    43
 72
    44
 73
   -51
 74
   -43
  0
VERTEX
  5
28C
330
FC
100
AcDbEntity
  8
0
 62
   121
420
 10085590
100
AcDbFaceRecord
 10
0.0
 20
0.0
 30
0.0
 70
   128
 71
    51
 72
    50
 73
   -43
 74
   -51
  0
VERTEX
  5
28D
330
FC
100
AcDbEntity
  8
0
 62
   121
420
 10085590
100
AcDbFaceRecord
 10
0.0
 20
0.0
 30
0.0
 70
   128
 71
    44
 72
    45
 73
   -52
 74
   -44
  0
VERTEX
  5
28E
330
FC
100
AcDbEntity
  8
0
 62
   121
420
 10085590
100
AcDbFaceRecord
 10
0.0
 20
0.0
 30
0.0
 70
   128
 71
    52
 72
    51
 73
   -44
 74
   -52
  0
VERTEX
  5
28F
330
FC
100
AcDbEntity
  8
0
 62
   121
420
 10085590
100
AcDbFaceRecord
 10
0.0
 20
0.0
 30
0.0
 70
   128
 71
    45
 72
    46
 73
   -53
 74
   -45
  0
VERTEX
  5
290
330
FC
100
AcDbEntity
  8
0
 62
   121
420
 10085590
100
AcDbFaceRecord
 10
0.0
 20
0.0
 30
0.0
 70
   128
 71
    53
 72
    52
 73
   -45
 74
   -53
  0
VERTEX
  5
291
330
FC
100
AcDbEntity
  8
0
 62
   121
420
 10085590
100
AcDbFaceRecord
 10
0.0
 20
0.0
 30
0.0
 70
   128
 71
    46
 72
    47
 73
   -54
 74
   -46
  0
VERTEX
  5
292
330
FC
100
AcDbEntity
  8
0
 62
   121
420
 10085590
100
AcDbFaceRecord
 10
0.0
 20
0.0
 30
0.0
 70
   128
 71
    54
 72
    53
 73
   -46
 74
   -54
  0
VERTEX
  5
293
330
FC
100
AcDbEntity
  8
0
 62
   121
420
 10085590
100
AcDbFaceRecord
 10
0.0
 20
0.0
 30
0.0
 70
   128
 71
    48
 72
    49
 73
   -56
 74
   -48
  0
VERTEX
  5
294
330
FC
100
AcDbEntity
  8
0
 62
   121
420
 10085590
100
AcDbFaceRecord
 10
0.0
 20
0.0
 30
0.0
 70
   128
 71
    56
 72
    55
 73
   -48
 74
   -56
  0
VERTEX
  5
295
330
FC
100
AcDbEntity
  8
0
 62
   121
420
 10085590
100
AcDbFaceRecord
 10
0.0
 20
0.0
 30
0.0
 70
   128
 71
   106
 72
   107
 73
   -57
 74
  -106
  0
VERTEX
  5
296
330
FC
100
AcDbEntity
  8
0
 62
   121
420
 10085590
100
AcDbFaceRecord
 10
0.0
 20
0.0
 30
0.0
 70
   128
 71
    57
 72
   111
 73
  -106
 74
   -57
  0
VERTEX
  5
297
330
FC
100
AcDbEntity
  8
0
 62
   121
420
 10085590
100
AcDbFaceRecord
 10
0.0
 20
0.0
 30
0.0
 70
   128
 71
   107
 72
   108
 73
   -58
 74
  -107
  0
VERTEX
  5
298
330
FC
100
AcDbEntity
  8
0
 62
   121
420
 10085590
100
AcDbFaceRecord
 10
0.0
 20
0.0
 30
0.0
 70
   128
 71
    58
 72
    57
 73
  -107
 74
   -58
  0
VERTEX
  5
299
330
FC
100
AcDbEntity
  8
0
 62
   121
420
 10085590
100
AcDbFaceRecord
 10
0.0
 20
0.0
 30
0.0
 70
   128
 71
   108
 72
   109
 73
   -59
 74
  -108
  0
VERTEX
  5
29A
330
FC
100
AcDbEntity
  8
0
 62
   121
420
 10085590
100
AcDbFaceRecord
 10
0.0
 20
0.0
 30
0.0
 70
   128
 71
    59
 72
    58
 73
  -108
 74
   -59
  0
VERTEX
  5
29B
330
FC
100
AcDbEntity
  8
0
 62
   121
420
 10085590
100
AcDbFaceRecord
 10
0.0
 20
0.0
 30
0.0
 70
   128
 71
   109
 72
   110
 73
  -112
 74
  -109
  0
VERTEX
  5
29C
330
FC
100
AcDbEntity
  8
0
 62
   121
420
 10085590
100
AcDbFaceRecord
 10
0.0
 20
0.0
 30
0.0
 70
   128
 71
   112
 72
    59
 73
  -109
 74
  -112
  0
VERTEX
  5
29D
330
FC
100
AcDbEntity
  8
0
 62
   121
420
 10085590
100
AcDbFaceRecord
 10
0.0
 20
0.0
 30
0.0
 70
   128
 71
    53
 72
    54
 73
   -61
 74
   -53
  0
VERTEX
  5
29E
330
FC
100
AcDbEntity
  8
0
 62
   121
420
 10085590
100
AcDbFaceRecord
 10
0.0
 20
0.0
 30
0.0
 70
   128
 71
    61
 72
    60
 73
   -53
 74
   -61
  0
VERTEX
  5
29F
330
FC
100
AcDbEntity
  8
0
 62
   121
420
 10085590
100
AcDbFaceRecord
 10
0.0
 20
0.0
 30
0.0
 70
   128
 71
    55
 72
    56
 73
   -63
 74
   -55
  0
VERTEX
  5
2A0
330
FC
100
AcDbEntity
  8
0
 62
   121
420
 10085590
100
AcDbFaceRecord
 10
0.0
 20
0.0
 30
0.0
 70
   128
 71
    63
 72
    62
 73
   -55
 74
   -63
  0
VERTEX
  5
2A1
330
FC
100
AcDbEntity
  8
0
 62
   121
420
 10085590
100
AcDbFaceRecord
 10
0.0
 20
0.0
 30
0.0
 70
   128
 71
   111
 72
    57
 73
   -64
 74
  -111
  0
VERTEX
  5
2A2
330
FC
100
AcDbEntity
  8
0
 62
   121
420
 10085590
100
AcDbFaceRecord
 10
0.0
 20
0.0
 30
0.0
 70
   128
 71
    64
 72
   113
 73
  -111
 74
   -64
  0
VERTEX
  5
2A3
330
FC
100
AcDbEntity
  8
0
 62
   121
420
 10085590
100
AcDbFaceRecord
 10
0.0
 20
0.0
 30
0.0
 70
   128
 71
    57
 72
    58
 73
   -65
 74
   -57
  0
VERTEX
  5
2A4
330
FC
100
AcDbEntity
  8
0
 62
   121
420
 10085590
100
AcDbFaceRecord
 10
0.0
 20
0.0
 30
0.0
 70
   128
 71
    65
 72
    64
 73
   -57
 74
   -65
  0
VERTEX
  5
2A5
330
FC
100
AcDbEntity
  8
0
 62
   121
420
 10085590
100
AcDbFaceRecord
 10
0.0
 20
0.0
 30
0.0
 70
   128
 71
    58
 72
    59
 73
   -66
 74
   -58
  0
VERTEX
  5
2A6
330
FC
100
AcDbEntity
  8
0
 62
   121
420
 10085590
100
AcDbFaceRecord
 10
0.0
 20
0.0
 30
0.0
 70
   128
 71
    66
 72
    65
 73
   -58
 74
   -66
  0
VERTEX
  5
2A7
330
FC
100
AcDbEntity
  8
0
 62
   121
420
 10085590
100
AcDbFaceRecord
 10
0.0
 20
0.0
 30
0.0
 70
   128
 71
    59
 72
   112
 73
  -114
 74
   -59
  0
VERTEX
  5
2A8
330
FC
100
AcDbEntity
  8
0
 62
   121
420
 10085590
100
AcDbFaceRecord
 10
0.0
 20
0.0
 30
0.0
 70
   128
 71
   114
 72
    66
 73
   -59
 74
  -114
  0
VERTEX
  5
2A9
330
FC
100
AcDbEntity
  8
0
 62
   121
420
 10085590
100
AcDbFaceRecord
 10
0.0
 20
0.0
 30
0.0
 70
   128
 71
    60
 72
    61
 73
   -68
 74
   -60
  0
VERTEX
  5
2AA
330
FC
100
AcDbEntity
  8
0
 62
   121
420
 10085590
100
AcDbFaceRecord
 10
0.0
 20
0.0
 30
0.0
 70
   128
 71
    68
 72
    67
 73
   -60
 74
   -68
  0
VERTEX
  5
2AB
330
FC
100
AcDbEntity
  8
0
 62
   121
420
 10085590
100
AcDbFaceRecord
 10
0.0
 20
0.0
 30
0.0
 70
   128
 71
    62
 72
    63
 73
   -70
 74
   -62
  0
VERTEX
  5
2AC
330
FC
100
AcDbEntity
  8
0
 62
   121
420
 10085590
100
AcDbFaceRecord
 10
0.0
 20
0.0
 30
0.0
 70
   128
 71
    70
 72
    69
 73
   -62
 74
   -70
  0
VERTEX
  5
2AD
330
FC
100
AcDbEntity
  8
0
 62
   121
420
 10085590
100
AcDbFaceRecord
 10
0.0
 20
0.0
 30
0.0
 70
   128
 71
   113
 72
    64
 73
   -71
 74
  -113
  0
VERTEX
  5
2AE
330
FC
100
AcDbEntity
  8
0
 62
   121
420
 10085590
100
AcDbFaceRecord
 10
0.0
 20
0.0
 30
0.0
 70
   128
 71
    71
 72
   115
 73
  -113
 74
   -71
  0
VERTEX
  5
2AF
330
FC
100
AcDbEntity
  8
0
 62
   121
420
 10085590
100
AcDbFaceRecord
 10
0.0
 20
0.0
 30
0.0
 70
   128
 71
    64
 72
    65
 73
   -72
 74
   -64
  0
VERTEX
  5
2B0
330
FC
100
AcDbEntity
  8
0
 62
   121
420
 10085590
100
AcDbFaceRecord
 10
0.0
 20
0.0
 30
0.0
 70
   128
 71
    72
 72
    71
 73
   -64
 74
   -72
  0
VERTEX
  5
2B1
330
FC
100
AcDbEntity
  8
0
 62
   121
420
 10085590
100
AcDbFaceRecord
 10
0.0
 20
0.0
 30
0.0
 70
   128
 71
    65
 72
    66
 73
   -73
 74
   -65
  0
VERTEX
  5
2B2
330
FC
100
AcDbEntity
  8
0
 62
   121
420
 10085590
100
AcDbFaceRecord
 10
0.0
 20
0.0
 30
0.0
 70
   128
 71
    73
 72
    72
 73
   -65
 74
   -73
  0
VERTEX
  5
2B3
330
FC
100
AcDbEntity
  8
0
 62
   121
420
 10085590
100
AcDbFaceRecord
 10
0.0
 20
0.0
 30
0.0
 70
   128
 71
    66
 72
   114
 73
  -116
 74
   -66
  0
VERTEX
  5
2B4
330
FC
100
AcDbEntity
  8
0
 62
   121
420
 10085590
100
AcDbFaceRecord
 10
0.0
 20
0.0
 30
0.0
 70
   128
 71
   116
 72
    73
 73
   -66
 74
  -116
  0
VERTEX
  5
2B5
330
FC
100
AcDbEntity
  8
0
 62
   121
420
 10085590
100
AcDbFaceRecord
 10
0.0
 20
0.0
 30
0.0
 70
   128
 71
    67
 72
    68
 73
   -75
 74
   -67
  0
VERTEX
  5
2B6
330
FC
100
AcDbEntity
  8
0
 62
   121
420
 10085590
100
AcDbFaceRecord
 10
0.0
 20
0.0
 30
0.0
 70
   128
 71
    75
 72
    74
 73
   -67
 74
   -75
  0
VERTEX
  5
2B7
330
FC
100
AcDbEntity
  8
0
 62
   121
420
 10085590
100
AcDbFaceRecord
 10
0.0
 20
0.0
 30
0.0
 70
   128
 71
    69
 72
    70
 73
   -77
 74
   -69
  0
VERTEX
  5
2B8
330
FC
100
AcDbEntity
  8
0
 62
   121
420
 10085590
100
AcDbFaceRecord
 10
0.0
 20
0.0
 30
0.0
 70
   128
 71
    77
 72
    76
 73
   -69
 74
   -77
  0
VERTEX
  5
2B9
330
FC
100
AcDbEntity
  8
0
 62
   121
420
 10085590
100
AcDbFaceRecord
 10
0.0
 20
0.0
 30
0.0
 70
   128
 71
   115
 72
    71
 73
  -118
 74
  -115
  0
VERTEX
  5
2BA
330
FC
100
AcDbEntity
  8
0
 62
   121
420
 10085590
100
AcDbFaceRecord
 10
0.0
 20
0.0
 30
0.0
 70
   128
 71
   118
 72
   117
 73
  -115
 74
  -118
  0
VERTEX
  5
2BB
330
FC
100
AcDbEntity
  8
0
 62
   121
420
 10085590
100
AcDbFaceRecord
 10
0.0
 20
0.0
 30
0.0
 70
   128
 71
    71
 72
    72
 73
  -119
 74
   -71
  0
VERTEX
  5
2BC
330
FC
100
AcDbEntity
  8
0
 62
   121
420
 10085590
100
AcDbFaceRecord
 10
0.0
 20
0.0
 30
0.0
 70
   128
 71
   119
 72
   118
 73
   -71
 74
  -119
  0
VERTEX
  5
2BD
330
FC
100
AcDbEntity
  8
0
 62
   121
420
 10085590
100
AcDbFaceRecord
 10
0.0
 20
0.0
 30
0.0
 70
   128
 71
    72
 72
    73
 73
  -120
 74
   -72
  0
VERTEX
  5
2BE
330
FC
100
AcDbEntity
  8
0
 62
   121
420
 10085590
100
AcDbFaceRecord
 10
0.0
 20
0.0
 30
0.0
 70
   128
 71
   120
 72
   119
 73
   -72
 74
  -120
  0
VERTEX
  5
2BF
330
FC
100
AcDbEntity
  8
0
 62
   121
420
 10085590
100
AcDbFaceRecord
 10
0.0
 20
0.0
 30
0.0
 70
   128
 71
    73
 72
   116
 73
  -121
 74
   -73
  0
VERTEX
  5
2C0
330
FC
100
AcDbEntity
  8
0
 62
   121
420
 10085590
100
AcDbFaceRecord
 10
0.0
 20
0.0
 30
0.0
 70
   128
 71
   121
 72
   120
 73
   -73
 74
  -121
  0
VERTEX
  5
2C1
330
FC
100
AcDbEntity
  8
0
 62
   121
420
 10085590
100
AcDbFaceRecord
 10
0.0
 20
0.0
 30
0.0
 70
   128
 71
    74
 72
    75
 73
   -82
 74
   -74
  0
VERTEX
  5
2C2
330
FC
100
AcDbEntity
  8
0
 62
   121
420
 10085590
100
AcDbFaceRecord
 10
0.0
 20
0.0
 30
0.0
 70
   128
 71
    82
 72
    81
 73
   -74
 74
   -82
  0
VERTEX
  5
2C3
330
FC
100
AcDbEntity
  8
0
 62
   121
420
 10085590
100
AcDbFaceRecord
 10
0.0
 20
0.0
 30
0.0
 70
   128
 71
    76
 72
    77
 73
   -84
 74
   -76
  0
VERTEX
  5
2C4
330
FC
100
AcDbEntity
  8
0
 62
   121
420
 10085590
100
AcDbFaceRecord
 10
0.0
 20
0.0
 30
0.0
 70
   128
 71
    84
 72
    83
 73
   -76
 74
   -84
  0
VERTEX
  5
2C5
330
FC
100
AcDbEntity
  8
0
 62
   121
420
 10085590
100
AcDbFaceRecord
 10
0.0
 20
0.0
 30
0.0
 70
   128
 71
    77
 72
    78
 73
   -85
 74
   -77
  0
VERTEX
  5
2C6
330
FC
100
AcDbEntity
  8
0
 62
   121
420
 10085590
100
AcDbFaceRecord
 10
0.0
 20
0.0
 30
0.0
 70
   128
 71
    85
 72
    84
 73
   -77
 74
   -85
  0
VERTEX
  5
2C7
330
FC
100
AcDbEntity
  8
0
 62
   121
420
 10085590
100
AcDbFaceRecord
 10
0.0
 20
0.0
 30
0.0
 70
   128
 71
    78
 72
    79
 73
   -86
 74
   -78
  0
VERTEX
  5
2C8
330
FC
100
AcDbEntity
  8
0
 62
   121
420
 10085590
100
AcDbFaceRecord
 10
0.0
 20
0.0
 30
0.0
 70
   128
 71
    86
 72
    85
 73
   -78
 74
   -86
  0
VERTEX
  5
2C9
330
FC
100
AcDbEntity
  8
0
 62
   121
420
 10085590
100
AcDbFaceRecord
 10
0.0
 20
0.0
 30
0.0
 70
   128
 71
    79
 72
    80
 73
   -87
 74
   -79
  0
VERTEX
  5
2CA
330
FC
100
AcDbEntity
  8
0
 62
   121
420
 10085590
100
AcDbFaceRecord
 10
0.0
 20
0.0
 30
0.0
 70
   128
 71
    87
 72
    86
 73
   -79
 74
   -87
  0
VERTEX
  5
2CB
330
FC
100
AcDbEntity
  8
0
 62
   121
420
 10085590
100
AcDbFaceRecord
 10
0.0
 20
0.0
 30
0.0
 70
   128
 71
    80
 72
    81
 73
   -88
 74
   -80
  0
VERTEX
  5
2CC
330
FC
100
AcDbEntity
  8
0
 62
   121
420
 10085590
100
AcDbFaceRecord
 10
0.0
 20
0.0
 30
0.0
 70
   128
 71
    88
 72
    87
 73
   -80
 74
   -88
  0
VERTEX
  5
2CD
330
FC
100
AcDbEntity
  8
0
 62
   121
420
 10085590
100
AcDbFaceRecord
 10
0.0
 20
0.0
 30
0.0
 70
   128
 71
    81
 72
    82
 73
   -89
 74
   -81
  0
VERTEX
  5
2CE
330
FC
100
AcDbEntity
  8
0
 62
   121
420
 10085590
100
AcDbFaceRecord
 10
0.0
 20
0.0
 30
0.0
 70
   128
 71
    89
 72
    88
 73
   -81
 74
   -89
  0
VERTEX
  5
2CF
330
FC
100
AcDbEntity
  8
0
 62
   121
420
 10085590
100
AcDbFaceRecord
 10
0.0
 20
0.0
 30
0.0
 70
   128
 71
     1
 72
     2
 73
   -42
 74
    -1
  0
VERTEX
  5
2D0
330
FC
100
AcDbEntity
  8
0
 62
   121
420
 10085590
100
AcDbFaceRecord
 10
0.0
 20
0.0
 30
0.0
 70
   128
 71
    42
 72
    41
 73
    -1
 74
   -42
  0
VERTEX
  5
2D1
330
FC
100
AcDbEntity
  8
0
 62
   121
420
 10085590
100
AcDbFaceRecord
 10
0.0
 20
0.0
 30
0.0
 70
   128
 71
     2
 72
     3
 73
   -43
 74
    -2
  0
VERTEX
  5
2D2
330
FC
100
AcDbEntity
  8
0
 62
   121
420
 10085590
100
AcDbFaceRecord
 10
0.0
 20
0.0
 30
0.0
 70
   128
 71
    43
 72
    42
 73
    -2
 74
   -43
  0
VERTEX
  5
2D3
330
FC
100
AcDbEntity
  8
0
 62
   121
420
 10085590
100
AcDbFaceRecord
 10
0.0
 20
0.0
 30
0.0
 70
   128
 71
     3
 72
     4
 73
   -44
 74
    -3
  0
VERTEX
  5
2D4
330
FC
100
AcDbEntity
  8
0
 62
   121
420
 10085590
100
AcDbFaceRecord
 10
0.0
 20
0.0
 30
0.0
 70
   128
 71
    44
 72
    43
 73
    -3
 74
   -44
  0
VERTEX
  5
2D5
330
FC
100
AcDbEntity
  8
0
 62
   121
420
 10085590
100
AcDbFaceRecord
 10
0.0
 20
0.0
 30
0.0
 70
   128
 71
     4
 72
     5
 73
   -45
 74
    -4
  0
VERTEX
  5
2D6
330
FC
100
AcDbEntity
  8
0
 62
   121
420
 10085590
100
AcDbFaceRecord
 10
0.0
 20
0.0
 30
0.0
 70
   128
 71
    45
 72
    44
 73
    -4
 74
   -45
  0
VERTEX
  5
2D7
330
FC
100
AcDbEntity
  8
0
 62
   121
420
 10085590
100
AcDbFaceRecord
 10
0.0
 20
0.0
 30
0.0
 70
   128
 71
     5
 72
     6
 73
   -46
 74
    -5
  0
VERTEX
  5
2D8
330
FC
100
AcDbEntity
  8
0
 62
   121
420
 10085590
100
AcDbFaceRecord
 10
0.0
 20
0.0
 30
0.0
 70
   128
 71
    46
 72
    45
 73
    -5
 74
   -46
  0
VERTEX
  5
2D9
330
FC
100
AcDbEntity
  8
0
 62
   121
420
 10085590
100
AcDbFaceRecord
 10
0.0
 20
0.0
 30
0.0
 70
   128
 71
     6
 72
     7
 73
   -47
 74
    -6
  0
VERTEX
  5
2DA
330
FC
100
AcDbEntity
  8
0
 62
   121
420
 10085590
100
AcDbFaceRecord
 10
0.0
 20
0.0
 30
0.0
 70
   128
 71
    47
 72
    46
 73
    -6
 74
   -47
  0
VERTEX
  5
2DB
330
FC
100
AcDbEntity
  8
0
 62
   121
420
 10085590
100
AcDbFaceRecord
 10
0.0
 20
0.0
 30
0.0
 70
   128
 71
     7
 72
    14
 73
   -54
 74
    -7
  0
VERTEX
  5
2DC
330
FC
100
AcDbEntity
  8
0
 62
   121
420
 10085590
100
AcDbFaceRecord
 10
0.0
 20
0.0
 30
0.0
 70
   128
 71
    54
 72
    47
 73
    -7
 74
   -54
  0
VERTEX
  5
2DD
330
FC
100
AcDbEntity
  8
0
 62
   121
420
 10085590
100
AcDbFaceRecord
 10
0.0
 20
0.0
 30
0.0
 70
   128
 71
    14
 72
    18
 73
   -61
 74
   -14
  0
VERTEX
  5
2DE
330
FC
100
AcDbEntity
  8
0
 62
   121
420
 10085590
100
AcDbFaceRecord
 10
0.0
 20
0.0
 30
0.0
 70
   128
 71
    61
 72
    54
 73
   -14
 74
   -61
  0
VERTEX
  5
2DF
330
FC
100
AcDbEntity
  8
0
 62
   121
420
 10085590
100
AcDbFaceRecord
 10
0.0
 20
0.0
 30
0.0
 70
   128
 71
    18
 72
    22
 73
   -68
 74
   -18
  0
VERTEX
  5
2E0
330
FC
100
AcDbEntity
  8
0
 62
   121
420
 10085590
100
AcDbFaceRecord
 10
0.0
 20
0.0
 30
0.0
 70
   128
 71
    68
 72
    61
 73
   -18
 74
   -68
  0
VERTEX
  5
2E1
330
FC
100
AcDbEntity
  8
0
 62
   121
420
 10085590
100
AcDbFaceRecord
 10
0.0
 20
0.0
 30
0.0
 70
   128
 71
    22
 72
    26
 73
   -75
 74
   -22
  0
VERTEX
  5
2E2
330
FC
100
AcDbEntity
  8
0
 62
   121
420
 10085590
100
AcDbFaceRecord
 10
0.0
 20
0.0
 30
0.0
 70
   128
 71
    75
 72
    68
 73
   -22
 74
   -75
  0
VERTEX
  5
2E3
330
FC
100
AcDbEntity
  8
0
 62
   121
420
 10085590
100
AcDbFaceRecord
 10
0.0
 20
0.0
 30
0.0
 70
   128
 71
    26
 72
    33
 73
   -82
 74
   -26
  0
VERTEX
  5
2E4
330
FC
100
AcDbEntity
  8
0
 62
   121
420
 10085590
100
AcDbFaceRecord
 10
0.0
 20
0.0
 30
0.0
 70
   128
 71
    82
 72
    75
 73
   -26
 74
   -82
  0
VERTEX
  5
2E5
330
FC
100
AcDbEntity
  8
0
 62
   121
420
 10085590
100
AcDbFaceRecord
 10
0.0
 20
0.0
 30
0.0
 70
   128
 71
    33
 72
    40
 73
   -89
 74
   -33
  0
VERTEX
  5
2E6
330
FC
100
AcDbEntity
  8
0
 62
   121
420
 10085590
100
AcDbFaceRecord
 10
0.0
 20
0.0
 30
0.0
 70
   128
 71
    89
 72
    82
 73
   -33
 74
   -89
  0
VERTEX
  5
2E7
330
FC
100
AcDbEntity
  8
0
 62
   121
420
 10085590
100
AcDbFaceRecord
 10
0.0
 20
0.0
 30
0.0
 70
   128
 71
    40
 72
    39
 73
   -88
 74
   -40
  0
VERTEX
  5
2E8
330
FC
100
AcDbEntity
  8
0
 62
   121
420
 10085590
100
AcDbFaceRecord
 10
0.0
 20
0.0
 30
0.0
 70
   128
 71
    88
 72
    89
 73
   -40
 74
   -88
  0
VERTEX
  5
2E9
330
FC
100
AcDbEntity
  8
0
 62
   121
420
 10085590
100
AcDbFaceRecord
 10
0.0
 20
0.0
 30
0.0
 70
   128
 71
    39
 72
    38
 73
   -87
 74
   -39
  0
VERTEX
  5
2EA
330
FC
100
AcDbEntity
  8
0
 62
   121
420
 10085590
100
AcDbFaceRecord
 10
0.0
 20
0.0
 30
0.0
 70
   128
 71
    87
 72
    88
 73
   -39
 74
   -87
  0
VERTEX
  5
2EB
330
FC
100
AcDbEntity
  8
0
 62
   121
420
 10085590
100
AcDbFaceRecord
 10
0.0
 20
0.0
 30
0.0
 70
   128
 71
    38
 72
    37
 73
   -86
 74
   -38
  0
VERTEX
  5
2EC
330
FC
100
AcDbEntity
  8
0
 62
   121
420
 10085590
100
AcDbFaceRecord
 10
0.0
 20
0.0
 30
0.0
 70
   128
 71
    86
 72
    87
 73
   -38
 74
   -86
  0
VERTEX
  5
2ED
330
FC
100
AcDbEntity
  8
0
 62
   121
420
 10085590
100
AcDbFaceRecord
 10
0.0
 20
0.0
 30
0.0
 70
   128
 71
    37
 72
    36
 73
   -85
 74
   -37
  0
VERTEX
  5
2EE
330
FC
100
AcDbEntity
  8
0
 62
   121
420
 10085590
100
AcDbFaceRecord
 10
0.0
 20
0.0
 30
0.0
 70
   128
 71
    85
 72
    86
 73
   -37
 74
   -85
  0
VERTEX
  5
2EF
330
FC
100
AcDbEntity
  8
0
 62
   121
420
 10085590
100
AcDbFaceRecord
 10
0.0
 20
0.0
 30
0.0
 70
   128
 71
    36
 72
    35
 73
   -84
 74
   -36
  0
VERTEX
  5
2F0
330
FC
100
AcDbEntity
  8
0
 62
   121
420
 10085590
100
AcDbFaceRecord
 10
0.0
 20
0.0
 30
0.0
 70
   128
 71
    84
 72
    85
 73
   -36
 74
   -84
  0
VERTEX
  5
2F1
330
FC
100
AcDbEntity
  8
0
 62
   121
420
 10085590
100
AcDbFaceRecord
 10
0.0
 20
0.0
 30
0.0
 70
   128
 71
    35
 72
    34
 73
   -83
 74
   -35
  0
VERTEX
  5
2F2
330
FC
100
AcDbEntity
  8
0
 62
   121
420
 10085590
100
AcDbFaceRecord
 10
0.0
 20
0.0
 30
0.0
 70
   128
 71
    83
 72
    84
 73
   -35
 74
   -83
  0
VERTEX
  5
2F3
330
FC
100
AcDbEntity
  8
0
 62
   121
420
 10085590
100
AcDbFaceRecord
 10
0.0
 20
0.0
 30
0.0
 70
   128
 71
    34
 72
    27
 73
   -76
 74
   -34
  0
VERTEX
  5
2F4
330
FC
100
AcDbEntity
  8
0
 62
   121
420
 10085590
100
AcDbFaceRecord
 10
0.0
 20
0.0
 30
0.0
 70
   128
 71
    76
 72
    83
 73
   -34
 74
   -76
  0
VERTEX
  5
2F5
330
FC
100
AcDbEntity
  8
0
 62
   121
420
 10085590
100
AcDbFaceRecord
 10
0.0
 20
0.0
 30
0.0
 70
   128
 71
    27
 72
    23
 73
   -69
 74
   -27
  0
VERTEX
  5
2F6
330
FC
100
AcDbEntity
  8
0
 62
   121
420
 10085590
100
AcDbFaceRecord
 10
0.0
 20
0.0
 30
0.0
 70
   128
 71
    69
 72
    76
 73
   -27
 74
   -69
  0
VERTEX
  5
2F7
330
FC
100
AcDbEntity
  8
0
 62
   121
420
 10085590
100
AcDbFaceRecord
 10
0.0
 20
0.0
 30
0.0
 70
   128
 71
    23
 72
    19
 73
   -62
 74
   -23
  0
VERTEX
  5
2F8
330
FC
100
AcDbEntity
  8
0
 62
   121
420
 10085590
100
AcDbFaceRecord
 10
0.0
 20
0.0
 30
0.0
 70
   128
 71
    62
 72
    69
 73
   -23
 74
   -62
  0
VERTEX
  5
2F9
330
FC
100
AcDbEntity
  8
0
 62
   121
420
 10085590
100
AcDbFaceRecord
 10
0.0
 20
0.0
 30
0.0
 70
   128
 71
    19
 72
    15
 73
   -55
 74
   -19
  0
VERTEX
  5
2FA
330
FC
100
AcDbEntity
  8
0
 62
   121
420
 10085590
100
AcDbFaceRecord
 10
0.0
 20
0.0
 30
0.0
 70
   128
 71
    55
 72
    62
 73
   -19
 74
   -55
  0
VERTEX
  5
2FB
330
FC
100
AcDbEntity
  8
0
 62
   121
420
 10085590
100
AcDbFaceRecord
 10
0.0
 20
0.0
 30
0.0
 70
   128
 71
    15
 72
     8
 73
   -48
 74
   -15
  0
VERTEX
  5
2FC
330
FC
100
AcDbEntity
  8
0
 62
   121
420
 10085590
100
AcDbFaceRecord
 10
0.0
 20
0.0
 30
0.0
 70
   128
 71
    48
 72
    55
 73
   -15
 74
   -48
  0
VERTEX
  5
2FD
330
FC
100
AcDbEntity
  8
0
 62
   121
420
 10085590
100
AcDbFaceRecord
 10
0.0
 20
0.0
 30
0.0
 70
   128
 71
     8
 72
     1
 73
   -41
 74
    -8
  0
VERTEX
  5
2FE
330
FC
100
AcDbEntity
  8
0
 62
   121
420
 10085590
100
AcDbFaceRecord
 10
0.0
 20
0.0
 30
0.0
 70
   128
 71
    41
 72
    48
 73
    -8
 74
   -41
  0
VERTEX
  5
2FF
330
FC
100
AcDbEntity
  8
0
 62
   121
420
 10085590
100
AcDbFaceRecord
 10
0.0
 20
0.0
 30
0.0
 70
   128
 71
    49
 72
    50
 73
   -91
 74
   -49
  0
VERTEX
  5
300
330
FC
100
AcDbEntity
  8
0
 62
   121
420
 10085590
100
AcDbFaceRecord
 10
0.0
 20
0.0
 30
0.0
 70
   128
 71
    91
 72
    90
 73
   -49
 74
   -91
  0
VERTEX
  5
301
330
FC
100
AcDbEntity
  8
0
 62
   121
420
 10085590
100
AcDbFaceRecord
 10
0.0
 20
0.0
 30
0.0
 70
   128
 71
    50
 72
    51
 73
   -92
 74
   -50
  0
VERTEX
  5
302
330
FC
100
AcDbEntity
  8
0
 62
   121
420
 10085590
100
AcDbFaceRecord
 10
0.0
 20
0.0
 30
0.0
 70
   128
 71
    92
 72
    91
 73
   -50
 74
   -92
  0
VERTEX
  5
303
330
FC
100
AcDbEntity
  8
0
 62
   121
420
 10085590
100
AcDbFaceRecord
 10
0.0
 20
0.0
 30
0.0
 70
   128
 71
    51
 72
    52
 73
   -93
 74
   -51
  0
VERTEX
  5
304
330
FC
100
AcDbEntity
  8
0
 62
   121
420
 10085590
100
AcDbFaceRecord
 10
0.0
 20
0.0
 30
0.0
 70
   128
 71
    93
 72
    92
 73
   -51
 74
   -93
  0
VERTEX
  5
305
330
FC
100
AcDbEntity
  8
0
 62
   121
420
 10085590
100
AcDbFaceRecord
 10
0.0
 20
0.0
 30
0.0
 70
   128
 71
    52
 72
    53
 73
   -94
 74
   -52
  0
VERTEX
  5
306
330
FC
100
AcDbEntity
  8
0
 62
   121
420
 10085590
100
AcDbFaceRecord
 10
0.0
 20
0.0
 30
0.0
 70
   128
 71
    94
 72
    93
 73
   -52
 74
   -94
  0
VERTEX
  5
307
330
FC
100
AcDbEntity
  8
0
 62
   121
420
 10085590
100
AcDbFaceRecord
 10
0.0
 20
0.0
 30
0.0
 70
   128
 71
    56
 72
    49
 73
   -90
 74
   -56
  0
VERTEX
  5
308
330
FC
100
AcDbEntity
  8
0
 62
   121
420
 10085590
100
AcDbFaceRecord
 10
0.0
 20
0.0
 30
0.0
 70
   128
 71
    90
 72
    95
 73
   -56
 74
   -90
  0
VERTEX
  5
309
330
FC
100
AcDbEntity
  8
0
 62
   121
420
 10085590
100
AcDbFaceRecord
 10
0.0
 20
0.0
 30
0.0
 70
   128
 71
    53
 72
    60
 73
   -96
 74
   -53
  0
VERTEX
  5
30A
330
FC
100
AcDbEntity
  8
0
 62
   121
420
 10085590
100
AcDbFaceRecord
 10
0.0
 20
0.0
 30
0.0
 70
   128
 71
    96
 72
    94
 73
   -53
 74
   -96
  0
VERTEX
  5
30B
330
FC
100
AcDbEntity
  8
0
 62
   121
420
 10085590
100
AcDbFaceRecord
 10
0.0
 20
0.0
 30
0.0
 70
   128
 71
    63
 72
    56
 73
   -95
 74
   -63
  0
VERTEX
  5
30C
330
FC
100
AcDbEntity
  8
0
 62
   121
420
 10085590
100
AcDbFaceRecord
 10
0.0
 20
0.0
 30
0.0
 70
   128
 71
    95
 72
    97
 73
   -63
 74
   -95
  0
VERTEX
  5
30D
330
FC
100
AcDbEntity
  8
0
 62
   121
420
 10085590
100
AcDbFaceRecord
 10
0.0
 20
0.0
 30
0.0
 70
   128
 71
    60
 72
    67
 73
   -98
 74
   -60
  0
VERTEX
  5
30E
330
FC
100
AcDbEntity
  8
0
 62
   121
420
 10085590
100
AcDbFaceRecord
 10
0.0
 20
0.0
 30
0.0
 70
   128
 71
    98
 72
    96
 73
   -60
 74
   -98
  0
VERTEX
  5
30F
330
FC
100
AcDbEntity
  8
0
 62
   121
420
 10085590
100
AcDbFaceRecord
 10
0.0
 20
0.0
 30
0.0
 70
   128
 71
    70
 72
    63
 73
   -97
 74
   -70
  0
VERTEX
  5
310
330
FC
100
AcDbEntity
  8
0
 62
   121
420
 10085590
100
AcDbFaceRecord
 10
0.0
 20
0.0
 30
0.0
 70
   128
 71
    97
 72
    99
 73
   -70
 74
   -97
  0
VERTEX
  5
311
330
FC
100
AcDbEntity
  8
0
 62
   121
420
 10085590
100
AcDbFaceRecord
 10
0.0
 20
0.0
 30
0.0
 70
   128
 71
    67
 72
    74
 73
  -100
 74
   -67
  0
VERTEX
  5
312
330
FC
100
AcDbEntity
  8
0
 62
   121
420
 10085590
100
AcDbFaceRecord
 10
0.0
 20
0.0
 30
0.0
 70
   128
 71
   100
 72
    98
 73
   -67
 74
  -100
  0
VERTEX
  5
313
330
FC
100
AcDbEntity
  8
0
 62
   121
420
 10085590
100
AcDbFaceRecord
 10
0.0
 20
0.0
 30
0.0
 70
   128
 71
    77
 72
    70
 73
   -99
 74
   -77
  0
VERTEX
  5
314
330
FC
100
AcDbEntity
  8
0
 62
   121
420
 10085590
100
AcDbFaceRecord
 10
0.0
 20
0.0
 30
0.0
 70
   128
 71
    99
 72
   101
 73
   -77
 74
   -99
  0
VERTEX
  5
315
330
FC
100
AcDbEntity
  8
0
 62
   121
420
 10085590
100
AcDbFaceRecord
 10
0.0
 20
0.0
 30
0.0
 70
   128
 71
    78
 72
    77
 73
  -101
 74
   -78
  0
VERTEX
  5
316
330
FC
100
AcDbEntity
  8
0
 62
   121
420
 10085590
100
AcDbFaceRecord
 10
0.0
 20
0.0
 30
0.0
 70
   128
 71
   101
 72
   102
 73
   -78
 74
  -101
  0
VERTEX
  5
317
330
FC
100
AcDbEntity
  8
0
 62
   121
420
 10085590
100
AcDbFaceRecord
 10
0.0
 20
0.0
 30
0.0
 70
   128
 71
    79
 72
    78
 73
  -102
 74
   -79
  0
VERTEX
  5
318
330
FC
100
AcDbEntity
  8
0
 62
   121
420
 10085590
100
AcDbFaceRecord
 10
0.0
 20
0.0
 30
0.0
 70
   128
 71
   102
 72
   103
 73
   -79
 74
  -102
  0
VERTEX
  5
319
330
FC
100
AcDbEntity
  8
0
 62
   121
420
 10085590
100
AcDbFaceRecord
 10
0.0
 20
0.0
 30
0.0
 70
   128
 71
    80
 72
    79
 73
  -103
 74
   -80
  0
VERTEX
  5
31A
330
FC
100
AcDbEntity
  8
0
 62
   121
420
 10085590
100
AcDbFaceRecord
 10
0.0
 20
0.0
 30
0.0
 70
   128
 71
   103
 72
   104
 73
   -80
 74
  -103
  0
VERTEX
  5
31B
330
FC
100
AcDbEntity
  8
0
 62
   121
420
 10085590
100
AcDbFaceRecord
 10
0.0
 20
0.0
 30
0.0
 70
   128
 71
    74
 72
    81
 73
  -105
 74
   -74
  0
VERTEX
  5
31C
330
FC
100
AcDbEntity
  8
0
 62
   121
420
 10085590
100
AcDbFaceRecord
 10
0.0
 20
0.0
 30
0.0
 70
   128
 71
   105
 72
   100
 73
   -74
 74
  -105
  0
VERTEX
  5
31D
330
FC
100
AcDbEntity
  8
0
 62
   121
420
 10085590
100
AcDbFaceRecord
 10
0.0
 20
0.0
 30
0.0
 70
   128
 71
    81
 72
    80
 73
  -104
 74
   -81
  0
VERTEX
  5
31E
330
FC
100
AcDbEntity
  8
0
 62
   121
420
 10085590
100
AcDbFaceRecord
 10
0.0
 20
0.0
 30
0.0
 70
   128
 71
   104
 72
   105
 73
   -81
 74
  -104
  0
VERTEX
  5
31F
330
FC
100
AcDbEntity
  8
0
 62
   121
420
 10085590
100
AcDbFaceRecord
 10
0.0
 20
0.0
 30
0.0
 70
   128
 71
    90
 72
    91
 73
  -107
 74
   -90
  0
VERTEX
  5
320
330
FC
100
AcDbEntity
  8
0
 62
   121
420
 10085590
100
AcDbFaceRecord
 10
0.0
 20
0.0
 30
0.0
 70
   128
 71
   107
 72
   106
 73
   -90
 74
  -107
  0
VERTEX
  5
321
330
FC
100
AcDbEntity
  8
0
 62
   121
420
 10085590
100
AcDbFaceRecord
 10
0.0
 20
0.0
 30
0.0
 70
   128
 71
    95
 72
    90
 73
  -106
 74
   -95
  0
VERTEX
  5
322
330
FC
100
AcDbEntity
  8
0
 62
   121
420
 10085590
100
AcDbFaceRecord
 10
0.0
 20
0.0
 30
0.0
 70
   128
 71
   106
 72
   111
 73
   -95
 74
  -106
  0
VERTEX
  5
323
330
FC
100
AcDbEntity
  8
0
 62
   121
420
 10085590
100
AcDbFaceRecord
 10
0.0
 20
0.0
 30
0.0
 70
   128
 71
    91
 72
    92
 73
  -108
 74
   -91
  0
VERTEX
  5
324
330
FC
100
AcDbEntity
  8
0
 62
   121
420
 10085590
100
AcDbFaceRecord
 10
0.0
 20
0.0
 30
0.0
 70
   128
 71
   108
 72
   107
 73
   -91
 74
  -108
  0
VERTEX
  5
325
330
FC
100
AcDbEntity
  8
0
 62
   121
420
 10085590
100
AcDbFaceRecord
 10
0.0
 20
0.0
 30
0.0
 70
   128
 71
    92
 72
    93
 73
  -109
 74
   -92
  0
VERTEX
  5
326
330
FC
100
AcDbEntity
  8
0
 62
   121
420
 10085590
100
AcDbFaceRecord
 10
0.0
 20
0.0
 30
0.0
 70
   128
 71
   109
 72
   108
 73
   -92
 74
  -109
  0
VERTEX
  5
327
330
FC
100
AcDbEntity
  8
0
 62
   121
420
 10085590
100
AcDbFaceRecord
 10
0.0
 20
0.0
 30
0.0
 70
   128
 71
    93
 72
    94
 73
  -110
 74
   -93
  0
VERTEX
  5
328
330
FC
100
AcDbEntity
  8
0
 62
   121
420
 10085590
100
AcDbFaceRecord
 10
0.0
 20
0.0
 30
0.0
 70
   128
 71
   110
 72
   109
 73
   -93
 74
  -110
  0
VERTEX
  5
329
330
FC
100
AcDbEntity
  8
0
 62
   121
420
 10085590
100
AcDbFaceRecord
 10
0.0
 20
0.0
 30
0.0
 70
   128
 71
    94
 72
    96
 73
  -112
 74
   -94
  0
VERTEX
  5
32A
330
FC
100
AcDbEntity
  8
0
 62
   121
420
 10085590
100
AcDbFaceRecord
 10
0.0
 20
0.0
 30
0.0
 70
   128
 71
   112
 72
   110
 73
   -94
 74
  -112
  0
VERTEX
  5
32B
330
FC
100
AcDbEntity
  8
0
 62
   121
420
 10085590
100
AcDbFaceRecord
 10
0.0
 20
0.0
 30
0.0
 70
   128
 71
    97
 72
    95
 73
  -111
 74
   -97
  0
VERTEX
  5
32C
330
FC
100
AcDbEntity
  8
0
 62
   121
420
 10085590
100
AcDbFaceRecord
 10
0.0
 20
0.0
 30
0.0
 70
   128
 71
   111
 72
   113
 73
   -97
 74
  -111
  0
VERTEX
  5
32D
330
FC
100
AcDbEntity
  8
0
 62
   121
420
 10085590
100
AcDbFaceRecord
 10
0.0
 20
0.0
 30
0.0
 70
   128
 71
    96
 72
    98
 73
  -114
 74
   -96
  0
VERTEX
  5
32E
330
FC
100
AcDbEntity
  8
0
 62
   121
420
 10085590
100
AcDbFaceRecord
 10
0.0
 20
0.0
 30
0.0
 70
   128
 71
   114
 72
   112
 73
   -96
 74
  -114
  0
VERTEX
  5
32F
330
FC
100
AcDbEntity
  8
0
 62
   121
420
 10085590
100
AcDbFaceRecord
 10
0.0
 20
0.0
 30
0.0
 70
   128
 71
    99
 72
    97
 73
  -113
 74
   -99
  0
VERTEX
  5
330
330
FC
100
AcDbEntity
  8
0
 62
   121
420
 10085590
100
AcDbFaceRecord
 10
0.0
 20
0.0
 30
0.0
 70
   128
 71
   113
 72
   115
 73
   -99
 74
  -113
  0
VERTEX
  5
331
330
FC
100
AcDbEntity
  8
0
 62
   121
420
 10085590
100
AcDbFaceRecord
 10
0.0
 20
0.0
 30
0.0
 70
   128
 71
    98
 72
   100
 73
  -116
 74
   -98
  0
VERTEX
  5
332
330
FC
100
AcDbEntity
  8
0
 62
   121
420
 10085590
100
AcDbFaceRecord
 10
0.0
 20
0.0
 30
0.0
 70
   128
 71
   116
 72
   114
 73
   -98
 74
  -116
  0
VERTEX
  5
333
330
FC
100
AcDbEntity
  8
0
 62
   121
420
 10085590
100
AcDbFaceRecord
 10
0.0
 20
0.0
 30
0.0
 70
   128
 71
   102
 72
   101
 73
  -117
 74
  -102
  0
VERTEX
  5
334
330
FC
100
AcDbEntity
  8
0
 62
   121
420
 10085590
100
AcDbFaceRecord
 10
0.0
 20
0.0
 30
0.0
 70
   128
 71
   117
 72
   118
 73
  -102
 74
  -117
  0
VERTEX
  5
335
330
FC
100
AcDbEntity
  8
0
 62
   121
420
 10085590
100
AcDbFaceRecord
 10
0.0
 20
0.0
 30
0.0
 70
   128
 71
   101
 72
    99
 73
  -115
 74
  -101
  0
VERTEX
  5
336
330
FC
100
AcDbEntity
  8
0
 62
   121
420
 10085590
100
AcDbFaceRecord
 10
0.0
 20
0.0
 30
0.0
 70
   128
 71
   115
 72
   117
 73
  -101
 74
  -115
  0
VERTEX
  5
337
330
FC
100
AcDbEntity
  8
0
 62
   121
420
 10085590
100
AcDbFaceRecord
 10
0.0
 20
0.0
 30
0.0
 70
   128
 71
   103
 72
   102
 73
  -118
 74
  -103
  0
VERTEX
  5
338
330
FC
100
AcDbEntity
  8
0
 62
   121
420
 10085590
100
AcDbFaceRecord
 10
0.0
 20
0.0
 30
0.0
 70
   128
 71
   118
 72
   119
 73
  -103
 74
  -118
  0
VERTEX
  5
339
330
FC
100
AcDbEntity
  8
0
 62
   121
420
 10085590
100
AcDbFaceRecord
 10
0.0
 20
0.0
 30
0.0
 70
   128
 71
   104
 72
   103
 73
  -119
 74
  -104
  0
VERTEX
  5
33A
330
FC
100
AcDbEntity
  8
0
 62
   121
420
 10085590
100
AcDbFaceRecord
 10
0.0
 20
0.0
 30
0.0
 70
   128
 71
   119
 72
   120
 73
  -104
 74
  -119
  0
VERTEX
  5
33B
330
FC
100
AcDbEntity
  8
0
 62
   121
420
 10085590
100
AcDbFaceRecord
 10
0.0
 20
0.0
 30
0.0
 70
   128
 71
   100
 72
   105
 73
  -121
 74
  -100
  0
VERTEX
  5
33C
330
FC
100
AcDbEntity
  8
0
 62
   121
420
 10085590
100
AcDbFaceRecord
 10
0.0
 20
0.0
 30
0.0
 70
   128
 71
   121
 72
   116
 73
  -100
 74
  -121
  0
VERTEX
  5
33D
330
FC
100
AcDbEntity
  8
0
 62
   121
420
 10085590
100
AcDbFaceRecord
 10
0.0
 20
0.0
 30
0.0
 70
   128
 71
   105
 72
   104
 73
  -120
 74
  -105
  0
VERTEX
  5
33E
330
FC
100
AcDbEntity
  8
0
 62
   121
420
 10085590
100
AcDbFaceRecord
 10
0.0
 20
0.0
 30
0.0
 70
   128
 71
   120
 72
   121
 73
  -105
 74
  -120
  0
VERTEX
  5
33F
330
FC
100
AcDbEntity
  8
0
 62
   121
420
 10085590
100
AcDbFaceRecord
 10
0.0
 20
0.0
 30
0.0
 70
   128
 71
   130
 72
   129
 73
  -122
 74
  -130
  0
VERTEX
  5
340
330
FC
100
AcDbEntity
  8
0
 62
   121
420
 10085590
100
AcDbFaceRecord
 10
0.0
 20
0.0
 30
0.0
 70
   128
 71
   122
 72
   123
 73
  -130
 74
  -122
  0
VERTEX
  5
341
330
FC
100
AcDbEntity
  8
0
 62
   121
420
 10085590
100
AcDbFaceRecord
 10
0.0
 20
0.0
 30
0.0
 70
   128
 71
   131
 72
   130
 73
  -123
 74
  -131
  0
VERTEX
  5
342
330
FC
100
AcDbEntity
  8
0
 62
   121
420
 10085590
100
AcDbFaceRecord
 10
0.0
 20
0.0
 30
0.0
 70
   128
 71
   123
 72
   124
 73
  -131
 74
  -123
  0
VERTEX
  5
343
330
FC
100
AcDbEntity
  8
0
 62
   121
420
 10085590
100
AcDbFaceRecord
 10
0.0
 20
0.0
 30
0.0
 70
   128
 71
   132
 72
   131
 73
  -124
 74
  -132
  0
VERTEX
  5
344
330
FC
100
AcDbEntity
  8
0
 62
   121
420
 10085590
100
AcDbFaceRecord
 10
0.0
 20
0.0
 30
0.0
 70
   128
 71
   124
 72
   125
 73
  -132
 74
  -124
  0
VERTEX
  5
345
330
FC
100
AcDbEntity
  8
0
 62
   121
420
 10085590
100
AcDbFaceRecord
 10
0.0
 20
0.0
 30
0.0
 70
   128
 71
   133
 72
   132
 73
  -125
 74
  -133
  0
VERTEX
  5
346
330
FC
100
AcDbEntity
  8
0
 62
   121
420
 10085590
100
AcDbFaceRecord
 10
0.0
 20
0.0
 30
0.0
 70
   128
 71
   125
 72
   126
 73
  -133
 74
  -125
  0
VERTEX
  5
347
330
FC
100
AcDbEntity
  8
0
 62
   121
420
 10085590
100
AcDbFaceRecord
 10
0.0
 20
0.0
 30
0.0
 70
   128
 71
   134
 72
   133
 73
  -126
 74
  -134
  0
VERTEX
  5
348
330
FC
100
AcDbEntity
  8
0
 62
   121
420
 10085590
100
AcDbFaceRecord
 10
0.0
 20
0.0
 30
0.0
 70
   128
 71
   126
 72
   127
 73
  -134
 74
  -126
  0
VERTEX
  5
349
330
FC
100
AcDbEntity
  8
0
 62
   121
420
 10085590
100
AcDbFaceRecord
 10
0.0
 20
0.0
 30
0.0
 70
   128
 71
   135
 72
   134
 73
  -127
 74
  -135
  0
VERTEX
  5
34A
330
FC
100
AcDbEntity
  8
0
 62
   121
420
 10085590
100
AcDbFaceRecord
 10
0.0
 20
0.0
 30
0.0
 70
   128
 71
   127
 72
   128
 73
  -135
 74
  -127
  0
VERTEX
  5
34B
330
FC
100
AcDbEntity
  8
0
 62
   121
420
 10085590
100
AcDbFaceRecord
 10
0.0
 20
0.0
 30
0.0
 70
   128
 71
   137
 72
   136
 73
  -129
 74
  -137
  0
VERTEX
  5
34C
330
FC
100
AcDbEntity
  8
0
 62
   121
420
 10085590
100
AcDbFaceRecord
 10
0.0
 20
0.0
 30
0.0
 70
   128
 71
   129
 72
   130
 73
  -137
 74
  -129
  0
VERTEX
  5
34D
330
FC
100
AcDbEntity
  8
0
 62
   121
420
 10085590
100
AcDbFaceRecord
 10
0.0
 20
0.0
 30
0.0
 70
   128
 71
   139
 72
   138
 73
  -134
 74
  -139
  0
VERTEX
  5
34E
330
FC
100
AcDbEntity
  8
0
 62
   121
420
 10085590
100
AcDbFaceRecord
 10
0.0
 20
0.0
 30
0.0
 70
   128
 71
   134
 72
   135
 73
  -139
 74
  -134
  0
VERTEX
  5
34F
330
FC
100
AcDbEntity
  8
0
 62
   121
420
 10085590
100
AcDbFaceRecord
 10
0.0
 20
0.0
 30
0.0
 70
   128
 71
   141
 72
   140
 73
  -136
 74
  -141
  0
VERTEX
  5
350
330
FC
100
AcDbEntity
  8
0
 62
   121
420
 10085590
100
AcDbFaceRecord
 10
0.0
 20
0.0
 30
0.0
 70
   128
 71
   136
 72
   137
 73
  -141
 74
  -136
  0
VERTEX
  5
351
330
FC
100
AcDbEntity
  8
0
 62
   121
420
 10085590
100
AcDbFaceRecord
 10
0.0
 20
0.0
 30
0.0
 70
   128
 71
   143
 72
   142
 73
  -138
 74
  -143
  0
VERTEX
  5
352
330
FC
100
AcDbEntity
  8
0
 62
   121
420
 10085590
100
AcDbFaceRecord
 10
0.0
 20
0.0
 30
0.0
 70
   128
 71
   138
 72
   139
 73
  -143
 74
  -138
  0
VERTEX
  5
353
330
FC
100
AcDbEntity
  8
0
 62
   121
420
 10085590
100
AcDbFaceRecord
 10
0.0
 20
0.0
 30
0.0
 70
   128
 71
   145
 72
   144
 73
  -140
 74
  -145
  0
VERTEX
  5
354
330
FC
100
AcDbEntity
  8
0
 62
   121
420
 10085590
100
AcDbFaceRecord
 10
0.0
 20
0.0
 30
0.0
 70
   128
 71
   140
 72
   141
 73
  -145
 74
  -140
  0
VERTEX
  5
355
330
FC
100
AcDbEntity
  8
0
 62
   121
420
 10085590
100
AcDbFaceRecord
 10
0.0
 20
0.0
 30
0.0
 70
   128
 71
   147
 72
   146
 73
  -142
 74
  -147
  0
VERTEX
  5
356
330
FC
100
AcDbEntity
  8
0
 62
   121
420
 10085590
100
AcDbFaceRecord
 10
0.0
 20
0.0
 30
0.0
 70
   128
 71
   142
 72
   143
 73
  -147
 74
  -142
  0
VERTEX
  5
357
330
FC
100
AcDbEntity
  8
0
 62
   121
420
 10085590
100
AcDbFaceRecord
 10
0.0
 20
0.0
 30
0.0
 70
   128
 71
   149
 72
   148
 73
  -144
 74
  -149
  0
VERTEX
  5
358
330
FC
100
AcDbEntity
  8
0
 62
   121
420
 10085590
100
AcDbFaceRecord
 10
0.0
 20
0.0
 30
0.0
 70
   128
 71
   144
 72
   145
 73
  -149
 74
  -144
  0
VERTEX
  5
359
330
FC
100
AcDbEntity
  8
0
 62
   121
420
 10085590
100
AcDbFaceRecord
 10
0.0
 20
0.0
 30
0.0
 70
   128
 71
   154
 72
   153
 73
  -146
 74
  -154
  0
VERTEX
  5
35A
330
FC
100
AcDbEntity
  8
0
 62
   121
420
 10085590
100
AcDbFaceRecord
 10
0.0
 20
0.0
 30
0.0
 70
   128
 71
   146
 72
   147
 73
  -154
 74
  -146
  0
VERTEX
  5
35B
330
FC
100
AcDbEntity
  8
0
 62
   121
420
 10085590
100
AcDbFaceRecord
 10
0.0
 20
0.0
 30
0.0
 70
   128
 71
   156
 72
   155
 73
  -148
 74
  -156
  0
VERTEX
  5
35C
330
FC
100
AcDbEntity
  8
0
 62
   121
420
 10085590
100
AcDbFaceRecord
 10
0.0
 20
0.0
 30
0.0
 70
   128
 71
   148
 72
   149
 73
  -156
 74
  -148
  0
VERTEX
  5
35D
330
FC
100
AcDbEntity
  8
0
 62
   121
420
 10085590
100
AcDbFaceRecord
 10
0.0
 20
0.0
 30
0.0
 70
   128
 71
   157
 72
   156
 73
  -149
 74
  -157
  0
VERTEX
  5
35E
330
FC
100
AcDbEntity
  8
0
 62
   121
420
 10085590
100
AcDbFaceRecord
 10
0.0
 20
0.0
 30
0.0
 70
   128
 71
   149
 72
   150
 73
  -157
 74
  -149
  0
VERTEX
  5
35F
330
FC
100
AcDbEntity
  8
0
 62
   121
420
 10085590
100
AcDbFaceRecord
 10
0.0
 20
0.0
 30
0.0
 70
   128
 71
   158
 72
   157
 73
  -150
 74
  -158
  0
VERTEX
  5
360
330
FC
100
AcDbEntity
  8
0
 62
   121
420
 10085590
100
AcDbFaceRecord
 10
0.0
 20
0.0
 30
0.0
 70
   128
 71
   150
 72
   151
 73
  -158
 74
  -150
  0
VERTEX
  5
361
330
FC
100
AcDbEntity
  8
0
 62
   121
420
 10085590
100
AcDbFaceRecord
 10
0.0
 20
0.0
 30
0.0
 70
   128
 71
   159
 72
   158
 73
  -151
 74
  -159
  0
VERTEX
  5
362
330
FC
100
AcDbEntity
  8
0
 62
   121
420
 10085590
100
AcDbFaceRecord
 10
0.0
 20
0.0
 30
0.0
 70
   128
 71
   151
 72
   152
 73
  -159
 74
  -151
  0
VERTEX
  5
363
330
FC
100
AcDbEntity
  8
0
 62
   121
420
 10085590
100
AcDbFaceRecord
 10
0.0
 20
0.0
 30
0.0
 70
   128
 71
   160
 72
   159
 73
  -152
 74
  -160
  0
VERTEX
  5
364
330
FC
100
AcDbEntity
  8
0
 62
   121
420
 10085590
100
AcDbFaceRecord
 10
0.0
 20
0.0
 30
0.0
 70
   128
 71
   152
 72
   153
 73
  -160
 74
  -152
  0
VERTEX
  5
365
330
FC
100
AcDbEntity
  8
0
 62
   121
420
 10085590
100
AcDbFaceRecord
 10
0.0
 20
0.0
 30
0.0
 70
   128
 71
   161
 72
   160
 73
  -153
 74
  -161
  0
VERTEX
  5
366
330
FC
100
AcDbEntity
  8
0
 62
   121
420
 10085590
100
AcDbFaceRecord
 10
0.0
 20
0.0
 30
0.0
 70
   128
 71
   153
 72
   154
 73
  -161
 74
  -153
  0
VERTEX
  5
367
330
FC
100
AcDbEntity
  8
0
 62
   121
420
 10085590
100
AcDbFaceRecord
 10
0.0
 20
0.0
 30
0.0
 70
   128
 71
   170
 72
   163
 73
  -162
 74
  -170
  0
VERTEX
  5
368
330
FC
100
AcDbEntity
  8
0
 62
   121
420
 10085590
100
AcDbFaceRecord
 10
0.0
 20
0.0
 30
0.0
 70
   128
 71
   162
 72
   169
 73
  -170
 74
  -162
  0
VERTEX
  5
369
330
FC
100
AcDbEntity
  8
0
 62
   121
420
 10085590
100
AcDbFaceRecord
 10
0.0
 20
0.0
 30
0.0
 70
   128
 71
   171
 72
   164
 73
  -163
 74
  -171
  0
VERTEX
  5
36A
330
FC
100
AcDbEntity
  8
0
 62
   121
420
 10085590
100
AcDbFaceRecord
 10
0.0
 20
0.0
 30
0.0
 70
   128
 71
   163
 72
   170
 73
  -171
 74
  -163
  0
VERTEX
  5
36B
330
FC
100
AcDbEntity
  8
0
 62
   121
420
 10085590
100
AcDbFaceRecord
 10
0.0
 20
0.0
 30
0.0
 70
   128
 71
   172
 72
   165
 73
  -164
 74
  -172
  0
VERTEX
  5
36C
330
FC
100
AcDbEntity
  8
0
 62
   121
420
 10085590
100
AcDbFaceRecord
 10
0.0
 20
0.0
 30
0.0
 70
   128
 71
   164
 72
   171
 73
  -172
 74
  -164
  0
VERTEX
  5
36D
330
FC
100
AcDbEntity
  8
0
 62
   121
420
 10085590
100
AcDbFaceRecord
 10
0.0
 20
0.0
 30
0.0
 70
   128
 71
   173
 72
   166
 73
  -165
 74
  -173
  0
VERTEX
  5
36E
330
FC
100
AcDbEntity
  8
0
 62
   121
420
 10085590
100
AcDbFaceRecord
 10
0.0
 20
0.0
 30
0.0
 70
   128
 71
   165
 72
   172
 73
  -173
 74
  -165
  0
VERTEX
  5
36F
330
FC
100
AcDbEntity
  8
0
 62
   121
420
 10085590
100
AcDbFaceRecord
 10
0.0
 20
0.0
 30
0.0
 70
   128
 71
   174
 72
   167
 73
  -166
 74
  -174
  0
VERTEX
  5
370
330
FC
100
AcDbEntity
  8
0
 62
   121
420
 10085590
100
AcDbFaceRecord
 10
0.0
 20
0.0
 30
0.0
 70
   128
 71
   166
 72
   173
 73
  -174
 74
  -166
  0
VERTEX
  5
371
330
FC
100
AcDbEntity
  8
0
 62
   121
420
 10085590
100
AcDbFaceRecord
 10
0.0
 20
0.0
 30
0.0
 70
   128
 71
   175
 72
   168
 73
  -167
 74
  -175
  0
VERTEX
  5
372
330
FC
100
AcDbEntity
  8
0
 62
   121
420
 10085590
100
AcDbFaceRecord
 10
0.0
 20
0.0
 30
0.0
 70
   128
 71
   167
 72
   174
 73
  -175
 74
  -167
  0
VERTEX
  5
373
330
FC
100
AcDbEntity
  8
0
 62
   121
420
 10085590
100
AcDbFaceRecord
 10
0.0
 20
0.0
 30
0.0
 70
   128
 71
   177
 72
   170
 73
  -169
 74
  -177
  0
VERTEX
  5
374
330
FC
100
AcDbEntity
  8
0
 62
   121
420
 10085590
100
AcDbFaceRecord
 10
0.0
 20
0.0
 30
0.0
 70
   128
 71
   169
 72
   176
 73
  -177
 74
  -169
  0
VERTEX
  5
375
330
FC
100
AcDbEntity
  8
0
 62
   121
420
 10085590
100
AcDbFaceRecord
 10
0.0
 20
0.0
 30
0.0
 70
   128
 71
   178
 72
   228
 73
  -227
 74
  -178
  0
VERTEX
  5
376
330
FC
100
AcDbEntity
  8
0
 62
   121
420
 10085590
100
AcDbFaceRecord
 10
0.0
 20
0.0
 30
0.0
 70
   128
 71
   227
 72
   232
 73
  -178
 74
  -227
  0
VERTEX
  5
377
330
FC
100
AcDbEntity
  8
0
 62
   121
420
 10085590
100
AcDbFaceRecord
 10
0.0
 20
0.0
 30
0.0
 70
   128
 71
   179
 72
   229
 73
  -228
 74
  -179
  0
VERTEX
  5
378
330
FC
100
AcDbEntity
  8
0
 62
   121
420
 10085590
100
AcDbFaceRecord
 10
0.0
 20
0.0
 30
0.0
 70
   128
 71
   228
 72
   178
 73
  -179
 74
  -228
  0
VERTEX
  5
379
330
FC
100
AcDbEntity
  8
0
 62
   121
420
 10085590
100
AcDbFaceRecord
 10
0.0
 20
0.0
 30
0.0
 70
   128
 71
   180
 72
   230
 73
  -229
 74
  -180
  0
VERTEX
  5
37A
330
FC
100
AcDbEntity
  8
0
 62
   121
420
 10085590
100
AcDbFaceRecord
 10
0.0
 20
0.0
 30
0.0
 70
   128
 71
   229
 72
   179
 73
  -180
 74
  -229
  0
VERTEX
  5
37B
330
FC
100
AcDbEntity
  8
0
 62
   121
420
 10085590
100
AcDbFaceRecord
 10
0.0
 20
0.0
 30
0.0
 70
   128
 71
   233
 72
   231
 73
  -230
 74
  -233
  0
VERTEX
  5
37C
330
FC
100
AcDbEntity
  8
0
 62
   121
420
 10085590
100
AcDbFaceRecord
 10
0.0
 20
0.0
 30
0.0
 70
   128
 71
   230
 72
   180
 73
  -233
 74
  -230
  0
VERTEX
  5
37D
330
FC
100
AcDbEntity
  8
0
 62
   121
420
 10085590
100
AcDbFaceRecord
 10
0.0
 20
0.0
 30
0.0
 70
   128
 71
   182
 72
   175
 73
  -174
 74
  -182
  0
VERTEX
  5
37E
330
FC
100
AcDbEntity
  8
0
 62
   121
420
 10085590
100
AcDbFaceRecord
 10
0.0
 20
0.0
 30
0.0
 70
   128
 71
   174
 72
   181
 73
  -182
 74
  -174
  0
VERTEX
  5
37F
330
FC
100
AcDbEntity
  8
0
 62
   121
420
 10085590
100
AcDbFaceRecord
 10
0.0
 20
0.0
 30
0.0
 70
   128
 71
   184
 72
   177
 73
  -176
 74
  -184
  0
VERTEX
  5
380
330
FC
100
AcDbEntity
  8
0
 62
   121
420
 10085590
100
AcDbFaceRecord
 10
0.0
 20
0.0
 30
0.0
 70
   128
 71
   176
 72
   183
 73
  -184
 74
  -176
  0
VERTEX
  5
381
330
FC
100
AcDbEntity
  8
0
 62
   121
420
 10085590
100
AcDbFaceRecord
 10
0.0
 20
0.0
 30
0.0
 70
   128
 71
   185
 72
   178
 73
  -232
 74
  -185
  0
VERTEX
  5
382
330
FC
100
AcDbEntity
  8
0
 62
   121
420
 10085590
100
AcDbFaceRecord
 10
0.0
 20
0.0
 30
0.0
 70
   128
 71
   232
 72
   234
 73
  -185
 74
  -232
  0
VERTEX
  5
383
330
FC
100
AcDbEntity
  8
0
 62
   121
420
 10085590
100
AcDbFaceRecord
 10
0.0
 20
0.0
 30
0.0
 70
   128
 71
   186
 72
   179
 73
  -178
 74
  -186
  0
VERTEX
  5
384
330
FC
100
AcDbEntity
  8
0
 62
   121
420
 10085590
100
AcDbFaceRecord
 10
0.0
 20
0.0
 30
0.0
 70
   128
 71
   178
 72
   185
 73
  -186
 74
  -178
  0
VERTEX
  5
385
330
FC
100
AcDbEntity
  8
0
 62
   121
420
 10085590
100
AcDbFaceRecord
 10
0.0
 20
0.0
 30
0.0
 70
   128
 71
   187
 72
   180
 73
  -179
 74
  -187
  0
VERTEX
  5
386
330
FC
100
AcDbEntity
  8
0
 62
   121
420
 10085590
100
AcDbFaceRecord
 10
0.0
 20
0.0
 30
0.0
 70
   128
 71
   179
 72
   186
 73
  -187
 74
  -179
  0
VERTEX
  5
387
330
FC
100
AcDbEntity
  8
0
 62
   121
420
 10085590
100
AcDbFaceRecord
 10
0.0
 20
0.0
 30
0.0
 70
   128
 71
   235
 72
   233
 73
  -180
 74
  -235
  0
VERTEX
  5
388
330
FC
100
AcDbEntity
  8
0
 62
   121
420
 10085590
100
AcDbFaceRecord
 10
0.0
 20
0.0
 30
0.0
 70
   128
 71
   180
 72
   187
 73
  -235
 74
  -180
  0
VERTEX
  5
389
330
FC
100
AcDbEntity
  8
0
 62
   121
420
 10085590
100
AcDbFaceRecord
 10
0.0
 20
0.0
 30
0.0
 70
   128
 71
   189
 72
   182
 73
  -181
 74
  -189
  0
VERTEX
  5
38A
330
FC
100
AcDbEntity
  8
0
 62
   121
420
 10085590
100
AcDbFaceRecord
 10
0.0
 20
0.0
 30
0.0
 70
   128
 71
   181
 72
   188
 73
  -189
 74
  -181
  0
VERTEX
  5
38B
330
FC
100
AcDbEntity
  8
0
 62
   121
420
 10085590
100
AcDbFaceRecord
 10
0.0
 20
0.0
 30
0.0
 70
   128
 71
   191
 72
   184
 73
  -183
 74
  -191
  0
VERTEX
  5
38C
330
FC
100
AcDbEntity
  8
0
 62
   121
420
 10085590
100
AcDbFaceRecord
 10
0.0
 20
0.0
 30
0.0
 70
   128
 71
   183
 72
   190
 73
  -191
 74
  -183
  0
VERTEX
  5
38D
330
FC
100
AcDbEntity
  8
0
 62
   121
420
 10085590
100
AcDbFaceRecord
 10
0.0
 20
0.0
 30
0.0
 70
   128
 71
   192
 72
   185
 73
  -234
 74
  -192
  0
VERTEX
  5
38E
330
FC
100
AcDbEntity
  8
0
 62
   121
420
 10085590
100
AcDbFaceRecord
 10
0.0
 20
0.0
 30
0.0
 70
   128
 71
   234
 72
   236
 73
  -192
 74
  -234
  0
VERTEX
  5
38F
330
FC
100
AcDbEntity
  8
0
 62
   121
420
 10085590
100
AcDbFaceRecord
 10
0.0
 20
0.0
 30
0.0
 70
   128
 71
   193
 72
   186
 73
  -185
 74
  -193
  0
VERTEX
  5
390
330
FC
100
AcDbEntity
  8
0
 62
   121
420
 10085590
100
AcDbFaceRecord
 10
0.0
 20
0.0
 30
0.0
 70
   128
 71
   185
 72
   192
 73
  -193
 74
  -185
  0
VERTEX
  5
391
330
FC
100
AcDbEntity
  8
0
 62
   121
420
 10085590
100
AcDbFaceRecord
 10
0.0
 20
0.0
 30
0.0
 70
   128
 71
   194
 72
   187
 73
  -186
 74
  -194
  0
VERTEX
  5
392
330
FC
100
AcDbEntity
  8
0
 62
   121
420
 10085590
100
AcDbFaceRecord
 10
0.0
 20
0.0
 30
0.0
 70
   128
 71
   186
 72
   193
 73
  -194
 74
  -186
  0
VERTEX
  5
393
330
FC
100
AcDbEntity
  8
0
 62
   121
420
 10085590
100
AcDbFaceRecord
 10
0.0
 20
0.0
 30
0.0
 70
   128
 71
   237
 72
   235
 73
  -187
 74
  -237
  0
VERTEX
  5
394
330
FC
100
AcDbEntity
  8
0
 62
   121
420
 10085590
100
AcDbFaceRecord
 10
0.0
 20
0.0
 30
0.0
 70
   128
 71
   187
 72
   194
 73
  -237
 74
  -187
  0
VERTEX
  5
395
330
FC
100
AcDbEntity
  8
0
 62
   121
420
 10085590
100
AcDbFaceRecord
 10
0.0
 20
0.0
 30
0.0
 70
   128
 71
   196
 72
   189
 73
  -188
 74
  -196
  0
VERTEX
  5
396
330
FC
100
AcDbEntity
  8
0
 62
   121
420
 10085590
100
AcDbFaceRecord
 10
0.0
 20
0.0
 30
0.0
 70
   128
 71
   188
 72
   195
 73
  -196
 74
  -188
  0
VERTEX
  5
397
330
FC
100
AcDbEntity
  8
0
 62
   121
420
 10085590
100
AcDbFaceRecord
 10
0.0
 20
0.0
 30
0.0
 70
   128
 71
   198
 72
   191
 73
  -190
 74
  -198
  0
VERTEX
  5
398
330
FC
100
AcDbEntity
  8
0
 62
   121
420
 10085590
100
AcDbFaceRecord
 10
0.0
 20
0.0
 30
0.0
 70
   128
 71
   190
 72
   197
 73
  -198
 74
  -190
  0
VERTEX
  5
399
330
FC
100
AcDbEntity
  8
0
 62
   121
420
 10085590
100
AcDbFaceRecord
 10
0.0
 20
0.0
 30
0.0
 70
   128
 71
   239
 72
   192
 73
  -236
 74
  -239
  0
VERTEX
  5
39A
330
FC
100
AcDbEntity
  8
0
 62
   121
420
 10085590
100
AcDbFaceRecord
 10
0.0
 20
0.0
 30
0.0
 70
   128
 71
   236
 72
   238
 73
  -239
 74
  -236
  0
VERTEX
  5
39B
330
FC
100
AcDbEntity
  8
0
 62
   121
420
 10085590
100
AcDbFaceRecord
 10
0.0
 20
0.0
 30
0.0
 70
   128
 71
   240
 72
   193
 73
  -192
 74
  -240
  0
VERTEX
  5
39C
330
FC
100
AcDbEntity
  8
0
 62
   121
420
 10085590
100
AcDbFaceRecord
 10
0.0
 20
0.0
 30
0.0
 70
   128
 71
   192
 72
   239
 73
  -240
 74
  -192
  0
VERTEX
  5
39D
330
FC
100
AcDbEntity
  8
0
 62
   121
420
 10085590
100
AcDbFaceRecord
 10
0.0
 20
0.0
 30
0.0
 70
   128
 71
   241
 72
   194
 73
  -193
 74
  -241
  0
VERTEX
  5
39E
330
FC
100
AcDbEntity
  8
0
 62
   121
420
 10085590
100
AcDbFaceRecord
 10
0.0
 20
0.0
 30
0.0
 70
   128
 71
   193
 72
   240
 73
  -241
 74
  -193
  0
VERTEX
  5
39F
330
FC
100
AcDbEntity
  8
0
 62
   121
420
 10085590
100
AcDbFaceRecord
 10
0.0
 20
0.0
 30
0.0
 70
   128
 71
   242
 72
   237
 73
  -194
 74
  -242
  0
VERTEX
  5
3A0
330
FC
100
AcDbEntity
  8
0
 62
   121
420
 10085590
100
AcDbFaceRecord
 10
0.0
 20
0.0
 30
0.0
 70
   128
 71
   194
 72
   241
 73
  -242
 74
  -194
  0
VERTEX
  5
3A1
330
FC
100
AcDbEntity
  8
0
 62
   121
420
 10085590
100
AcDbFaceRecord
 10
0.0
 20
0.0
 30
0.0
 70
   128
 71
   203
 72
   196
 73
  -195
 74
  -203
  0
VERTEX
  5
3A2
330
FC
100
AcDbEntity
  8
0
 62
   121
420
 10085590
100
AcDbFaceRecord
 10
0.0
 20
0.0
 30
0.0
 70
   128
 71
   195
 72
   202
 73
  -203
 74
  -195
  0
VERTEX
  5
3A3
330
FC
100
AcDbEntity
  8
0
 62
   121
420
 10085590
100
AcDbFaceRecord
 10
0.0
 20
0.0
 30
0.0
 70
   128
 71
   205
 72
   198
 73
  -197
 74
  -205
  0
VERTEX
  5
3A4
330
FC
100
AcDbEntity
  8
0
 62
   121
420
 10085590
100
AcDbFaceRecord
 10
0.0
 20
0.0
 30
0.0
 70
   128
 71
   197
 72
   204
 73
  -205
 74
  -197
  0
VERTEX
  5
3A5
330
FC
100
AcDbEntity
  8
0
 62
   121
420
 10085590
100
AcDbFaceRecord
 10
0.0
 20
0.0
 30
0.0
 70
   128
 71
   206
 72
   199
 73
  -198
 74
  -206
  0
VERTEX
  5
3A6
330
FC
100
AcDbEntity
  8
0
 62
   121
420
 10085590
100
AcDbFaceRecord
 10
0.0
 20
0.0
 30
0.0
 70
   128
 71
   198
 72
   205
 73
  -206
 74
  -198
  0
VERTEX
  5
3A7
330
FC
100
AcDbEntity
  8
0
 62
   121
420
 10085590
100
AcDbFaceRecord
 10
0.0
 20
0.0
 30
0.0
 70
   128
 71
   207
 72
   200
 73
  -199
 74
  -207
  0
VERTEX
  5
3A8
330
FC
100
AcDbEntity
  8
0
 62
   121
420
 10085590
100
AcDbFaceRecord
 10
0.0
 20
0.0
 30
0.0
 70
   128
 71
   199
 72
   206
 73
  -207
 74
  -199
  0
VERTEX
  5
3A9
330
FC
100
AcDbEntity
  8
0
 62
   121
420
 10085590
100
AcDbFaceRecord
 10
0.0
 20
0.0
 30
0.0
 70
   128
 71
   208
 72
   201
 73
  -200
 74
  -208
  0
VERTEX
  5
3AA
330
FC
100
AcDbEntity
  8
0
 62
   121
420
 10085590
100
AcDbFaceRecord
 10
0.0
 20
0.0
 30
0.0
 70
   128
 71
   200
 72
   207
 73
  -208
 74
  -200
  0
VERTEX
  5
3AB
330
FC
100
AcDbEntity
  8
0
 62
   121
420
 10085590
100
AcDbFaceRecord
 10
0.0
 20
0.0
 30
0.0
 70
   128
 71
   209
 72
   202
 73
  -201
 74
  -209
  0
VERTEX
  5
3AC
330
FC
100
AcDbEntity
  8
0
 62
   121
420
 10085590
100
AcDbFaceRecord
 10
0.0
 20
0.0
 30
0.0
 70
   128
 71
   201
 72
   208
 73
  -209
 74
  -201
  0
VERTEX
  5
3AD
330
FC
100
AcDbEntity
  8
0
 62
   121
420
 10085590
100
AcDbFaceRecord
 10
0.0
 20
0.0
 30
0.0
 70
   128
 71
   210
 72
   203
 73
  -202
 74
  -210
  0
VERTEX
  5
3AE
330
FC
100
AcDbEntity
  8
0
 62
   121
420
 10085590
100
AcDbFaceRecord
 10
0.0
 20
0.0
 30
0.0
 70
   128
 71
   202
 72
   209
 73
  -210
 74
  -202
  0
VERTEX
  5
3AF
330
FC
100
AcDbEntity
  8
0
 62
   121
420
 10085590
100
AcDbFaceRecord
 10
0.0
 20
0.0
 30
0.0
 70
   128
 71
   163
 72
   123
 73
  -122
 74
  -163
  0
VERTEX
  5
3B0
330
FC
100
AcDbEntity
  8
0
 62
   121
420
 10085590
100
AcDbFaceRecord
 10
0.0
 20
0.0
 30
0.0
 70
   128
 71
   122
 72
   162
 73
  -163
 74
  -122
  0
VERTEX
  5
3B1
330
FC
100
AcDbEntity
  8
0
 62
   121
420
 10085590
100
AcDbFaceRecord
 10
0.0
 20
0.0
 30
0.0
 70
   128
 71
   164
 72
   124
 73
  -123
 74
  -164
  0
VERTEX
  5
3B2
330
FC
100
AcDbEntity
  8
0
 62
   121
420
 10085590
100
AcDbFaceRecord
 10
0.0
 20
0.0
 30
0.0
 70
   128
 71
   123
 72
   163
 73
  -164
 74
  -123
  0
VERTEX
  5
3B3
330
FC
100
AcDbEntity
  8
0
 62
   121
420
 10085590
100
AcDbFaceRecord
 10
0.0
 20
0.0
 30
0.0
 70
   128
 71
   165
 72
   125
 73
  -124
 74
  -165
  0
VERTEX
  5
3B4
330
FC
100
AcDbEntity
  8
0
 62
   121
420
 10085590
100
AcDbFaceRecord
 10
0.0
 20
0.0
 30
0.0
 70
   128
 71
   124
 72
   164
 73
  -165
 74
  -124
  0
VERTEX
  5
3B5
330
FC
100
AcDbEntity
  8
0
 62
   121
420
 10085590
100
AcDbFaceRecord
 10
0.0
 20
0.0
 30
0.0
 70
   128
 71
   166
 72
   126
 73
  -125
 74
  -166
  0
VERTEX
  5
3B6
330
FC
100
AcDbEntity
  8
0
 62
   121
420
 10085590
100
AcDbFaceRecord
 10
0.0
 20
0.0
 30
0.0
 70
   128
 71
   125
 72
   165
 73
  -166
 74
  -125
  0
VERTEX
  5
3B7
330
FC
100
AcDbEntity
  8
0
 62
   121
420
 10085590
100
AcDbFaceRecord
 10
0.0
 20
0.0
 30
0.0
 70
   128
 71
   167
 72
   127
 73
  -126
 74
  -167
  0
VERTEX
  5
3B8
330
FC
100
AcDbEntity
  8
0
 62
   121
420
 10085590
100
AcDbFaceRecord
 10
0.0
 20
0.0
 30
0.0
 70
   128
 71
   126
 72
   166
 73
  -167
 74
  -126
  0
VERTEX
  5
3B9
330
FC
100
AcDbEntity
  8
0
 62
   121
420
 10085590
100
AcDbFaceRecord
 10
0.0
 20
0.0
 30
0.0
 70
   128
 71
   168
 72
   128
 73
  -127
 74
  -168
  0
VERTEX
  5
3BA
330
FC
100
AcDbEntity
  8
0
 62
   121
420
 10085590
100
AcDbFaceRecord
 10
0.0
 20
0.0
 30
0.0
 70
   128
 71
   127
 72
   167
 73
  -168
 74
  -127
  0
VERTEX
  5
3BB
330
FC
100
AcDbEntity
  8
0
 62
   121
420
 10085590
100
AcDbFaceRecord
 10
0.0
 20
0.0
 30
0.0
 70
   128
 71
   175
 72
   135
 73
  -128
 74
  -175
  0
VERTEX
  5
3BC
330
FC
100
AcDbEntity
  8
0
 62
   121
420
 10085590
100
AcDbFaceRecord
 10
0.0
 20
0.0
 30
0.0
 70
   128
 71
   128
 72
   168
 73
  -175
 74
  -128
  0
VERTEX
  5
3BD
330
FC
100
AcDbEntity
  8
0
 62
   121
420
 10085590
100
AcDbFaceRecord
 10
0.0
 20
0.0
 30
0.0
 70
   128
 71
   182
 72
   139
 73
  -135
 74
  -182
  0
VERTEX
  5
3BE
330
FC
100
AcDbEntity
  8
0
 62
   121
420
 10085590
100
AcDbFaceRecord
 10
0.0
 20
0.0
 30
0.0
 70
   128
 71
   135
 72
   175
 73
  -182
 74
  -135
  0
VERTEX
  5
3BF
330
FC
100
AcDbEntity
  8
0
 62
   121
420
 10085590
100
AcDbFaceRecord
 10
0.0
 20
0.0
 30
0.0
 70
   128
 71
   189
 72
   143
 73
  -139
 74
  -189
  0
VERTEX
  5
3C0
330
FC
100
AcDbEntity
  8
0
 62
   121
420
 10085590
100
AcDbFaceRecord
 10
0.0
 20
0.0
 30
0.0
 70
   128
 71
   139
 72
   182
 73
  -189
 74
  -139
  0
VERTEX
  5
3C1
330
FC
100
AcDbEntity
  8
0
 62
   121
420
 10085590
100
AcDbFaceRecord
 10
0.0
 20
0.0
 30
0.0
 70
   128
 71
   196
 72
   147
 73
  -143
 74
  -196
  0
VERTEX
  5
3C2
330
FC
100
AcDbEntity
  8
0
 62
   121
420
 10085590
100
AcDbFaceRecord
 10
0.0
 20
0.0
 30
0.0
 70
   128
 71
   143
 72
   189
 73
  -196
 74
  -143
  0
VERTEX
  5
3C3
330
FC
100
AcDbEntity
  8
0
 62
   121
420
 10085590
100
AcDbFaceRecord
 10
0.0
 20
0.0
 30
0.0
 70
   128
 71
   203
 72
   154
 73
  -147
 74
  -203
  0
VERTEX
  5
3C4
330
FC
100
AcDbEntity
  8
0
 62
   121
420
 10085590
100
AcDbFaceRecord
 10
0.0
 20
0.0
 30
0.0
 70
   128
 71
   147
 72
   196
 73
  -203
 74
  -147
  0
VERTEX
  5
3C5
330
FC
100
AcDbEntity
  8
0
 62
   121
420
 10085590
100
AcDbFaceRecord
 10
0.0
 20
0.0
 30
0.0
 70
   128
 71
   210
 72
   161
 73
  -154
 74
  -210
  0
VERTEX
  5
3C6
330
FC
100
AcDbEntity
  8
0
 62
   121
420
 10085590
100
AcDbFaceRecord
 10
0.0
 20
0.0
 30
0.0
 70
   128
 71
   154
 72
   203
 73
  -210
 74
  -154
  0
VERTEX
  5
3C7
330
FC
100
AcDbEntity
  8
0
 62
   121
420
 10085590
100
AcDbFaceRecord
 10
0.0
 20
0.0
 30
0.0
 70
   128
 71
   209
 72
   160
 73
  -161
 74
  -209
  0
VERTEX
  5
3C8
330
FC
100
AcDbEntity
  8
0
 62
   121
420
 10085590
100
AcDbFaceRecord
 10
0.0
 20
0.0
 30
0.0
 70
   128
 71
   161
 72
   210
 73
  -209
 74
  -161
  0
VERTEX
  5
3C9
330
FC
100
AcDbEntity
  8
0
 62
   121
420
 10085590
100
AcDbFaceRecord
 10
0.0
 20
0.0
 30
0.0
 70
   128
 71
   208
 72
   159
 73
  -160
 74
  -208
  0
VERTEX
  5
3CA
330
FC
100
AcDbEntity
  8
0
 62
   121
420
 10085590
100
AcDbFaceRecord
 10
0.0
 20
0.0
 30
0.0
 70
   128
 71
   160
 72
   209
 73
  -208
 74
  -160
  0
VERTEX
  5
3CB
330
FC
100
AcDbEntity
  8
0
 62
   121
420
 10085590
100
AcDbFaceRecord
 10
0.0
 20
0.0
 30
0.0
 70
   128
 71
   207
 72
   158
 73
  -159
 74
  -207
  0
VERTEX
  5
3CC
330
FC
100
AcDbEntity
  8
0
 62
   121
420
 10085590
100
AcDbFaceRecord
 10
0.0
 20
0.0
 30
0.0
 70
   128
 71
   159
 72
   208
 73
  -207
 74
  -159
  0
VERTEX
  5
3CD
330
FC
100
AcDbEntity
  8
0
 62
   121
420
 10085590
100
AcDbFaceRecord
 10
0.0
 20
0.0
 30
0.0
 70
   128
 71
   206
 72
   157
 73
  -158
 74
  -206
  0
VERTEX
  5
3CE
330
FC
100
AcDbEntity
  8
0
 62
   121
420
 10085590
100
AcDbFaceRecord
 10
0.0
 20
0.0
 30
0.0
 70
   128
 71
   158
 72
   207
 73
  -206
 74
  -158
  0
VERTEX
  5
3CF
330
FC
100
AcDbEntity
  8
0
 62
   121
420
 10085590
100
AcDbFaceRecord
 10
0.0
 20
0.0
 30
0.0
 70
   128
 71
   205
 72
   156
 73
  -157
 74
  -205
  0
VERTEX
  5
3D0
330
FC
100
AcDbEntity
  8
0
 62
   121
420
 10085590
100
AcDbFaceRecord
 10
0.0
 20
0.0
 30
0.0
 70
   128
 71
   157
 72
   206
 73
  -205
 74
  -157
  0
VERTEX
  5
3D1
330
FC
100
AcDbEntity
  8
0
 62
   121
420
 10085590
100
AcDbFaceRecord
 10
0.0
 20
0.0
 30
0.0
 70
   128
 71
   204
 72
   155
 73
  -156
 74
  -204
  0
VERTEX
  5
3D2
330
FC
100
AcDbEntity
  8
0
 62
   121
420
 10085590
100
AcDbFaceRecord
 10
0.0
 20
0.0
 30
0.0
 70
   128
 71
   156
 72
   205
 73
  -204
 74
  -156
  0
VERTEX
  5
3D3
330
FC
100
AcDbEntity
  8
0
 62
   121
420
 10085590
100
AcDbFaceRecord
 10
0.0
 20
0.0
 30
0.0
 70
   128
 71
   197
 72
   148
 73
  -155
 74
  -197
  0
VERTEX
  5
3D4
330
FC
100
AcDbEntity
  8
0
 62
   121
420
 10085590
100
AcDbFaceRecord
 10
0.0
 20
0.0
 30
0.0
 70
   128
 71
   155
 72
   204
 73
  -197
 74
  -155
  0
VERTEX
  5
3D5
330
FC
100
AcDbEntity
  8
0
 62
   121
420
 10085590
100
AcDbFaceRecord
 10
0.0
 20
0.0
 30
0.0
 70
   128
 71
   190
 72
   144
 73
  -148
 74
  -190
  0
VERTEX
  5
3D6
330
FC
100
AcDbEntity
  8
0
 62
   121
420
 10085590
100
AcDbFaceRecord
 10
0.0
 20
0.0
 30
0.0
 70
   128
 71
   148
 72
   197
 73
  -190
 74
  -148
  0
VERTEX
  5
3D7
330
FC
100
AcDbEntity
  8
0
 62
   121
420
 10085590
100
AcDbFaceRecord
 10
0.0
 20
0.0
 30
0.0
 70
   128
 71
   183
 72
   140
 73
  -144
 74
  -183
  0
VERTEX
  5
3D8
330
FC
100
AcDbEntity
  8
0
 62
   121
420
 10085590
100
AcDbFaceRecord
 10
0.0
 20
0.0
 30
0.0
 70
   128
 71
   144
 72
   190
 73
  -183
 74
  -144
  0
VERTEX
  5
3D9
330
FC
100
AcDbEntity
  8
0
 62
   121
420
 10085590
100
AcDbFaceRecord
 10
0.0
 20
0.0
 30
0.0
 70
   128
 71
   176
 72
   136
 73
  -140
 74
  -176
  0
VERTEX
  5
3DA
330
FC
100
AcDbEntity
  8
0
 62
   121
420
 10085590
100
AcDbFaceRecord
 10
0.0
 20
0.0
 30
0.0
 70
   128
 71
   140
 72
   183
 73
  -176
 74
  -140
  0
VERTEX
  5
3DB
330
FC
100
AcDbEntity
  8
0
 62
   121
420
 10085590
100
AcDbFaceRecord
 10
0.0
 20
0.0
 30
0.0
 70
   128
 71
   169
 72
   129
 73
  -136
 74
  -169
  0
VERTEX
  5
3DC
330
FC
100
AcDbEntity
  8
0
 62
   121
420
 10085590
100
AcDbFaceRecord
 10
0.0
 20
0.0
 30
0.0
 70
   128
 71
   136
 72
   176
 73
  -169
 74
  -136
  0
VERTEX
  5
3DD
330
FC
100
AcDbEntity
  8
0
 62
   121
420
 10085590
100
AcDbFaceRecord
 10
0.0
 20
0.0
 30
0.0
 70
   128
 71
   162
 72
   122
 73
  -129
 74
  -162
  0
VERTEX
  5
3DE
330
FC
100
AcDbEntity
  8
0
 62
   121
420
 10085590
100
AcDbFaceRecord
 10
0.0
 20
0.0
 30
0.0
 70
   128
 71
   129
 72
   169
 73
  -162
 74
  -129
  0
VERTEX
  5
3DF
330
FC
100
AcDbEntity
  8
0
 62
   121
420
 10085590
100
AcDbFaceRecord
 10
0.0
 20
0.0
 30
0.0
 70
   128
 71
   212
 72
   171
 73
  -170
 74
  -212
  0
VERTEX
  5
3E0
330
FC
100
AcDbEntity
  8
0
 62
   121
420
 10085590
100
AcDbFaceRecord
 10
0.0
 20
0.0
 30
0.0
 70
   128
 71
   170
 72
   211
 73
  -212
 74
  -170
  0
VERTEX
  5
3E1
330
FC
100
AcDbEntity
  8
0
 62
   121
420
 10085590
100
AcDbFaceRecord
 10
0.0
 20
0.0
 30
0.0
 70
   128
 71
   213
 72
   172
 73
  -171
 74
  -213
  0
VERTEX
  5
3E2
330
FC
100
AcDbEntity
  8
0
 62
   121
420
 10085590
100
AcDbFaceRecord
 10
0.0
 20
0.0
 30
0.0
 70
   128
 71
   171
 72
   212
 73
  -213
 74
  -171
  0
VERTEX
  5
3E3
330
FC
100
AcDbEntity
  8
0
 62
   121
420
 10085590
100
AcDbFaceRecord
 10
0.0
 20
0.0
 30
0.0
 70
   128
 71
   214
 72
   173
 73
  -172
 74
  -214
  0
VERTEX
  5
3E4
330
FC
100
AcDbEntity
  8
0
 62
   121
420
 10085590
100
AcDbFaceRecord
 10
0.0
 20
0.0
 30
0.0
 70
   128
 71
   172
 72
   213
 73
  -214
 74
  -172
  0
VERTEX
  5
3E5
330
FC
100
AcDbEntity
  8
0
 62
   121
420
 10085590
100
AcDbFaceRecord
 10
0.0
 20
0.0
 30
0.0
 70
   128
 71
   215
 72
   174
 73
  -173
 74
  -215
  0
VERTEX
  5
3E6
330
FC
100
AcDbEntity
  8
0
 62
   121
420
 10085590
100
AcDbFaceRecord
 10
0.0
 20
0.0
 30
0.0
 70
   128
 71
   173
 72
   214
 73
  -215
 74
  -173
  0
VERTEX
  5
3E7
330
FC
100
AcDbEntity
  8
0
 62
   121
420
 10085590
100
AcDbFaceRecord
 10
0.0
 20
0.0
 30
0.0
 70
   128
 71
   211
 72
   170
 73
  -177
 74
  -211
  0
VERTEX
  5
3E8
330
FC
100
AcDbEntity
  8
0
 62
   121
420
 10085590
100
AcDbFaceRecord
 10
0.0
 20
0.0
 30
0.0
 70
   128
 71
   177
 72
   216
 73
  -211
 74
  -177
  0
VERTEX
  5
3E9
330
FC
100
AcDbEntity
  8
0
 62
   121
420
 10085590
100
AcDbFaceRecord
 10
0.0
 20
0.0
 30
0.0
 70
   128
 71
   217
 72
   181
 73
  -174
 74
  -217
  0
VERTEX
  5
3EA
330
FC
100
AcDbEntity
  8
0
 62
   121
420
 10085590
100
AcDbFaceRecord
 10
0.0
 20
0.0
 30
0.0
 70
   128
 71
   174
 72
   215
 73
  -217
 74
  -174
  0
VERTEX
  5
3EB
330
FC
100
AcDbEntity
  8
0
 62
   121
420
 10085590
100
AcDbFaceRecord
 10
0.0
 20
0.0
 30
0.0
 70
   128
 71
   216
 72
   177
 73
  -184
 74
  -216
  0
VERTEX
  5
3EC
330
FC
100
AcDbEntity
  8
0
 62
   121
420
 10085590
100
AcDbFaceRecord
 10
0.0
 20
0.0
 30
0.0
 70
   128
 71
   184
 72
   218
 73
  -216
 74
  -184
  0
VERTEX
  5
3ED
330
FC
100
AcDbEntity
  8
0
 62
   121
420
 10085590
100
AcDbFaceRecord
 10
0.0
 20
0.0
 30
0.0
 70
   128
 71
   219
 72
   188
 73
  -181
 74
  -219
  0
VERTEX
  5
3EE
330
FC
100
AcDbEntity
  8
0
 62
   121
420
 10085590
100
AcDbFaceRecord
 10
0.0
 20
0.0
 30
0.0
 70
   128
 71
   181
 72
   217
 73
  -219
 74
  -181
  0
VERTEX
  5
3EF
330
FC
100
AcDbEntity
  8
0
 62
   121
420
 10085590
100
AcDbFaceRecord
 10
0.0
 20
0.0
 30
0.0
 70
   128
 71
   218
 72
   184
 73
  -191
 74
  -218
  0
VERTEX
  5
3F0
330
FC
100
AcDbEntity
  8
0
 62
   121
420
 10085590
100
AcDbFaceRecord
 10
0.0
 20
0.0
 30
0.0
 70
   128
 71
   191
 72
   220
 73
  -218
 74
  -191
  0
VERTEX
  5
3F1
330
FC
100
AcDbEntity
  8
0
 62
   121
420
 10085590
100
AcDbFaceRecord
 10
0.0
 20
0.0
 30
0.0
 70
   128
 71
   221
 72
   195
 73
  -188
 74
  -221
  0
VERTEX
  5
3F2
330
FC
100
AcDbEntity
  8
0
 62
   121
420
 10085590
100
AcDbFaceRecord
 10
0.0
 20
0.0
 30
0.0
 70
   128
 71
   188
 72
   219
 73
  -221
 74
  -188
  0
VERTEX
  5
3F3
330
FC
100
AcDbEntity
  8
0
 62
   121
420
 10085590
100
AcDbFaceRecord
 10
0.0
 20
0.0
 30
0.0
 70
   128
 71
   220
 72
   191
 73
  -198
 74
  -220
  0
VERTEX
  5
3F4
330
FC
100
AcDbEntity
  8
0
 62
   121
420
 10085590
100
AcDbFaceRecord
 10
0.0
 20
0.0
 30
0.0
 70
   128
 71
   198
 72
   222
 73
  -220
 74
  -198
  0
VERTEX
  5
3F5
330
FC
100
AcDbEntity
  8
0
 62
   121
420
 10085590
100
AcDbFaceRecord
 10
0.0
 20
0.0
 30
0.0
 70
   128
 71
   222
 72
   198
 73
  -199
 74
  -222
  0
VERTEX
  5
3F6
330
FC
100
AcDbEntity
  8
0
 62
   121
420
 10085590
100
AcDbFaceRecord
 10
0.0
 20
0.0
 30
0.0
 70
   128
 71
   199
 72
   223
 73
  -222
 74
  -199
  0
VERTEX
  5
3F7
330
FC
100
AcDbEntity
  8
0
 62
   121
420
 10085590
100
AcDbFaceRecord
 10
0.0
 20
0.0
 30
0.0
 70
   128
 71
   223
 72
   199
 73
  -200
 74
  -223
  0
VERTEX
  5
3F8
330
FC
100
AcDbEntity
  8
0
 62
   121
420
 10085590
100
AcDbFaceRecord
 10
0.0
 20
0.0
 30
0.0
 70
   128
 71
   200
 72
   224
 73
  -223
 74
  -200
  0
VERTEX
  5
3F9
330
FC
100
AcDbEntity
  8
0
 62
   121
420
 10085590
100
AcDbFaceRecord
 10
0.0
 20
0.0
 30
0.0
 70
   128
 71
   224
 72
   200
 73
  -201
 74
  -224
  0
VERTEX
  5
3FA
330
FC
100
AcDbEntity
  8
0
 62
   121
420
 10085590
100
AcDbFaceRecord
 10
0.0
 20
0.0
 30
0.0
 70
   128
 71
   201
 72
   225
 73
  -224
 74
  -201
  0
VERTEX
  5
3FB
330
FC
100
AcDbEntity
  8
0
 62
   121
420
 10085590
100
AcDbFaceRecord
 10
0.0
 20
0.0
 30
0.0
 70
   128
 71
   226
 72
   202
 73
  -195
 74
  -226
  0
VERTEX
  5
3FC
330
FC
100
AcDbEntity
  8
0
 62
   121
420
 10085590
100
AcDbFaceRecord
 10
0.0
 20
0.0
 30
0.0
 70
   128
 71
   195
 72
   221
 73
  -226
 74
  -195
  0
VERTEX
  5
3FD
330
FC
100
AcDbEntity
  8
0
 62
   121
420
 10085590
100
AcDbFaceRecord
 10
0.0
 20
0.0
 30
0.0
 70
   128
 71
   225
 72
   201
 73
  -202
 74
  -225
  0
VERTEX
  5
3FE
330
FC
100
AcDbEntity
  8
0
 62
   121
420
 10085590
100
AcDbFaceRecord
 10
0.0
 20
0.0
 30
0.0
 70
   128
 71
   202
 72
   226
 73
  -225
 74
  -202
  0
VERTEX
  5
3FF
330
FC
100
AcDbEntity
  8
0
 62
   121
420
 10085590
100
AcDbFaceRecord
 10
0.0
 20
0.0
 30
0.0
 70
   128
 71
   228
 72
   212
 73
  -211
 74
  -228
  0
VERTEX
  5
400
330
FC
100
AcDbEntity
  8
0
 62
   121
420
 10085590
100
AcDbFaceRecord
 10
0.0
 20
0.0
 30
0.0
 70
   128
 71
   211
 72
   227
 73
  -228
 74
  -211
  0
VERTEX
  5
401
330
FC
100
AcDbEntity
  8
0
 62
   121
420
 10085590
100
AcDbFaceRecord
 10
0.0
 20
0.0
 30
0.0
 70
   128
 71
   227
 72
   211
 73
  -216
 74
  -227
  0
VERTEX
  5
402
330
FC
100
AcDbEntity
  8
0
 62
   121
420
 10085590
100
AcDbFaceRecord
 10
0.0
 20
0.0
 30
0.0
 70
   128
 71
   216
 72
   232
 73
  -227
 74
  -216
  0
VERTEX
  5
403
330
FC
100
AcDbEntity
  8
0
 62
   121
420
 10085590
100
AcDbFaceRecord
 10
0.0
 20
0.0
 30
0.0
 70
   128
 71
   229
 72
   213
 73
  -212
 74
  -229
  0
VERTEX
  5
404
330
FC
100
AcDbEntity
  8
0
 62
   121
420
 10085590
100
AcDbFaceRecord
 10
0.0
 20
0.0
 30
0.0
 70
   128
 71
   212
 72
   228
 73
  -229
 74
  -212
  0
VERTEX
  5
405
330
FC
100
AcDbEntity
  8
0
 62
   121
420
 10085590
100
AcDbFaceRecord
 10
0.0
 20
0.0
 30
0.0
 70
   128
 71
   230
 72
   214
 73
  -213
 74
  -230
  0
VERTEX
  5
406
330
FC
100
AcDbEntity
  8
0
 62
   121
420
 10085590
100
AcDbFaceRecord
 10
0.0
 20
0.0
 30
0.0
 70
   128
 71
   213
 72
   229
 73
  -230
 74
  -213
  0
VERTEX
  5
407
330
FC
100
AcDbEntity
  8
0
 62
   121
420
 10085590
100
AcDbFaceRecord
 10
0.0
 20
0.0
 30
0.0
 70
   128
 71
   231
 72
   215
 73
  -214
 74
  -231
  0
VERTEX
  5
408
330
FC
100
AcDbEntity
  8
0
 62
   121
420
 10085590
100
AcDbFaceRecord
 10
0.0
 20
0.0
 30
0.0
 70
   128
 71
   214
 72
   230
 73
  -231
 74
  -214
  0
VERTEX
  5
409
330
FC
100
AcDbEntity
  8
0
 62
   121
420
 10085590
100
AcDbFaceRecord
 10
0.0
 20
0.0
 30
0.0
 70
   128
 71
   233
 72
   217
 73
  -215
 74
  -233
  0
VERTEX
  5
40A
330
FC
100
AcDbEntity
  8
0
 62
   121
420
 10085590
100
AcDbFaceRecord
 10
0.0
 20
0.0
 30
0.0
 70
   128
 71
   215
 72
   231
 73
  -233
 74
  -215
  0
VERTEX
  5
40B
330
FC
100
AcDbEntity
  8
0
 62
   121
420
 10085590
100
AcDbFaceRecord
 10
0.0
 20
0.0
 30
0.0
 70
   128
 71
   232
 72
   216
 73
  -218
 74
  -232
  0
VERTEX
  5
40C
330
FC
100
AcDbEntity
  8
0
 62
   121
420
 10085590
100
AcDbFaceRecord
 10
0.0
 20
0.0
 30
0.0
 70
   128
 71
   218
 72
   234
 73
  -232
 74
  -218
  0
VERTEX
  5
40D
330
FC
100
AcDbEntity
  8
0
 62
   121
420
 10085590
100
AcDbFaceRecord
 10
0.0
 20
0.0
 30
0.0
 70
   128
 71
   235
 72
   219
 73
  -217
 74
  -235
  0
VERTEX
  5
40E
330
FC
100
AcDbEntity
  8
0
 62
   121
420
 10085590
100
AcDbFaceRecord
 10
0.0
 20
0.0
 30
0.0
 70
   128
 71
   217
 72
   233
 73
  -235
 74
  -217
  0
VERTEX
  5
40F
330
FC
100
AcDbEntity
  8
0
 62
   121
420
 10085590
100
AcDbFaceRecord
 10
0.0
 20
0.0
 30
0.0
 70
   128
 71
   234
 72
   218
 73
  -220
 74
  -234
  0
VERTEX
  5
410
330
FC
100
AcDbEntity
  8
0
 62
   121
420
 10085590
100
AcDbFaceRecord
 10
0.0
 20
0.0
 30
0.0
 70
   128
 71
   220
 72
   236
 73
  -234
 74
  -220
  0
VERTEX
  5
411
330
FC
100
AcDbEntity
  8
0
 62
   121
420
 10085590
100
AcDbFaceRecord
 10
0.0
 20
0.0
 30
0.0
 70
   128
 71
   237
 72
   221
 73
  -219
 74
  -237
  0
VERTEX
  5
412
330
FC
100
AcDbEntity
  8
0
 62
   121
420
 10085590
100
AcDbFaceRecord
 10
0.0
 20
0.0
 30
0.0
 70
   128
 71
   219
 72
   235
 73
  -237
 74
  -219
  0
VERTEX
  5
413
330
FC
100
AcDbEntity
  8
0
 62
   121
420
 10085590
100
AcDbFaceRecord
 10
0.0
 20
0.0
 30
0.0
 70
   128
 71
   238
 72
   222
 73
  -223
 74
  -238
  0
VERTEX
  5
414
330
FC
100
AcDbEntity
  8
0
 62
   121
420
 10085590
100
AcDbFaceRecord
 10
0.0
 20
0.0
 30
0.0
 70
   128
 71
   223
 72
   239
 73
  -238
 74
  -223
  0
VERTEX
  5
415
330
FC
100
AcDbEntity
  8
0
 62
   121
420
 10085590
100
AcDbFaceRecord
 10
0.0
 20
0.0
 30
0.0
 70
   128
 71
   236
 72
   220
 73
  -222
 74
  -236
  0
VERTEX
  5
416
330
FC
100
AcDbEntity
  8
0
 62
   121
420
 10085590
100
AcDbFaceRecord
 10
0.0
 20
0.0
 30
0.0
 70
   128
 71
   222
 72
   238
 73
  -236
 74
  -222
  0
VERTEX
  5
417
330
FC
100
AcDbEntity
  8
0
 62
   121
420
 10085590
100
AcDbFaceRecord
 10
0.0
 20
0.0
 30
0.0
 70
   128
 71
   239
 72
   223
 73
  -224
 74
  -239
  0
VERTEX
  5
418
330
FC
100
AcDbEntity
  8
0
 62
   121
420
 10085590
100
AcDbFaceRecord
 10
0.0
 20
0.0
 30
0.0
 70
   128
 71
   224
 72
   240
 73
  -239
 74
  -224
  0
VERTEX
  5
419
330
FC
100
AcDbEntity
  8
0
 62
   121
420
 10085590
100
AcDbFaceRecord
 10
0.0
 20
0.0
 30
0.0
 70
   128
 71
   240
 72
   224
 73
  -225
 74
  -240
  0
VERTEX
  5
41A
330
FC
100
AcDbEntity
  8
0
 62
   121
420
 10085590
100
AcDbFaceRecord
 10
0.0
 20
0.0
 30
0.0
 70
   128
 71
   225
 72
   241
 73
  -240
 74
  -225
  0
VERTEX
  5
41B
330
FC
100
AcDbEntity
  8
0
 62
   121
420
 10085590
100
AcDbFaceRecord
 10
0.0
 20
0.0
 30
0.0
 70
   128
 71
   242
 72
   226
 73
  -221
 74
  -242
  0
VERTEX
  5
41C
330
FC
100
AcDbEntity
  8
0
 62
   121
420
 10085590
100
AcDbFaceRecord
 10
0.0
 20
0.0
 30
0.0
 70
   128
 71
   221
 72
   237
 73
  -242
 74
  -221
  0
VERTEX
  5
41D
330
FC
100
AcDbEntity
  8
0
 62
   121
420
 10085590
100
AcDbFaceRecord
 10
0.0
 20
0.0
 30
0.0
 70
   128
 71
   241
 72
   225
 73
  -226
 74
  -241
  0
VERTEX
  5
41E
330
FC
100
AcDbEntity
  8
0
 62
   121
420
 10085590
100
AcDbFaceRecord
 10
0.0
 20
0.0
 30
0.0
 70
   128
 71
   226
 72
   242
 73
  -241
 74
  -226
  0
VERTEX
  5
41F
330
FC
100
AcDbEntity
  8
0
 62
   121
420
 10085590
100
AcDbFaceRecord
 10
0.0
 20
0.0
 30
0.0
 70
   128
 71
    10
 72
     9
 73
  -130
 74
   -10
  0
VERTEX
  5
420
330
FC
100
AcDbEntity
  8
0
 62
   121
420
 10085590
100
AcDbFaceRecord
 10
0.0
 20
0.0
 30
0.0
 70
   128
 71
   130
 72
   131
 73
   -10
 74
  -130
  0
VERTEX
  5
421
330
FC
100
AcDbEntity
  8
0
 62
   121
420
 10085590
100
AcDbFaceRecord
 10
0.0
 20
0.0
 30
0.0
 70
   128
 71
    11
 72
    10
 73
  -131
 74
   -11
  0
VERTEX
  5
422
330
FC
100
AcDbEntity
  8
0
 62
   121
420
 10085590
100
AcDbFaceRecord
 10
0.0
 20
0.0
 30
0.0
 70
   128
 71
   131
 72
   132
 73
   -11
 74
  -131
  0
VERTEX
  5
423
330
FC
100
AcDbEntity
  8
0
 62
   121
420
 10085590
100
AcDbFaceRecord
 10
0.0
 20
0.0
 30
0.0
 70
   128
 71
    12
 72
    11
 73
  -132
 74
   -12
  0
VERTEX
  5
424
330
FC
100
AcDbEntity
  8
0
 62
   121
420
 10085590
100
AcDbFaceRecord
 10
0.0
 20
0.0
 30
0.0
 70
   128
 71
   132
 72
   133
 73
   -12
 74
  -132
  0
VERTEX
  5
425
330
FC
100
AcDbEntity
  8
0
 62
   121
420
 10085590
100
AcDbFaceRecord
 10
0.0
 20
0.0
 30
0.0
 70
   128
 71
    13
 72
    12
 73
  -133
 74
   -13
  0
VERTEX
  5
426
330
FC
100
AcDbEntity
  8
0
 62
   121
420
 10085590
100
AcDbFaceRecord
 10
0.0
 20
0.0
 30
0.0
 70
   128
 71
   133
 72
   134
 73
   -13
 74
  -133
  0
VERTEX
  5
427
330
FC
100
AcDbEntity
  8
0
 62
   121
420
 10085590
100
AcDbFaceRecord
 10
0.0
 20
0.0
 30
0.0
 70
   128
 71
     9
 72
    16
 73
  -137
 74
    -9
  0
VERTEX
  5
428
330
FC
100
AcDbEntity
  8
0
 62
   121
420
 10085590
100
AcDbFaceRecord
 10
0.0
 20
0.0
 30
0.0
 70
   128
 71
   137
 72
   130
 73
    -9
 74
  -137
  0
VERTEX
  5
429
330
FC
100
AcDbEntity
  8
0
 62
   121
420
 10085590
100
AcDbFaceRecord
 10
0.0
 20
0.0
 30
0.0
 70
   128
 71
    17
 72
    13
 73
  -134
 74
   -17
  0
VERTEX
  5
42A
330
FC
100
AcDbEntity
  8
0
 62
   121
420
 10085590
100
AcDbFaceRecord
 10
0.0
 20
0.0
 30
0.0
 70
   128
 71
   134
 72
   138
 73
   -17
 74
  -134
  0
VERTEX
  5
42B
330
FC
100
AcDbEntity
  8
0
 62
   121
420
 10085590
100
AcDbFaceRecord
 10
0.0
 20
0.0
 30
0.0
 70
   128
 71
    16
 72
    20
 73
  -141
 74
   -16
  0
VERTEX
  5
42C
330
FC
100
AcDbEntity
  8
0
 62
   121
420
 10085590
100
AcDbFaceRecord
 10
0.0
 20
0.0
 30
0.0
 70
   128
 71
   141
 72
   137
 73
   -16
 74
  -141
  0
VERTEX
  5
42D
330
FC
100
AcDbEntity
  8
0
 62
   121
420
 10085590
100
AcDbFaceRecord
 10
0.0
 20
0.0
 30
0.0
 70
   128
 71
    21
 72
    17
 73
  -138
 74
   -21
  0
VERTEX
  5
42E
330
FC
100
AcDbEntity
  8
0
 62
   121
420
 10085590
100
AcDbFaceRecord
 10
0.0
 20
0.0
 30
0.0
 70
   128
 71
   138
 72
   142
 73
   -21
 74
  -138
  0
VERTEX
  5
42F
330
FC
100
AcDbEntity
  8
0
 62
   121
420
 10085590
100
AcDbFaceRecord
 10
0.0
 20
0.0
 30
0.0
 70
   128
 71
    20
 72
    24
 73
  -145
 74
   -20
  0
VERTEX
  5
430
330
FC
100
AcDbEntity
  8
0
 62
   121
420
 10085590
100
AcDbFaceRecord
 10
0.0
 20
0.0
 30
0.0
 70
   128
 71
   145
 72
   141
 73
   -20
 74
  -145
  0
VERTEX
  5
431
330
FC
100
AcDbEntity
  8
0
 62
   121
420
 10085590
100
AcDbFaceRecord
 10
0.0
 20
0.0
 30
0.0
 70
   128
 71
    25
 72
    21
 73
  -142
 74
   -25
  0
VERTEX
  5
432
330
FC
100
AcDbEntity
  8
0
 62
   121
420
 10085590
100
AcDbFaceRecord
 10
0.0
 20
0.0
 30
0.0
 70
   128
 71
   142
 72
   146
 73
   -25
 74
  -142
  0
VERTEX
  5
433
330
FC
100
AcDbEntity
  8
0
 62
   121
420
 10085590
100
AcDbFaceRecord
 10
0.0
 20
0.0
 30
0.0
 70
   128
 71
    24
 72
    28
 73
  -149
 74
   -24
  0
VERTEX
  5
434
330
FC
100
AcDbEntity
  8
0
 62
   121
420
 10085590
100
AcDbFaceRecord
 10
0.0
 20
0.0
 30
0.0
 70
   128
 71
   149
 72
   145
 73
   -24
 74
  -149
  0
VERTEX
  5
435
330
FC
100
AcDbEntity
  8
0
 62
   121
420
 10085590
100
AcDbFaceRecord
 10
0.0
 20
0.0
 30
0.0
 70
   128
 71
    32
 72
    25
 73
  -146
 74
   -32
  0
VERTEX
  5
436
330
FC
100
AcDbEntity
  8
0
 62
   121
420
 10085590
100
AcDbFaceRecord
 10
0.0
 20
0.0
 30
0.0
 70
   128
 71
   146
 72
   153
 73
   -32
 74
  -146
  0
VERTEX
  5
437
330
FC
100
AcDbEntity
  8
0
 62
   121
420
 10085590
100
AcDbFaceRecord
 10
0.0
 20
0.0
 30
0.0
 70
   128
 71
    28
 72
    29
 73
  -150
 74
   -28
  0
VERTEX
  5
438
330
FC
100
AcDbEntity
  8
0
 62
   121
420
 10085590
100
AcDbFaceRecord
 10
0.0
 20
0.0
 30
0.0
 70
   128
 71
   150
 72
   149
 73
   -28
 74
  -150
  0
VERTEX
  5
439
330
FC
100
AcDbEntity
  8
0
 62
   121
420
 10085590
100
AcDbFaceRecord
 10
0.0
 20
0.0
 30
0.0
 70
   128
 71
    29
 72
    30
 73
  -151
 74
   -29
  0
VERTEX
  5
43A
330
FC
100
AcDbEntity
  8
0
 62
   121
420
 10085590
100
AcDbFaceRecord
 10
0.0
 20
0.0
 30
0.0
 70
   128
 71
   151
 72
   150
 73
   -29
 74
  -151
  0
VERTEX
  5
43B
330
FC
100
AcDbEntity
  8
0
 62
   121
420
 10085590
100
AcDbFaceRecord
 10
0.0
 20
0.0
 30
0.0
 70
   128
 71
    30
 72
    31
 73
  -152
 74
   -30
  0
VERTEX
  5
43C
330
FC
100
AcDbEntity
  8
0
 62
   121
420
 10085590
100
AcDbFaceRecord
 10
0.0
 20
0.0
 30
0.0
 70
   128
 71
   152
 72
   151
 73
   -30
 74
  -152
  0
VERTEX
  5
43D
330
FC
100
AcDbEntity
  8
0
 62
   121
420
 10085590
100
AcDbFaceRecord
 10
0.0
 20
0.0
 30
0.0
 70
   128
 71
    31
 72
    32
 73
  -153
 74
   -31
  0
VERTEX
  5
43E
330
FC
100
AcDbEntity
  8
0
 62
   121
420
 10085590
100
AcDbFaceRecord
 10
0.0
 20
0.0
 30
0.0
 70
   128
 71
   153
 72
   152
 73
   -31
 74
  -153
  0
VERTEX
  5
43F
330
FC
100
AcDbEntity
  8
0
 62
   121
420
 10085590
100
AcDbFaceRecord
 10
0.0
 20
0.0
 30
0.0
 70
   128
 71
  -243
 72
   245
 73
  -244
 74
  -243
  0
VERTEX
  5
440
330
FC
100
AcDbEntity
  8
0
 62
   121
420
 10085590
100
AcDbFaceRecord
 10
0.0
 20
0.0
 30
0.0
 70
   128
 71
  -243
 72
   246
 73
  -245
 74
  -243
  0
VERTEX
  5
441
330
FC
100
AcDbEntity
  8
0
 62
   121
420
 10085590
100
AcDbFaceRecord
 10
0.0
 20
0.0
 30
0.0
 70
   128
 71
  -243
 72
   247
 73
  -246
 74
  -243
  0
VERTEX
  5
442
330
FC
100
AcDbEntity
  8
0
 62
   121
420
 10085590
100
AcDbFaceRecord
 10
0.0
 20
0.0
 30
0.0
 70
   128
 71
  -243
 72
   248
 73
  -247
 74
  -243
  0
VERTEX
  5
443
330
FC
100
AcDbEntity
  8
0
 62
   121
420
 10085590
100
AcDbFaceRecord
 10
0.0
 20
0.0
 30
0.0
 70
   128
 71
  -243
 72
   249
 73
  -248
 74
  -243
  0
VERTEX
  5
444
330
FC
100
AcDbEntity
  8
0
 62
   121
420
 10085590
100
AcDbFaceRecord
 10
0.0
 20
0.0
 30
0.0
 70
   128
 71
  -243
 72
   250
 73
  -249
 74
  -243
  0
VERTEX
  5
445
330
FC
100
AcDbEntity
  8
0
 62
   121
420
 10085590
100
AcDbFaceRecord
 10
0.0
 20
0.0
 30
0.0
 70
   128
 71
  -243
 72
   251
 73
  -250
 74
  -243
  0
VERTEX
  5
446
330
FC
100
AcDbEntity
  8
0
 62
   121
420
 10085590
100
AcDbFaceRecord
 10
0.0
 20
0.0
 30
0.0
 70
   128
 71
  -243
 72
   252
 73
  -251
 74
  -243
  0
VERTEX
  5
447
330
FC
100
AcDbEntity
  8
0
 62
   121
420
 10085590
100
AcDbFaceRecord
 10
0.0
 20
0.0
 30
0.0
 70
   128
 71
  -243
 72
   253
 73
  -252
 74
  -243
  0
VERTEX
  5
448
330
FC
100
AcDbEntity
  8
0
 62
   121
420
 10085590
100
AcDbFaceRecord
 10
0.0
 20
0.0
 30
0.0
 70
   128
 71
  -243
 72
   254
 73
  -253
 74
  -243
  0
VERTEX
  5
449
330
FC
100
AcDbEntity
  8
0
 62
   121
420
 10085590
100
AcDbFaceRecord
 10
0.0
 20
0.0
 30
0.0
 70
   128
 71
  -243
 72
   255
 73
  -254
 74
  -243
  0
VERTEX
  5
44A
330
FC
100
AcDbEntity
  8
0
 62
   121
420
 10085590
100
AcDbFaceRecord
 10
0.0
 20
0.0
 30
0.0
 70
   128
 71
  -243
 72
   256
 73
  -255
 74
  -243
  0
VERTEX
  5
44B
330
FC
100
AcDbEntity
  8
0
 62
   121
420
 10085590
100
AcDbFaceRecord
 10
0.0
 20
0.0
 30
0.0
 70
   128
 71
  -243
 72
   257
 73
  -256
 74
  -243
  0
VERTEX
  5
44C
330
FC
100
AcDbEntity
  8
0
 62
   121
420
 10085590
100
AcDbFaceRecord
 10
0.0
 20
0.0
 30
0.0
 70
   128
 71
  -243
 72
   258
 73
  -257
 74
  -243
  0
VERTEX
  5
44D
330
FC
100
AcDbEntity
  8
0
 62
   121
420
 10085590
100
AcDbFaceRecord
 10
0.0
 20
0.0
 30
0.0
 70
   128
 71
  -243
 72
   259
 73
  -258
 74
  -243
  0
VERTEX
  5
44E
330
FC
100
AcDbEntity
  8
0
 62
   121
420
 10085590
100
AcDbFaceRecord
 10
0.0
 20
0.0
 30
0.0
 70
   128
 71
  -243
 72
   260
 73
  -259
 74
  -243
  0
VERTEX
  5
44F
330
FC
100
AcDbEntity
  8
0
 62
   121
420
 10085590
100
AcDbFaceRecord
 10
0.0
 20
0.0
 30
0.0
 70
   128
 71
  -243
 72
   261
 73
  -260
 74
  -243
  0
VERTEX
  5
450
330
FC
100
AcDbEntity
  8
0
 62
   121
420
 10085590
100
AcDbFaceRecord
 10
0.0
 20
0.0
 30
0.0
 70
   128
 71
  -243
 72
   244
 73
  -261
 74
  -243
  0
VERTEX
  5
451
330
FC
100
AcDbEntity
  8
0
 62
   121
420
 10085590
100
AcDbFaceRecord
 10
0.0
 20
0.0
 30
0.0
 70
   128
 71
  -244
 72
   263
 73
   262
 74
  -244
  0
VERTEX
  5
452
330
FC
100
AcDbEntity
  8
0
 62
   121
420
 10085590
100
AcDbFaceRecord
 10
0.0
 20
0.0
 30
0.0
 70
   128
 71
   244
 72
   245
 73
  -263
 74
  -244
  0
VERTEX
  5
453
330
FC
100
AcDbEntity
  8
0
 62
   121
420
 10085590
100
AcDbFaceRecord
 10
0.0
 20
0.0
 30
0.0
 70
   128
 71
  -245
 72
   264
 73
   263
 74
  -245
  0
VERTEX
  5
454
330
FC
100
AcDbEntity
  8
0
 62
   121
420
 10085590
100
AcDbFaceRecord
 10
0.0
 20
0.0
 30
0.0
 70
   128
 71
   245
 72
   246
 73
  -264
 74
  -245
  0
VERTEX
  5
455
330
FC
100
AcDbEntity
  8
0
 62
   121
420
 10085590
100
AcDbFaceRecord
 10
0.0
 20
0.0
 30
0.0
 70
   128
 71
  -246
 72
   265
 73
   264
 74
  -246
  0
VERTEX
  5
456
330
FC
100
AcDbEntity
  8
0
 62
   121
420
 10085590
100
AcDbFaceRecord
 10
0.0
 20
0.0
 30
0.0
 70
   128
 71
   246
 72
   247
 73
  -265
 74
  -246
  0
VERTEX
  5
457
330
FC
100
AcDbEntity
  8
0
 62
   121
420
 10085590
100
AcDbFaceRecord
 10
0.0
 20
0.0
 30
0.0
 70
   128
 71
  -247
 72
   266
 73
   265
 74
  -247
  0
VERTEX
  5
458
330
FC
100
AcDbEntity
  8
0
 62
   121
420
 10085590
100
AcDbFaceRecord
 10
0.0
 20
0.0
 30
0.0
 70
   128
 71
   247
 72
   248
 73
  -266
 74
  -247
  0
VERTEX
  5
459
330
FC
100
AcDbEntity
  8
0
 62
   121
420
 10085590
100
AcDbFaceRecord
 10
0.0
 20
0.0
 30
0.0
 70
   128
 71
  -248
 72
   267
 73
   266
 74
  -248
  0
VERTEX
  5
45A
330
FC
100
AcDbEntity
  8
0
 62
   121
420
 10085590
100
AcDbFaceRecord
 10
0.0
 20
0.0
 30
0.0
 70
   128
 71
   248
 72
   249
 73
  -267
 74
  -248
  0
VERTEX
  5
45B
330
FC
100
AcDbEntity
  8
0
 62
   121
420
 10085590
100
AcDbFaceRecord
 10
0.0
 20
0.0
 30
0.0
 70
   128
 71
  -249
 72
   268
 73
   267
 74
  -249
  0
VERTEX
  5
45C
330
FC
100
AcDbEntity
  8
0
 62
   121
420
 10085590
100
AcDbFaceRecord
 10
0.0
 20
0.0
 30
0.0
 70
   128
 71
   249
 72
   250
 73
  -268
 74
  -249
  0
VERTEX
  5
45D
330
FC
100
AcDbEntity
  8
0
 62
   121
420
 10085590
100
AcDbFaceRecord
 10
0.0
 20
0.0
 30
0.0
 70
   128
 71
  -250
 72
   269
 73
   268
 74
  -250
  0
VERTEX
  5
45E
330
FC
100
AcDbEntity
  8
0
 62
   121
420
 10085590
100
AcDbFaceRecord
 10
0.0
 20
0.0
 30
0.0
 70
   128
 71
   250
 72
   251
 73
  -269
 74
  -250
  0
VERTEX
  5
45F
330
FC
100
AcDbEntity
  8
0
 62
   121
420
 10085590
100
AcDbFaceRecord
 10
0.0
 20
0.0
 30
0.0
 70
   128
 71
  -251
 72
   270
 73
   269
 74
  -251
  0
VERTEX
  5
460
330
FC
100
AcDbEntity
  8
0
 62
   121
420
 10085590
100
AcDbFaceRecord
 10
0.0
 20
0.0
 30
0.0
 70
   128
 71
   251
 72
   252
 73
  -270
 74
  -251
  0
VERTEX
  5
461
330
FC
100
AcDbEntity
  8
0
 62
   121
420
 10085590
100
AcDbFaceRecord
 10
0.0
 20
0.0
 30
0.0
 70
   128
 71
  -252
 72
   271
 73
   270
 74
  -252
  0
VERTEX
  5
462
330
FC
100
AcDbEntity
  8
0
 62
   121
420
 10085590
100
AcDbFaceRecord
 10
0.0
 20
0.0
 30
0.0
 70
   128
 71
   252
 72
   253
 73
  -271
 74
  -252
  0
VERTEX
  5
463
330
FC
100
AcDbEntity
  8
0
 62
   121
420
 10085590
100
AcDbFaceRecord
 10
0.0
 20
0.0
 30
0.0
 70
   128
 71
  -253
 72
   272
 73
   271
 74
  -253
  0
VERTEX
  5
464
330
FC
100
AcDbEntity
  8
0
 62
   121
420
 10085590
100
AcDbFaceRecord
 10
0.0
 20
0.0
 30
0.0
 70
   128
 71
   253
 72
   254
 73
  -272
 74
  -253
  0
VERTEX
  5
465
330
FC
100
AcDbEntity
  8
0
 62
   121
420
 10085590
100
AcDbFaceRecord
 10
0.0
 20
0.0
 30
0.0
 70
   128
 71
  -254
 72
   273
 73
   272
 74
  -254
  0
VERTEX
  5
466
330
FC
100
AcDbEntity
  8
0
 62
   121
420
 10085590
100
AcDbFaceRecord
 10
0.0
 20
0.0
 30
0.0
 70
   128
 71
   254
 72
   255
 73
  -273
 74
  -254
  0
VERTEX
  5
467
330
FC
100
AcDbEntity
  8
0
 62
   121
420
 10085590
100
AcDbFaceRecord
 10
0.0
 20
0.0
 30
0.0
 70
   128
 71
  -255
 72
   274
 73
   273
 74
  -255
  0
VERTEX
  5
468
330
FC
100
AcDbEntity
  8
0
 62
   121
420
 10085590
100
AcDbFaceRecord
 10
0.0
 20
0.0
 30
0.0
 70
   128
 71
   255
 72
   256
 73
  -274
 74
  -255
  0
VERTEX
  5
469
330
FC
100
AcDbEntity
  8
0
 62
   121
420
 10085590
100
AcDbFaceRecord
 10
0.0
 20
0.0
 30
0.0
 70
   128
 71
  -256
 72
   275
 73
   274
 74
  -256
  0
VERTEX
  5
46A
330
FC
100
AcDbEntity
  8
0
 62
   121
420
 10085590
100
AcDbFaceRecord
 10
0.0
 20
0.0
 30
0.0
 70
   128
 71
   256
 72
   257
 73
  -275
 74
  -256
  0
VERTEX
  5
46B
330
FC
100
AcDbEntity
  8
0
 62
   121
420
 10085590
100
AcDbFaceRecord
 10
0.0
 20
0.0
 30
0.0
 70
   128
 71
  -257
 72
   276
 73
   275
 74
  -257
  0
VERTEX
  5
46C
330
FC
100
AcDbEntity
  8
0
 62
   121
420
 10085590
100
AcDbFaceRecord
 10
0.0
 20
0.0
 30
0.0
 70
   128
 71
   257
 72
   258
 73
  -276
 74
  -257
  0
VERTEX
  5
46D
330
FC
100
AcDbEntity
  8
0
 62
   121
420
 10085590
100
AcDbFaceRecord
 10
0.0
 20
0.0
 30
0.0
 70
   128
 71
  -258
 72
   277
 73
   276
 74
  -258
  0
VERTEX
  5
46E
330
FC
100
AcDbEntity
  8
0
 62
   121
420
 10085590
100
AcDbFaceRecord
 10
0.0
 20
0.0
 30
0.0
 70
   128
 71
   258
 72
   259
 73
  -277
 74
  -258
  0
VERTEX
  5
46F
330
FC
100
AcDbEntity
  8
0
 62
   121
420
 10085590
100
AcDbFaceRecord
 10
0.0
 20
0.0
 30
0.0
 70
   128
 71
  -259
 72
   278
 73
   277
 74
  -259
  0
VERTEX
  5
470
330
FC
100
AcDbEntity
  8
0
 62
   121
420
 10085590
100
AcDbFaceRecord
 10
0.0
 20
0.0
 30
0.0
 70
   128
 71
   259
 72
   260
 73
  -278
 74
  -259
  0
VERTEX
  5
471
330
FC
100
AcDbEntity
  8
0
 62
   121
420
 10085590
100
AcDbFaceRecord
 10
0.0
 20
0.0
 30
0.0
 70
   128
 71
  -260
 72
   279
 73
   278
 74
  -260
  0
VERTEX
  5
472
330
FC
100
AcDbEntity
  8
0
 62
   121
420
 10085590
100
AcDbFaceRecord
 10
0.0
 20
0.0
 30
0.0
 70
   128
 71
   260
 72
   261
 73
  -279
 74
  -260
  0
VERTEX
  5
473
330
FC
100
AcDbEntity
  8
0
 62
   121
420
 10085590
100
AcDbFaceRecord
 10
0.0
 20
0.0
 30
0.0
 70
   128
 71
  -261
 72
   262
 73
   279
 74
  -261
  0
VERTEX
  5
474
330
FC
100
AcDbEntity
  8
0
 62
   121
420
 10085590
100
AcDbFaceRecord
 10
0.0
 20
0.0
 30
0.0
 70
   128
 71
   261
 72
   244
 73
  -262
 74
  -261
  0
VERTEX
  5
475
330
FC
100
AcDbEntity
  8
0
 62
   121
420
 10085590
100
AcDbFaceRecord
 10
0.0
 20
0.0
 30
0.0
 70
   128
 71
  -280
 72
   262
 73
  -263
 74
  -280
  0
VERTEX
  5
476
330
FC
100
AcDbEntity
  8
0
 62
   121
420
 10085590
100
AcDbFaceRecord
 10
0.0
 20
0.0
 30
0.0
 70
   128
 71
  -280
 72
   263
 73
  -264
 74
  -280
  0
VERTEX
  5
477
330
FC
100
AcDbEntity
  8
0
 62
   121
420
 10085590
100
AcDbFaceRecord
 10
0.0
 20
0.0
 30
0.0
 70
   128
 71
  -280
 72
   264
 73
  -265
 74
  -280
  0
VERTEX
  5
478
330
FC
100
AcDbEntity
  8
0
 62
   121
420
 10085590
100
AcDbFaceRecord
 10
0.0
 20
0.0
 30
0.0
 70
   128
 71
  -280
 72
   265
 73
  -266
 74
  -280
  0
VERTEX
  5
479
330
FC
100
AcDbEntity
  8
0
 62
   121
420
 10085590
100
AcDbFaceRecord
 10
0.0
 20
0.0
 30
0.0
 70
   128
 71
  -280
 72
   266
 73
  -267
 74
  -280
  0
VERTEX
  5
47A
330
FC
100
AcDbEntity
  8
0
 62
   121
420
 10085590
100
AcDbFaceRecord
 10
0.0
 20
0.0
 30
0.0
 70
   128
 71
  -280
 72
   267
 73
  -268
 74
  -280
  0
VERTEX
  5
47B
330
FC
100
AcDbEntity
  8
0
 62
   121
420
 10085590
100
AcDbFaceRecord
 10
0.0
 20
0.0
 30
0.0
 70
   128
 71
  -280
 72
   268
 73
  -269
 74
  -280
  0
VERTEX
  5
47C
330
FC
100
AcDbEntity
  8
0
 62
   121
420
 10085590
100
AcDbFaceRecord
 10
0.0
 20
0.0
 30
0.0
 70
   128
 71
  -280
 72
   269
 73
  -270
 74
  -280
  0
VERTEX
  5
47D
330
FC
100
AcDbEntity
  8
0
 62
   121
420
 10085590
100
AcDbFaceRecord
 10
0.0
 20
0.0
 30
0.0
 70
   128
 71
  -280
 72
   270
 73
  -271
 74
  -280
  0
VERTEX
  5
47E
330
FC
100
AcDbEntity
  8
0
 62
   121
420
 10085590
100
AcDbFaceRecord
 10
0.0
 20
0.0
 30
0.0
 70
   128
 71
  -280
 72
   271
 73
  -272
 74
  -280
  0
VERTEX
  5
47F
330
FC
100
AcDbEntity
  8
0
 62
   121
420
 10085590
100
AcDbFaceRecord
 10
0.0
 20
0.0
 30
0.0
 70
   128
 71
  -280
 72
   272
 73
  -273
 74
  -280
  0
VERTEX
  5
480
330
FC
100
AcDbEntity
  8
0
 62
   121
420
 10085590
100
AcDbFaceRecord
 10
0.0
 20
0.0
 30
0.0
 70
   128
 71
  -280
 72
   273
 73
  -274
 74
  -280
  0
VERTEX
  5
481
330
FC
100
AcDbEntity
  8
0
 62
   121
420
 10085590
100
AcDbFaceRecord
 10
0.0
 20
0.0
 30
0.0
 70
   128
 71
  -280
 72
   274
 73
  -275
 74
  -280
  0
VERTEX
  5
482
330
FC
100
AcDbEntity
  8
0
 62
   121
420
 10085590
100
AcDbFaceRecord
 10
0.0
 20
0.0
 30
0.0
 70
   128
 71
  -280
 72
   275
 73
  -276
 74
  -280
  0
VERTEX
  5
483
330
FC
100
AcDbEntity
  8
0
 62
   121
420
 10085590
100
AcDbFaceRecord
 10
0.0
 20
0.0
 30
0.0
 70
   128
 71
  -280
 72
   276
 73
  -277
 74
  -280
  0
VERTEX
  5
484
330
FC
100
AcDbEntity
  8
0
 62
   121
420
 10085590
100
AcDbFaceRecord
 10
0.0
 20
0.0
 30
0.0
 70
   128
 71
  -280
 72
   277
 73
  -278
 74
  -280
  0
VERTEX
  5
485
330
FC
100
AcDbEntity
  8
0
 62
   121
420
 10085590
100
AcDbFaceRecord
 10
0.0
 20
0.0
 30
0.0
 70
   128
 71
  -280
 72
   278
 73
  -279
 74
  -280
  0
VERTEX
  5
486
330
FC
100
AcDbEntity
  8
0
 62
   121
420
 10085590
100
AcDbFaceRecord
 10
0.0
 20
0.0
 30
0.0
 70
   128
 71
  -280
 72
   279
 73
  -262
 74
  -280
  0
VERTEX
  5
487
330
FC
100
AcDbEntity
  8
0
 62
   121
420
 10085590
100
AcDbFaceRecord
 10
0.0
 20
0.0
 30
0.0
 70
   128
 71
  -281
 72
   283
 73
  -282
 74
  -281
  0
VERTEX
  5
488
330
FC
100
AcDbEntity
  8
0
 62
   121
420
 10085590
100
AcDbFaceRecord
 10
0.0
 20
0.0
 30
0.0
 70
   128
 71
  -281
 72
   284
 73
  -283
 74
  -281
  0
VERTEX
  5
489
330
FC
100
AcDbEntity
  8
0
 62
   121
420
 10085590
100
AcDbFaceRecord
 10
0.0
 20
0.0
 30
0.0
 70
   128
 71
  -281
 72
   285
 73
  -284
 74
  -281
  0
VERTEX
  5
48A
330
FC
100
AcDbEntity
  8
0
 62
   121
420
 10085590
100
AcDbFaceRecord
 10
0.0
 20
0.0
 30
0.0
 70
   128
 71
  -281
 72
   286
 73
  -285
 74
  -281
  0
VERTEX
  5
48B
330
FC
100
AcDbEntity
  8
0
 62
   121
420
 10085590
100
AcDbFaceRecord
 10
0.0
 20
0.0
 30
0.0
 70
   128
 71
  -281
 72
   287
 73
  -286
 74
  -281
  0
VERTEX
  5
48C
330
FC
100
AcDbEntity
  8
0
 62
   121
420
 10085590
100
AcDbFaceRecord
 10
0.0
 20
0.0
 30
0.0
 70
   128
 71
  -281
 72
   288
 73
  -287
 74
  -281
  0
VERTEX
  5
48D
330
FC
100
AcDbEntity
  8
0
 62
   121
420
 10085590
100
AcDbFaceRecord
 10
0.0
 20
0.0
 30
0.0
 70
   128
 71
  -281
 72
   289
 73
  -288
 74
  -281
  0
VERTEX
  5
48E
330
FC
100
AcDbEntity
  8
0
 62
   121
420
 10085590
100
AcDbFaceRecord
 10
0.0
 20
0.0
 30
0.0
 70
   128
 71
  -281
 72
   290
 73
  -289
 74
  -281
  0
VERTEX
  5
48F
330
FC
100
AcDbEntity
  8
0
 62
   121
420
 10085590
100
AcDbFaceRecord
 10
0.0
 20
0.0
 30
0.0
 70
   128
 71
  -281
 72
   291
 73
  -290
 74
  -281
  0
VERTEX
  5
490
330
FC
100
AcDbEntity
  8
0
 62
   121
420
 10085590
100
AcDbFaceRecord
 10
0.0
 20
0.0
 30
0.0
 70
   128
 71
  -281
 72
   292
 73
  -291
 74
  -281
  0
VERTEX
  5
491
330
FC
100
AcDbEntity
  8
0
 62
   121
420
 10085590
100
AcDbFaceRecord
 10
0.0
 20
0.0
 30
0.0
 70
   128
 71
  -281
 72
   293
 73
  -292
 74
  -281
  0
VERTEX
  5
492
330
FC
100
AcDbEntity
  8
0
 62
   121
420
 10085590
100
AcDbFaceRecord
 10
0.0
 20
0.0
 30
0.0
 70
   128
 71
  -281
 72
   294
 73
  -293
 74
  -281
  0
VERTEX
  5
493
330
FC
100
AcDbEntity
  8
0
 62
   121
420
 10085590
100
AcDbFaceRecord
 10
0.0
 20
0.0
 30
0.0
 70
   128
 71
  -281
 72
   295
 73
  -294
 74
  -281
  0
VERTEX
  5
494
330
FC
100
AcDbEntity
  8
0
 62
   121
420
 10085590
100
AcDbFaceRecord
 10
0.0
 20
0.0
 30
0.0
 70
   128
 71
  -281
 72
   296
 73
  -295
 74
  -281
  0
VERTEX
  5
495
330
FC
100
AcDbEntity
  8
0
 62
   121
420
 10085590
100
AcDbFaceRecord
 10
0.0
 20
0.0
 30
0.0
 70
   128
 71
  -281
 72
   297
 73
  -296
 74
  -281
  0
VERTEX
  5
496
330
FC
100
AcDbEntity
  8
0
 62
   121
420
 10085590
100
AcDbFaceRecord
 10
0.0
 20
0.0
 30
0.0
 70
   128
 71
  -281
 72
   298
 73
  -297
 74
  -281
  0
VERTEX
  5
497
330
FC
100
AcDbEntity
  8
0
 62
   121
420
 10085590
100
AcDbFaceRecord
 10
0.0
 20
0.0
 30
0.0
 70
   128
 71
  -281
 72
   299
 73
  -298
 74
  -281
  0
VERTEX
  5
498
330
FC
100
AcDbEntity
  8
0
 62
   121
420
 10085590
100
AcDbFaceRecord
 10
0.0
 20
0.0
 30
0.0
 70
   128
 71
  -281
 72
   282
 73
  -299
 74
  -281
  0
VERTEX
  5
499
330
FC
100
AcDbEntity
  8
0
 62
   121
420
 10085590
100
AcDbFaceRecord
 10
0.0
 20
0.0
 30
0.0
 70
   128
 71
  -282
 72
   301
 73
   300
 74
  -282
  0
VERTEX
  5
49A
330
FC
100
AcDbEntity
  8
0
 62
   121
420
 10085590
100
AcDbFaceRecord
 10
0.0
 20
0.0
 30
0.0
 70
   128
 71
   282
 72
   283
 73
  -301
 74
  -282
  0
VERTEX
  5
49B
330
FC
100
AcDbEntity
  8
0
 62
   121
420
 10085590
100
AcDbFaceRecord
 10
0.0
 20
0.0
 30
0.0
 70
   128
 71
  -283
 72
   302
 73
   301
 74
  -283
  0
VERTEX
  5
49C
330
FC
100
AcDbEntity
  8
0
 62
   121
420
 10085590
100
AcDbFaceRecord
 10
0.0
 20
0.0
 30
0.0
 70
   128
 71
   283
 72
   284
 73
  -302
 74
  -283
  0
VERTEX
  5
49D
330
FC
100
AcDbEntity
  8
0
 62
   121
420
 10085590
100
AcDbFaceRecord
 10
0.0
 20
0.0
 30
0.0
 70
   128
 71
  -284
 72
   303
 73
   302
 74
  -284
  0
VERTEX
  5
49E
330
FC
100
AcDbEntity
  8
0
 62
   121
420
 10085590
100
AcDbFaceRecord
 10
0.0
 20
0.0
 30
0.0
 70
   128
 71
   284
 72
   285
 73
  -303
 74
  -284
  0
VERTEX
  5
49F
330
FC
100
AcDbEntity
  8
0
 62
   121
420
 10085590
100
AcDbFaceRecord
 10
0.0
 20
0.0
 30
0.0
 70
   128
 71
  -285
 72
   304
 73
   303
 74
  -285
  0
VERTEX
  5
4A0
330
FC
100
AcDbEntity
  8
0
 62
   121
420
 10085590
100
AcDbFaceRecord
 10
0.0
 20
0.0
 30
0.0
 70
   128
 71
   285
 72
   286
 73
  -304
 74
  -285
  0
VERTEX
  5
4A1
330
FC
100
AcDbEntity
  8
0
 62
   121
420
 10085590
100
AcDbFaceRecord
 10
0.0
 20
0.0
 30
0.0
 70
   128
 71
  -286
 72
   305
 73
   304
 74
  -286
  0
VERTEX
  5
4A2
330
FC
100
AcDbEntity
  8
0
 62
   121
420
 10085590
100
AcDbFaceRecord
 10
0.0
 20
0.0
 30
0.0
 70
   128
 71
   286
 72
   287
 73
  -305
 74
  -286
  0
VERTEX
  5
4A3
330
FC
100
AcDbEntity
  8
0
 62
   121
420
 10085590
100
AcDbFaceRecord
 10
0.0
 20
0.0
 30
0.0
 70
   128
 71
  -287
 72
   306
 73
   305
 74
  -287
  0
VERTEX
  5
4A4
330
FC
100
AcDbEntity
  8
0
 62
   121
420
 10085590
100
AcDbFaceRecord
 10
0.0
 20
0.0
 30
0.0
 70
   128
 71
   287
 72
   288
 73
  -306
 74
  -287
  0
VERTEX
  5
4A5
330
FC
100
AcDbEntity
  8
0
 62
   121
420
 10085590
100
AcDbFaceRecord
 10
0.0
 20
0.0
 30
0.0
 70
   128
 71
  -288
 72
   307
 73
   306
 74
  -288
  0
VERTEX
  5
4A6
330
FC
100
AcDbEntity
  8
0
 62
   121
420
 10085590
100
AcDbFaceRecord
 10
0.0
 20
0.0
 30
0.0
 70
   128
 71
   288
 72
   289
 73
  -307
 74
  -288
  0
VERTEX
  5
4A7
330
FC
100
AcDbEntity
  8
0
 62
   121
420
 10085590
100
AcDbFaceRecord
 10
0.0
 20
0.0
 30
0.0
 70
   128
 71
  -289
 72
   308
 73
   307
 74
  -289
  0
VERTEX
  5
4A8
330
FC
100
AcDbEntity
  8
0
 62
   121
420
 10085590
100
AcDbFaceRecord
 10
0.0
 20
0.0
 30
0.0
 70
   128
 71
   289
 72
   290
 73
  -308
 74
  -289
  0
VERTEX
  5
4A9
330
FC
100
AcDbEntity
  8
0
 62
   121
420
 10085590
100
AcDbFaceRecord
 10
0.0
 20
0.0
 30
0.0
 70
   128
 71
  -290
 72
   309
 73
   308
 74
  -290
  0
VERTEX
  5
4AA
330
FC
100
AcDbEntity
  8
0
 62
   121
420
 10085590
100
AcDbFaceRecord
 10
0.0
 20
0.0
 30
0.0
 70
   128
 71
   290
 72
   291
 73
  -309
 74
  -290
  0
VERTEX
  5
4AB
330
FC
100
AcDbEntity
  8
0
 62
   121
420
 10085590
100
AcDbFaceRecord
 10
0.0
 20
0.0
 30
0.0
 70
   128
 71
  -291
 72
   310
 73
   309
 74
  -291
  0
VERTEX
  5
4AC
330
FC
100
AcDbEntity
  8
0
 62
   121
420
 10085590
100
AcDbFaceRecord
 10
0.0
 20
0.0
 30
0.0
 70
   128
 71
   291
 72
   292
 73
  -310
 74
  -291
  0
VERTEX
  5
4AD
330
FC
100
AcDbEntity
  8
0
 62
   121
420
 10085590
100
AcDbFaceRecord
 10
0.0
 20
0.0
 30
0.0
 70
   128
 71
  -292
 72
   311
 73
   310
 74
  -292
  0
VERTEX
  5
4AE
330
FC
100
AcDbEntity
  8
0
 62
   121
420
 10085590
100
AcDbFaceRecord
 10
0.0
 20
0.0
 30
0.0
 70
   128
 71
   292
 72
   293
 73
  -311
 74
  -292
  0
VERTEX
  5
4AF
330
FC
100
AcDbEntity
  8
0
 62
   121
420
 10085590
100
AcDbFaceRecord
 10
0.0
 20
0.0
 30
0.0
 70
   128
 71
  -293
 72
   312
 73
   311
 74
  -293
  0
VERTEX
  5
4B0
330
FC
100
AcDbEntity
  8
0
 62
   121
420
 10085590
100
AcDbFaceRecord
 10
0.0
 20
0.0
 30
0.0
 70
   128
 71
   293
 72
   294
 73
  -312
 74
  -293
  0
VERTEX
  5
4B1
330
FC
100
AcDbEntity
  8
0
 62
   121
420
 10085590
100
AcDbFaceRecord
 10
0.0
 20
0.0
 30
0.0
 70
   128
 71
  -294
 72
   313
 73
   312
 74
  -294
  0
VERTEX
  5
4B2
330
FC
100
AcDbEntity
  8
0
 62
   121
420
 10085590
100
AcDbFaceRecord
 10
0.0
 20
0.0
 30
0.0
 70
   128
 71
   294
 72
   295
 73
  -313
 74
  -294
  0
VERTEX
  5
4B3
330
FC
100
AcDbEntity
  8
0
 62
   121
420
 10085590
100
AcDbFaceRecord
 10
0.0
 20
0.0
 30
0.0
 70
   128
 71
  -295
 72
   314
 73
   313
 74
  -295
  0
VERTEX
  5
4B4
330
FC
100
AcDbEntity
  8
0
 62
   121
420
 10085590
100
AcDbFaceRecord
 10
0.0
 20
0.0
 30
0.0
 70
   128
 71
   295
 72
   296
 73
  -314
 74
  -295
  0
VERTEX
  5
4B5
330
FC
100
AcDbEntity
  8
0
 62
   121
420
 10085590
100
AcDbFaceRecord
 10
0.0
 20
0.0
 30
0.0
 70
   128
 71
  -296
 72
   315
 73
   314
 74
  -296
  0
VERTEX
  5
4B6
330
FC
100
AcDbEntity
  8
0
 62
   121
420
 10085590
100
AcDbFaceRecord
 10
0.0
 20
0.0
 30
0.0
 70
   128
 71
   296
 72
   297
 73
  -315
 74
  -296
  0
VERTEX
  5
4B7
330
FC
100
AcDbEntity
  8
0
 62
   121
420
 10085590
100
AcDbFaceRecord
 10
0.0
 20
0.0
 30
0.0
 70
   128
 71
  -297
 72
   316
 73
   315
 74
  -297
  0
VERTEX
  5
4B8
330
FC
100
AcDbEntity
  8
0
 62
   121
420
 10085590
100
AcDbFaceRecord
 10
0.0
 20
0.0
 30
0.0
 70
   128
 71
   297
 72
   298
 73
  -316
 74
  -297
  0
VERTEX
  5
4B9
330
FC
100
AcDbEntity
  8
0
 62
   121
420
 10085590
100
AcDbFaceRecord
 10
0.0
 20
0.0
 30
0.0
 70
   128
 71
  -298
 72
   317
 73
   316
 74
  -298
  0
VERTEX
  5
4BA
330
FC
100
AcDbEntity
  8
0
 62
   121
420
 10085590
100
AcDbFaceRecord
 10
0.0
 20
0.0
 30
0.0
 70
   128
 71
   298
 72
   299
 73
  -317
 74
  -298
  0
VERTEX
  5
4BB
330
FC
100
AcDbEntity
  8
0
 62
   121
420
 10085590
100
AcDbFaceRecord
 10
0.0
 20
0.0
 30
0.0
 70
   128
 71
  -299
 72
   300
 73
   317
 74
  -299
  0
VERTEX
  5
4BC
330
FC
100
AcDbEntity
  8
0
 62
   121
420
 10085590
100
AcDbFaceRecord
 10
0.0
 20
0.0
 30
0.0
 70
   128
 71
   299
 72
   282
 73
  -300
 74
  -299
  0
VERTEX
  5
4BD
330
FC
100
AcDbEntity
  8
0
 62
   121
420
 10085590
100
AcDbFaceRecord
 10
0.0
 20
0.0
 30
0.0
 70
   128
 71
  -318
 72
   337
 73
  -338
 74
  -318
  0
VERTEX
  5
4BE
330
FC
100
AcDbEntity
  8
0
 62
   121
420
 10085590
100
AcDbFaceRecord
 10
0.0
 20
0.0
 30
0.0
 70
   128
 71
  -318
 72
   338
 73
  -339
 74
  -318
  0
VERTEX
  5
4BF
330
FC
100
AcDbEntity
  8
0
 62
   121
420
 10085590
100
AcDbFaceRecord
 10
0.0
 20
0.0
 30
0.0
 70
   128
 71
  -318
 72
   339
 73
  -340
 74
  -318
  0
VERTEX
  5
4C0
330
FC
100
AcDbEntity
  8
0
 62
   121
420
 10085590
100
AcDbFaceRecord
 10
0.0
 20
0.0
 30
0.0
 70
   128
 71
  -318
 72
   340
 73
  -341
 74
  -318
  0
VERTEX
  5
4C1
330
FC
100
AcDbEntity
  8
0
 62
   121
420
 10085590
100
AcDbFaceRecord
 10
0.0
 20
0.0
 30
0.0
 70
   128
 71
  -318
 72
   341
 73
  -342
 74
  -318
  0
VERTEX
  5
4C2
330
FC
100
AcDbEntity
  8
0
 62
   121
420
 10085590
100
AcDbFaceRecord
 10
0.0
 20
0.0
 30
0.0
 70
   128
 71
  -318
 72
   342
 73
  -343
 74
  -318
  0
VERTEX
  5
4C3
330
FC
100
AcDbEntity
  8
0
 62
   121
420
 10085590
100
AcDbFaceRecord
 10
0.0
 20
0.0
 30
0.0
 70
   128
 71
  -318
 72
   343
 73
  -344
 74
  -318
  0
VERTEX
  5
4C4
330
FC
100
AcDbEntity
  8
0
 62
   121
420
 10085590
100
AcDbFaceRecord
 10
0.0
 20
0.0
 30
0.0
 70
   128
 71
  -318
 72
   344
 73
  -345
 74
  -318
  0
VERTEX
  5
4C5
330
FC
100
AcDbEntity
  8
0
 62
   121
420
 10085590
100
AcDbFaceRecord
 10
0.0
 20
0.0
 30
0.0
 70
   128
 71
  -318
 72
   345
 73
  -346
 74
  -318
  0
VERTEX
  5
4C6
330
FC
100
AcDbEntity
  8
0
 62
   121
420
 10085590
100
AcDbFaceRecord
 10
0.0
 20
0.0
 30
0.0
 70
   128
 71
  -318
 72
   346
 73
  -347
 74
  -318
  0
VERTEX
  5
4C7
330
FC
100
AcDbEntity
  8
0
 62
   121
420
 10085590
100
AcDbFaceRecord
 10
0.0
 20
0.0
 30
0.0
 70
   128
 71
  -318
 72
   347
 73
  -348
 74
  -318
  0
VERTEX
  5
4C8
330
FC
100
AcDbEntity
  8
0
 62
   121
420
 10085590
100
AcDbFaceRecord
 10
0.0
 20
0.0
 30
0.0
 70
   128
 71
  -318
 72
   348
 73
  -349
 74
  -318
  0
VERTEX
  5
4C9
330
FC
100
AcDbEntity
  8
0
 62
   121
420
 10085590
100
AcDbFaceRecord
 10
0.0
 20
0.0
 30
0.0
 70
   128
 71
  -318
 72
   349
 73
  -350
 74
  -318
  0
VERTEX
  5
4CA
330
FC
100
AcDbEntity
  8
0
 62
   121
420
 10085590
100
AcDbFaceRecord
 10
0.0
 20
0.0
 30
0.0
 70
   128
 71
  -318
 72
   350
 73
  -351
 74
  -318
  0
VERTEX
  5
4CB
330
FC
100
AcDbEntity
  8
0
 62
   121
420
 10085590
100
AcDbFaceRecord
 10
0.0
 20
0.0
 30
0.0
 70
   128
 71
  -318
 72
   351
 73
  -352
 74
  -318
  0
VERTEX
  5
4CC
330
FC
100
AcDbEntity
  8
0
 62
   121
420
 10085590
100
AcDbFaceRecord
 10
0.0
 20
0.0
 30
0.0
 70
   128
 71
  -318
 72
   352
 73
  -353
 74
  -318
  0
VERTEX
  5
4CD
330
FC
100
AcDbEntity
  8
0
 62
   121
420
 10085590
100
AcDbFaceRecord
 10
0.0
 20
0.0
 30
0.0
 70
   128
 71
  -318
 72
   353
 73
  -354
 74
  -318
  0
VERTEX
  5
4CE
330
FC
100
AcDbEntity
  8
0
 62
   121
420
 10085590
100
AcDbFaceRecord
 10
0.0
 20
0.0
 30
0.0
 70
   128
 71
  -318
 72
   354
 73
  -337
 74
  -318
  0
VERTEX
  5
4CF
330
FC
100
AcDbEntity
  8
0
 62
   121
420
 10085590
100
AcDbFaceRecord
 10
0.0
 20
0.0
 30
0.0
 70
   128
 71
   300
 72
   301
 73
  -320
 74
  -300
  0
VERTEX
  5
4D0
330
FC
100
AcDbEntity
  8
0
 62
   121
420
 10085590
100
AcDbFaceRecord
 10
0.0
 20
0.0
 30
0.0
 70
   128
 71
   320
 72
   319
 73
  -300
 74
  -320
  0
VERTEX
  5
4D1
330
FC
100
AcDbEntity
  8
0
 62
   121
420
 10085590
100
AcDbFaceRecord
 10
0.0
 20
0.0
 30
0.0
 70
   128
 71
   301
 72
   302
 73
  -321
 74
  -301
  0
VERTEX
  5
4D2
330
FC
100
AcDbEntity
  8
0
 62
   121
420
 10085590
100
AcDbFaceRecord
 10
0.0
 20
0.0
 30
0.0
 70
   128
 71
   321
 72
   320
 73
  -301
 74
  -321
  0
VERTEX
  5
4D3
330
FC
100
AcDbEntity
  8
0
 62
   121
420
 10085590
100
AcDbFaceRecord
 10
0.0
 20
0.0
 30
0.0
 70
   128
 71
   302
 72
   303
 73
  -322
 74
  -302
  0
VERTEX
  5
4D4
330
FC
100
AcDbEntity
  8
0
 62
   121
420
 10085590
100
AcDbFaceRecord
 10
0.0
 20
0.0
 30
0.0
 70
   128
 71
   322
 72
   321
 73
  -302
 74
  -322
  0
VERTEX
  5
4D5
330
FC
100
AcDbEntity
  8
0
 62
   121
420
 10085590
100
AcDbFaceRecord
 10
0.0
 20
0.0
 30
0.0
 70
   128
 71
   303
 72
   304
 73
  -323
 74
  -303
  0
VERTEX
  5
4D6
330
FC
100
AcDbEntity
  8
0
 62
   121
420
 10085590
100
AcDbFaceRecord
 10
0.0
 20
0.0
 30
0.0
 70
   128
 71
   323
 72
   322
 73
  -303
 74
  -323
  0
VERTEX
  5
4D7
330
FC
100
AcDbEntity
  8
0
 62
   121
420
 10085590
100
AcDbFaceRecord
 10
0.0
 20
0.0
 30
0.0
 70
   128
 71
   304
 72
   305
 73
  -324
 74
  -304
  0
VERTEX
  5
4D8
330
FC
100
AcDbEntity
  8
0
 62
   121
420
 10085590
100
AcDbFaceRecord
 10
0.0
 20
0.0
 30
0.0
 70
   128
 71
   324
 72
   323
 73
  -304
 74
  -324
  0
VERTEX
  5
4D9
330
FC
100
AcDbEntity
  8
0
 62
   121
420
 10085590
100
AcDbFaceRecord
 10
0.0
 20
0.0
 30
0.0
 70
   128
 71
   305
 72
   306
 73
  -325
 74
  -305
  0
VERTEX
  5
4DA
330
FC
100
AcDbEntity
  8
0
 62
   121
420
 10085590
100
AcDbFaceRecord
 10
0.0
 20
0.0
 30
0.0
 70
   128
 71
   325
 72
   324
 73
  -305
 74
  -325
  0
VERTEX
  5
4DB
330
FC
100
AcDbEntity
  8
0
 62
   121
420
 10085590
100
AcDbFaceRecord
 10
0.0
 20
0.0
 30
0.0
 70
   128
 71
   306
 72
   307
 73
  -326
 74
  -306
  0
VERTEX
  5
4DC
330
FC
100
AcDbEntity
  8
0
 62
   121
420
 10085590
100
AcDbFaceRecord
 10
0.0
 20
0.0
 30
0.0
 70
   128
 71
   326
 72
   325
 73
  -306
 74
  -326
  0
VERTEX
  5
4DD
330
FC
100
AcDbEntity
  8
0
 62
   121
420
 10085590
100
AcDbFaceRecord
 10
0.0
 20
0.0
 30
0.0
 70
   128
 71
   307
 72
   308
 73
  -327
 74
  -307
  0
VERTEX
  5
4DE
330
FC
100
AcDbEntity
  8
0
 62
   121
420
 10085590
100
AcDbFaceRecord
 10
0.0
 20
0.0
 30
0.0
 70
   128
 71
   327
 72
   326
 73
  -307
 74
  -327
  0
VERTEX
  5
4DF
330
FC
100
AcDbEntity
  8
0
 62
   121
420
 10085590
100
AcDbFaceRecord
 10
0.0
 20
0.0
 30
0.0
 70
   128
 71
   308
 72
   309
 73
  -328
 74
  -308
  0
VERTEX
  5
4E0
330
FC
100
AcDbEntity
  8
0
 62
   121
420
 10085590
100
AcDbFaceRecord
 10
0.0
 20
0.0
 30
0.0
 70
   128
 71
   328
 72
   327
 73
  -308
 74
  -328
  0
VERTEX
  5
4E1
330
FC
100
AcDbEntity
  8
0
 62
   121
420
 10085590
100
AcDbFaceRecord
 10
0.0
 20
0.0
 30
0.0
 70
   128
 71
   309
 72
   310
 73
  -329
 74
  -309
  0
VERTEX
  5
4E2
330
FC
100
AcDbEntity
  8
0
 62
   121
420
 10085590
100
AcDbFaceRecord
 10
0.0
 20
0.0
 30
0.0
 70
   128
 71
   329
 72
   328
 73
  -309
 74
  -329
  0
VERTEX
  5
4E3
330
FC
100
AcDbEntity
  8
0
 62
   121
420
 10085590
100
AcDbFaceRecord
 10
0.0
 20
0.0
 30
0.0
 70
   128
 71
   310
 72
   311
 73
  -330
 74
  -310
  0
VERTEX
  5
4E4
330
FC
100
AcDbEntity
  8
0
 62
   121
420
 10085590
100
AcDbFaceRecord
 10
0.0
 20
0.0
 30
0.0
 70
   128
 71
   330
 72
   329
 73
  -310
 74
  -330
  0
VERTEX
  5
4E5
330
FC
100
AcDbEntity
  8
0
 62
   121
420
 10085590
100
AcDbFaceRecord
 10
0.0
 20
0.0
 30
0.0
 70
   128
 71
   311
 72
   312
 73
  -331
 74
  -311
  0
VERTEX
  5
4E6
330
FC
100
AcDbEntity
  8
0
 62
   121
420
 10085590
100
AcDbFaceRecord
 10
0.0
 20
0.0
 30
0.0
 70
   128
 71
   331
 72
   330
 73
  -311
 74
  -331
  0
VERTEX
  5
4E7
330
FC
100
AcDbEntity
  8
0
 62
   121
420
 10085590
100
AcDbFaceRecord
 10
0.0
 20
0.0
 30
0.0
 70
   128
 71
   312
 72
   313
 73
  -332
 74
  -312
  0
VERTEX
  5
4E8
330
FC
100
AcDbEntity
  8
0
 62
   121
420
 10085590
100
AcDbFaceRecord
 10
0.0
 20
0.0
 30
0.0
 70
   128
 71
   332
 72
   331
 73
  -312
 74
  -332
  0
VERTEX
  5
4E9
330
FC
100
AcDbEntity
  8
0
 62
   121
420
 10085590
100
AcDbFaceRecord
 10
0.0
 20
0.0
 30
0.0
 70
   128
 71
   313
 72
   314
 73
  -333
 74
  -313
  0
VERTEX
  5
4EA
330
FC
100
AcDbEntity
  8
0
 62
   121
420
 10085590
100
AcDbFaceRecord
 10
0.0
 20
0.0
 30
0.0
 70
   128
 71
   333
 72
   332
 73
  -313
 74
  -333
  0
VERTEX
  5
4EB
330
FC
100
AcDbEntity
  8
0
 62
   121
420
 10085590
100
AcDbFaceRecord
 10
0.0
 20
0.0
 30
0.0
 70
   128
 71
   314
 72
   315
 73
  -334
 74
  -314
  0
VERTEX
  5
4EC
330
FC
100
AcDbEntity
  8
0
 62
   121
420
 10085590
100
AcDbFaceRecord
 10
0.0
 20
0.0
 30
0.0
 70
   128
 71
   334
 72
   333
 73
  -314
 74
  -334
  0
VERTEX
  5
4ED
330
FC
100
AcDbEntity
  8
0
 62
   121
420
 10085590
100
AcDbFaceRecord
 10
0.0
 20
0.0
 30
0.0
 70
   128
 71
   315
 72
   316
 73
  -335
 74
  -315
  0
VERTEX
  5
4EE
330
FC
100
AcDbEntity
  8
0
 62
   121
420
 10085590
100
AcDbFaceRecord
 10
0.0
 20
0.0
 30
0.0
 70
   128
 71
   335
 72
   334
 73
  -315
 74
  -335
  0
VERTEX
  5
4EF
330
FC
100
AcDbEntity
  8
0
 62
   121
420
 10085590
100
AcDbFaceRecord
 10
0.0
 20
0.0
 30
0.0
 70
   128
 71
   316
 72
   317
 73
  -336
 74
  -316
  0
VERTEX
  5
4F0
330
FC
100
AcDbEntity
  8
0
 62
   121
420
 10085590
100
AcDbFaceRecord
 10
0.0
 20
0.0
 30
0.0
 70
   128
 71
   336
 72
   335
 73
  -316
 74
  -336
  0
VERTEX
  5
4F1
330
FC
100
AcDbEntity
  8
0
 62
   121
420
 10085590
100
AcDbFaceRecord
 10
0.0
 20
0.0
 30
0.0
 70
   128
 71
   317
 72
   300
 73
  -319
 74
  -317
  0
VERTEX
  5
4F2
330
FC
100
AcDbEntity
  8
0
 62
   121
420
 10085590
100
AcDbFaceRecord
 10
0.0
 20
0.0
 30
0.0
 70
   128
 71
   319
 72
   336
 73
  -317
 74
  -319
  0
VERTEX
  5
4F3
330
FC
100
AcDbEntity
  8
0
 62
   121
420
 10085590
100
AcDbFaceRecord
 10
0.0
 20
0.0
 30
0.0
 70
   128
 71
   319
 72
   320
 73
  -338
 74
  -319
  0
VERTEX
  5
4F4
330
FC
100
AcDbEntity
  8
0
 62
   121
420
 10085590
100
AcDbFaceRecord
 10
0.0
 20
0.0
 30
0.0
 70
   128
 71
   338
 72
   337
 73
  -319
 74
  -338
  0
VERTEX
  5
4F5
330
FC
100
AcDbEntity
  8
0
 62
   121
420
 10085590
100
AcDbFaceRecord
 10
0.0
 20
0.0
 30
0.0
 70
   128
 71
   320
 72
   321
 73
  -339
 74
  -320
  0
VERTEX
  5
4F6
330
FC
100
AcDbEntity
  8
0
 62
   121
420
 10085590
100
AcDbFaceRecord
 10
0.0
 20
0.0
 30
0.0
 70
   128
 71
   339
 72
   338
 73
  -320
 74
  -339
  0
VERTEX
  5
4F7
330
FC
100
AcDbEntity
  8
0
 62
   121
420
 10085590
100
AcDbFaceRecord
 10
0.0
 20
0.0
 30
0.0
 70
   128
 71
   321
 72
   322
 73
  -340
 74
  -321
  0
VERTEX
  5
4F8
330
FC
100
AcDbEntity
  8
0
 62
   121
420
 10085590
100
AcDbFaceRecord
 10
0.0
 20
0.0
 30
0.0
 70
   128
 71
   340
 72
   339
 73
  -321
 74
  -340
  0
VERTEX
  5
4F9
330
FC
100
AcDbEntity
  8
0
 62
   121
420
 10085590
100
AcDbFaceRecord
 10
0.0
 20
0.0
 30
0.0
 70
   128
 71
   322
 72
   323
 73
  -341
 74
  -322
  0
VERTEX
  5
4FA
330
FC
100
AcDbEntity
  8
0
 62
   121
420
 10085590
100
AcDbFaceRecord
 10
0.0
 20
0.0
 30
0.0
 70
   128
 71
   341
 72
   340
 73
  -322
 74
  -341
  0
VERTEX
  5
4FB
330
FC
100
AcDbEntity
  8
0
 62
   121
420
 10085590
100
AcDbFaceRecord
 10
0.0
 20
0.0
 30
0.0
 70
   128
 71
   323
 72
   324
 73
  -342
 74
  -323
  0
VERTEX
  5
4FC
330
FC
100
AcDbEntity
  8
0
 62
   121
420
 10085590
100
AcDbFaceRecord
 10
0.0
 20
0.0
 30
0.0
 70
   128
 71
   342
 72
   341
 73
  -323
 74
  -342
  0
VERTEX
  5
4FD
330
FC
100
AcDbEntity
  8
0
 62
   121
420
 10085590
100
AcDbFaceRecord
 10
0.0
 20
0.0
 30
0.0
 70
   128
 71
   324
 72
   325
 73
  -343
 74
  -324
  0
VERTEX
  5
4FE
330
FC
100
AcDbEntity
  8
0
 62
   121
420
 10085590
100
AcDbFaceRecord
 10
0.0
 20
0.0
 30
0.0
 70
   128
 71
   343
 72
   342
 73
  -324
 74
  -343
  0
VERTEX
  5
4FF
330
FC
100
AcDbEntity
  8
0
 62
   121
420
 10085590
100
AcDbFaceRecord
 10
0.0
 20
0.0
 30
0.0
 70
   128
 71
   325
 72
   326
 73
  -344
 74
  -325
  0
VERTEX
  5
500
330
FC
100
AcDbEntity
  8
0
 62
   121
420
 10085590
100
AcDbFaceRecord
 10
0.0
 20
0.0
 30
0.0
 70
   128
 71
   344
 72
   343
 73
  -325
 74
  -344
  0
VERTEX
  5
501
330
FC
100
AcDbEntity
  8
0
 62
   121
420
 10085590
100
AcDbFaceRecord
 10
0.0
 20
0.0
 30
0.0
 70
   128
 71
   326
 72
   327
 73
  -345
 74
  -326
  0
VERTEX
  5
502
330
FC
100
AcDbEntity
  8
0
 62
   121
420
 10085590
100
AcDbFaceRecord
 10
0.0
 20
0.0
 30
0.0
 70
   128
 71
   345
 72
   344
 73
  -326
 74
  -345
  0
VERTEX
  5
503
330
FC
100
AcDbEntity
  8
0
 62
   121
420
 10085590
100
AcDbFaceRecord
 10
0.0
 20
0.0
 30
0.0
 70
   128
 71
   327
 72
   328
 73
  -346
 74
  -327
  0
VERTEX
  5
504
330
FC
100
AcDbEntity
  8
0
 62
   121
420
 10085590
100
AcDbFaceRecord
 10
0.0
 20
0.0
 30
0.0
 70
   128
 71
   346
 72
   345
 73
  -327
 74
  -346
  0
VERTEX
  5
505
330
FC
100
AcDbEntity
  8
0
 62
   121
420
 10085590
100
AcDbFaceRecord
 10
0.0
 20
0.0
 30
0.0
 70
   128
 71
   328
 72
   329
 73
  -347
 74
  -328
  0
VERTEX
  5
506
330
FC
100
AcDbEntity
  8
0
 62
   121
420
 10085590
100
AcDbFaceRecord
 10
0.0
 20
0.0
 30
0.0
 70
   128
 71
   347
 72
   346
 73
  -328
 74
  -347
  0
VERTEX
  5
507
330
FC
100
AcDbEntity
  8
0
 62
   121
420
 10085590
100
AcDbFaceRecord
 10
0.0
 20
0.0
 30
0.0
 70
   128
 71
   329
 72
   330
 73
  -348
 74
  -329
  0
VERTEX
  5
508
330
FC
100
AcDbEntity
  8
0
 62
   121
420
 10085590
100
AcDbFaceRecord
 10
0.0
 20
0.0
 30
0.0
 70
   128
 71
   348
 72
   347
 73
  -329
 74
  -348
  0
VERTEX
  5
509
330
FC
100
AcDbEntity
  8
0
 62
   121
420
 10085590
100
AcDbFaceRecord
 10
0.0
 20
0.0
 30
0.0
 70
   128
 71
   330
 72
   331
 73
  -349
 74
  -330
  0
VERTEX
  5
50A
330
FC
100
AcDbEntity
  8
0
 62
   121
420
 10085590
100
AcDbFaceRecord
 10
0.0
 20
0.0
 30
0.0
 70
   128
 71
   349
 72
   348
 73
  -330
 74
  -349
  0
VERTEX
  5
50B
330
FC
100
AcDbEntity
  8
0
 62
   121
420
 10085590
100
AcDbFaceRecord
 10
0.0
 20
0.0
 30
0.0
 70
   128
 71
   331
 72
   332
 73
  -350
 74
  -331
  0
VERTEX
  5
50C
330
FC
100
AcDbEntity
  8
0
 62
   121
420
 10085590
100
AcDbFaceRecord
 10
0.0
 20
0.0
 30
0.0
 70
   128
 71
   350
 72
   349
 73
  -331
 74
  -350
  0
VERTEX
  5
50D
330
FC
100
AcDbEntity
  8
0
 62
   121
420
 10085590
100
AcDbFaceRecord
 10
0.0
 20
0.0
 30
0.0
 70
   128
 71
   332
 72
   333
 73
  -351
 74
  -332
  0
VERTEX
  5
50E
330
FC
100
AcDbEntity
  8
0
 62
   121
420
 10085590
100
AcDbFaceRecord
 10
0.0
 20
0.0
 30
0.0
 70
   128
 71
   351
 72
   350
 73
  -332
 74
  -351
  0
VERTEX
  5
50F
330
FC
100
AcDbEntity
  8
0
 62
   121
420
 10085590
100
AcDbFaceRecord
 10
0.0
 20
0.0
 30
0.0
 70
   128
 71
   333
 72
   334
 73
  -352
 74
  -333
  0
VERTEX
  5
510
330
FC
100
AcDbEntity
  8
0
 62
   121
420
 10085590
100
AcDbFaceRecord
 10
0.0
 20
0.0
 30
0.0
 70
   128
 71
   352
 72
   351
 73
  -333
 74
  -352
  0
VERTEX
  5
511
330
FC
100
AcDbEntity
  8
0
 62
   121
420
 10085590
100
AcDbFaceRecord
 10
0.0
 20
0.0
 30
0.0
 70
   128
 71
   334
 72
   335
 73
  -353
 74
  -334
  0
VERTEX
  5
512
330
FC
100
AcDbEntity
  8
0
 62
   121
420
 10085590
100
AcDbFaceRecord
 10
0.0
 20
0.0
 30
0.0
 70
   128
 71
   353
 72
   352
 73
  -334
 74
  -353
  0
VERTEX
  5
513
330
FC
100
AcDbEntity
  8
0
 62
   121
420
 10085590
100
AcDbFaceRecord
 10
0.0
 20
0.0
 30
0.0
 70
   128
 71
   335
 72
   336
 73
  -354
 74
  -335
  0
VERTEX
  5
514
330
FC
100
AcDbEntity
  8
0
 62
   121
420
 10085590
100
AcDbFaceRecord
 10
0.0
 20
0.0
 30
0.0
 70
   128
 71
   354
 72
   353
 73
  -335
 74
  -354
  0
VERTEX
  5
515
330
FC
100
AcDbEntity
  8
0
 62
   121
420
 10085590
100
AcDbFaceRecord
 10
0.0
 20
0.0
 30
0.0
 70
   128
 71
   336
 72
   319
 73
  -337
 74
  -336
  0
VERTEX
  5
516
330
FC
100
AcDbEntity
  8
0
 62
   121
420
 10085590
100
AcDbFaceRecord
 10
0.0
 20
0.0
 30
0.0
 70
   128
 71
   337
 72
   354
 73
  -336
 74
  -337
  0
SEQEND
  5
517
330
FC
100
AcDbEntity
  8
0
 62
   121
420
 10085590
  0
ENDSEC
  0
SECTION
  2
OBJECTS
  0
DICTIONARY
  5
C
330
0
100
AcDbDictionary
281
     1
  3
ACAD_COLOR
350
D4
  3
ACAD_GROUP
350
D
  3
ACAD_LAYOUT
350
1A
  3
ACAD_MATERIAL
350
AA
  3
ACAD_MLEADERSTYLE
350
F9
  3
ACAD_MLINESTYLE
350
17
  3
ACAD_PLOTSETTINGS
350
19
  3
ACAD_PLOTSTYLENAME
350
E
  3
ACAD_SCALELIST
350
D7
  3
ACAD_TABLESTYLE
350
D5
  3
ACAD_VISUALSTYLE
350
C3
  3
ACDB_RECOMPOSE_DATA
350
520
  3
AcDbVariableDictionary
350
518
  0
DICTIONARY
  5
D4
102
{ACAD_REACTORS
330
C
102
}
330
C
100
AcDbDictionary
281
     1
  0
DICTIONARY
  5
D
102
{ACAD_REACTORS
330
C
102
}
330
C
100
AcDbDictionary
281
     1
  0
DICTIONARY
  5
1A
102
{ACAD_REACTORS
330
C
102
}
330
C
100
AcDbDictionary
281
     1
  3
Layout1
350
1E
  3
Layout2
350
26
  3
Model
350
22
  0
DICTIONARY
  5
AA
102
{ACAD_REACTORS
330
C
102
}
330
C
100
AcDbDictionary
281
     1
  3
ByBlock
350
B3
  3
ByLayer
350
AB
  3
Global
350
BB
  0
DICTIONARY
  5
F9
102
{ACAD_REACTORS
330
C
102
}
330
C
100
AcDbDictionary
281
     1
  3
Standard
350
FA
  0
DICTIONARY
  5
17
102
{ACAD_REACTORS
330
C
102
}
330
C
100
AcDbDictionary
281
     1
  3
Standard
350
18
  0
DICTIONARY
  5
19
102
{ACAD_REACTORS
330
C
102
}
330
C
100
AcDbDictionary
281
     1
  0
ACDBDICTIONARYWDFLT
  5
E
102
{ACAD_REACTORS
330
C
102
}
330
C
100
AcDbDictionary
281
     1
  3
ByLayer
350
2D
  3
Normal
350
F
100
AcDbDictionaryWithDefault
340
F
  0
DICTIONARY
  5
D7
102
{ACAD_REACTORS
330
C
102
}
330
C
100
AcDbDictionary
281
     1
  3
A0
350
D8
  3
A1
350
D9
  3
A2
350
DA
  3
A3
350
DB
  3
A4
350
DC
  3
A5
350
DD
  3
A6
350
DE
  3
A7
350
DF
  3
A8
350
E0
  3
A9
350
E1
  3
B0
350
E2
  3
B1
350
E3
  3
B2
350
E4
  3
B3
350
E5
  3
B4
350
E6
  3
B5
350
E7
  3
B6
350
E8
  3
B7
350
E9
  3
B8
350
EA
  3
B9
350
EB
  3
C0
350
EC
  3
C1
350
ED
  3
C2
350
EE
  3
C3
350
EF
  3
C4
350
F0
  3
C5
350
F1
  3
C6
350
F2
  3
C7
350
F3
  3
C8
350
F4
  3
C9
350
F5
  3
D0
350
F6
  3
D1
350
F7
  3
D2
350
F8
  0
DICTIONARY
  5
D5
102
{ACAD_REACTORS
330
C
102
}
330
C
100
AcDbDictionary
281
     1
  3
Standard
350
D6
  0
DICTIONARY
  5
C3
102
{ACAD_REACTORS
330
C
102
}
330
C
100
AcDbDictionary
281
     1
  3
2dWireframe
350
C9
  3
3D Hidden
350
CB
  3
3dWireframe
350
CA
  3
Basic
350
C8
  3
Brighten
350
CF
  3
ColorChange
350
D3
  3
Conceptual
350
CC
  3
Dim
350
CE
  3
Facepattern
350
D2
  3
Flat
350
C4
  3
FlatWithEdges
350
C5
  3
Gouraud
350
C6
  3
GouraudWithEdges
350
C7
  3
Linepattern
350
D1
  3
Realistic
350
CD
  3
Thicken
350
D0
  0
XRECORD
  5
520
102
{ACAD_REACTORS
330
C
102
}
330
C
100
AcDbXrecord
280
     1
 90
        1
330
D6
  0
DICTIONARY
  5
518
102
{ACAD_REACTORS
330
C
102
}
330
C
100
AcDbDictionary
281
     1
  3
CANNOSCALE
350
51C
  3
CMLEADERSTYLE
350
51A
  3
CTABLESTYLE
350
519
  3
LIGHTINGUNITS
350
51D
  3
MSLTSCALE
350
51B
  0
LAYOUT
  5
1E
102
{ACAD_REACTORS
330
1A
102
}
330
1A
100
AcDbPlotSettings
  1

  2
\\KTXNTBDC\CASF2PN1
  4

  6

 40
0.0
 41
0.0
 42
0.0
 43
0.0
 44
0.0
 45
0.0
 46
0.0
 47
0.0
 48
0.0
 49
0.0
140
0.0
141
0.0
142
1.0
143
1.0
 70
   688
 72
     0
 73
     0
 74
     5
  7

 75
    16
147
1.0
 76
     0
 77
     2
 78
   300
148
0.0
149
0.0
100
AcDbLayout
  1
Layout1
 70
     1
 71
     1
 10
0.0
 20
0.0
 11
12.0
 21
9.0
 12
0.0
 22
0.0
 32
0.0
 14
1.000000000000000E+20
 24
1.000000000000000E+20
 34
1.000000000000000E+20
 15
-1.000000000000000E+20
 25
-1.000000000000000E+20
 35
-1.000000000000000E+20
146
0.0
 13
0.0
 23
0.0
 33
0.0
 16
1.0
 26
0.0
 36
0.0
 17
0.0
 27
1.0
 37
0.0
 76
     0
330
1B
  0
LAYOUT
  5
26
102
{ACAD_REACTORS
330
1A
102
}
330
1A
100
AcDbPlotSettings
  1

  2
\\KTXNTBDC\CASF2PN1
  4

  6

 40
0.0
 41
0.0
 42
0.0
 43
0.0
 44
0.0
 45
0.0
 46
0.0
 47
0.0
 48
0.0
 49
0.0
140
0.0
141
0.0
142
1.0
143
1.0
 70
   688
 72
     0
 73
     0
 74
     5
  7

 75
    16
147
1.0
 76
     0
 77
     2
 78
   300
148
0.0
149
0.0
100
AcDbLayout
  1
Layout2
 70
     1
 71
     2
 10
0.0
 20
0.0
 11
12.0
 21
9.0
 12
0.0
 22
0.0
 32
0.0
 14
0.0
 24
0.0
 34
0.0
 15
0.0
 25
0.0
 35
0.0
146
0.0
 13
0.0
 23
0.0
 33
0.0
 16
1.0
 26
0.0
 36
0.0
 17
0.0
 27
1.0
 37
0.0
 76
     0
330
23
  0
LAYOUT
  5
22
102
{ACAD_REACTORS
330
1A
102
}
330
1A
100
AcDbPlotSettings
  1

  2
\\KTXNTBDC\CASF2PN1
  4

  6

 40
0.0
 41
0.0
 42
0.0
 43
0.0
 44
0.0
 45
0.0
 46
0.0
 47
0.0
 48
0.0
 49
0.0
140
0.0
141
0.0
142
1.0
143
1.0
 70
  1712
 72
     0
 73
     0
 74
     0
  7

 75
     0
147
1.0
 76
     0
 77
     2
 78
   300
148
0.0
149
0.0
100
AcDbLayout
  1
Model
 70
     1
 71
     0
 10
0.0
 20
0.0
 11
12.0
 21
9.0
 12
0.0
 22
0.0
 32
0.0
 14
0.0
 24
0.0
 34
0.0
 15
0.0
 25
0.0
 35
0.0
146
0.0
 13
0.0
 23
0.0
 33
0.0
 16
1.0
 26
0.0
 36
0.0
 17
0.0
 27
1.0
 37
0.0
 76
     0
330
1F
  0
MATERIAL
  5
B3
102
{ACAD_XDICTIONARY
360
B4
102
}
102
{ACAD_REACTORS
330
AA
102
}
330
AA
100
AcDbMaterial
  1
ByBlock
 72
     0
 43
0.0208333333333333
 43
0.0
 43
0.0
 43
0.0
 43
0.0
 43
0.0208333333333333
 43
0.0
 43
0.0
 43
0.0
 43
0.0
 43
1.0
 43
0.0
 43
0.0
 43
0.0
 43
0.0
 43
1.0
 77
     0
 47
0.0208333333333333
 47
0.0
 47
0.0
 47
0.0
 47
0.0
 47
0.0208333333333333
 47
0.0
 47
0.0
 47
0.0
 47
0.0
 47
1.0
 47
0.0
 47
0.0
 47
0.0
 47
0.0
 47
1.0
171
     0
 49
0.0208333333333333
 49
0.0
 49
0.0
 49
0.0
 49
0.0
 49
0.0208333333333333
 49
0.0
 49
0.0
 49
0.0
 49
0.0
 49
1.0
 49
0.0
 49
0.0
 49
0.0
 49
0.0
 49
1.0
175
     0
142
0.0208333333333333
142
0.0
142
0.0
142
0.0
142
0.0
142
0.0208333333333333
142
0.0
142
0.0
142
0.0
142
0.0
142
1.0
142
0.0
142
0.0
142
0.0
142
0.0
142
1.0
179
     0
144
0.0208333333333333
144
0.0
144
0.0
144
0.0
144
0.0
144
0.0208333333333333
144
0.0
144
0.0
144
0.0
144
0.0
144
1.0
144
0.0
144
0.0
144
0.0
144
0.0
144
1.0
147
0.0208333333333333
147
0.0
147
0.0
147
0.0
147
0.0
147
0.0208333333333333
147
0.0
147
0.0
147
0.0
147
0.0
147
1.0
147
0.0
147
0.0
147
0.0
147
0.0
147
1.0
  0
MATERIAL
  5
AB
102
{ACAD_XDICTIONARY
360
AC
102
}
102
{ACAD_REACTORS
330
AA
102
}
330
AA
100
AcDbMaterial
  1
ByLayer
 72
     0
 43
0.0208333333333333
 43
0.0
 43
0.0
 43
0.0
 43
0.0
 43
0.0208333333333333
 43
0.0
 43
0.0
 43
0.0
 43
0.0
 43
1.0
 43
0.0
 43
0.0
 43
0.0
 43
0.0
 43
1.0
 77
     0
 47
0.0208333333333333
 47
0.0
 47
0.0
 47
0.0
 47
0.0
 47
0.0208333333333333
 47
0.0
 47
0.0
 47
0.0
 47
0.0
 47
1.0
 47
0.0
 47
0.0
 47
0.0
 47
0.0
 47
1.0
171
     0
 49
0.0208333333333333
 49
0.0
 49
0.0
 49
0.0
 49
0.0
 49
0.0208333333333333
 49
0.0
 49
0.0
 49
0.0
 49
0.0
 49
1.0
 49
0.0
 49
0.0
 49
0.0
 49
0.0
 49
1.0
175
     0
142
0.0208333333333333
142
0.0
142
0.0
142
0.0
142
0.0
142
0.0208333333333333
142
0.0
142
0.0
142
0.0
142
0.0
142
1.0
142
0.0
142
0.0
142
0.0
142
0.0
142
1.0
179
     0
144
0.0208333333333333
144
0.0
144
0.0
144
0.0
144
0.0
144
0.0208333333333333
144
0.0
144
0.0
144
0.0
144
0.0
144
1.0
144
0.0
144
0.0
144
0.0
144
0.0
144
1.0
147
0.0208333333333333
147
0.0
147
0.0
147
0.0
147
0.0
147
0.0208333333333333
147
0.0
147
0.0
147
0.0
147
0.0
147
1.0
147
0.0
147
0.0
147
0.0
147
0.0
147
1.0
  0
MATERIAL
  5
BB
102
{ACAD_XDICTIONARY
360
BC
102
}
102
{ACAD_REACTORS
330
AA
102
}
330
AA
100
AcDbMaterial
  1
Global
 72
     0
 43
0.0208333333333333
 43
0.0
 43
0.0
 43
0.0
 43
0.0
 43
0.0208333333333333
 43
0.0
 43
0.0
 43
0.0
 43
0.0
 43
1.0
 43
0.0
 43
0.0
 43
0.0
 43
0.0
 43
1.0
 77
     0
 47
0.0208333333333333
 47
0.0
 47
0.0
 47
0.0
 47
0.0
 47
0.0208333333333333
 47
0.0
 47
0.0
 47
0.0
 47
0.0
 47
1.0
 47
0.0
 47
0.0
 47
0.0
 47
0.0
 47
1.0
171
     0
 49
0.0208333333333333
 49
0.0
 49
0.0
 49
0.0
 49
0.0
 49
0.0208333333333333
 49
0.0
 49
0.0
 49
0.0
 49
0.0
 49
1.0
 49
0.0
 49
0.0
 49
0.0
 49
0.0
 49
1.0
175
     0
142
0.0208333333333333
142
0.0
142
0.0
142
0.0
142
0.0
142
0.0208333333333333
142
0.0
142
0.0
142
0.0
142
0.0
142
1.0
142
0.0
142
0.0
142
0.0
142
0.0
142
1.0
179
     0
144
0.0208333333333333
144
0.0
144
0.0
144
0.0
144
0.0
144
0.0208333333333333
144
0.0
144
0.0
144
0.0
144
0.0
144
1.0
144
0.0
144
0.0
144
0.0
144
0.0
144
1.0
147
0.0208333333333333
147
0.0
147
0.0
147
0.0
147
0.0
147
0.0208333333333333
147
0.0
147
0.0
147
0.0
147
0.0
147
1.0
147
0.0
147
0.0
147
0.0
147
0.0
147
1.0
  0
MLEADERSTYLE
  5
FA
102
{ACAD_REACTORS
330
F9
102
}
330
F9
100
AcDbMLeaderStyle
170
     2
171
     1
172
     0
 90
        2
 40
0.0
 41
0.0
173
     1
 91
-1056964608
340
14
 92
       -2
290
     1
 42
0.09
291
     1
 43
0.36
  3
Standard
 44
0.18
300

342
11
174
     1
178
     6
175
     1
176
     0
 93
-1056964608
 45
0.18
292
     0
297
     0
 46
0.18
 94
-1056964608
 47
1.0
 49
1.0
140
1.0
293
     1
141
0.0
294
     1
177
     0
142
1.0
295
     1
296
     0
143
0.125
1001
ACAD_MLEADERVER
1070
     2
  0
MLINESTYLE
  5
18
102
{ACAD_REACTORS
330
17
102
}
330
17
100
AcDbMlineStyle
  2
STANDARD
 70
     0
  3

 62
   256
 51
90.0
 52
90.0
 71
     2
 49
0.5
 62
   256
  6
BYLAYER
 49
-0.5
 62
   256
  6
BYLAYER
  0
ACDBPLACEHOLDER
  5
2D
102
{ACAD_REACTORS
330
E
102
}
330
E
  0
ACDBPLACEHOLDER
  5
F
102
{ACAD_REACTORS
330
E
102
}
330
E
  0
SCALE
  5
D8
102
{ACAD_REACTORS
330
D7
102
}
330
D7
100
AcDbScale
 70
     0
300
1:1
140
1.0
141
1.0
290
     1
  0
SCALE
  5
D9
102
{ACAD_REACTORS
330
D7
102
}
330
D7
100
AcDbScale
 70
     0
300
1:2
140
1.0
141
2.0
290
     0
  0
SCALE
  5
DA
102
{ACAD_REACTORS
330
D7
102
}
330
D7
100
AcDbScale
 70
     0
300
1:4
140
1.0
141
4.0
290
     0
  0
SCALE
  5
DB
102
{ACAD_REACTORS
330
D7
102
}
330
D7
100
AcDbScale
 70
     0
300
1:5
140
1.0
141
5.0
290
     0
  0
SCALE
  5
DC
102
{ACAD_REACTORS
330
D7
102
}
330
D7
100
AcDbScale
 70
     0
300
1:8
140
1.0
141
8.0
290
     0
  0
SCALE
  5
DD
102
{ACAD_REACTORS
330
D7
102
}
330
D7
100
AcDbScale
 70
     0
300
1:10
140
1.0
141
10.0
290
     0
  0
SCALE
  5
DE
102
{ACAD_REACTORS
330
D7
102
}
330
D7
100
AcDbScale
 70
     0
300
1:16
140
1.0
141
16.0
290
     0
  0
SCALE
  5
DF
102
{ACAD_REACTORS
330
D7
102
}
330
D7
100
AcDbScale
 70
     0
300
1:20
140
1.0
141
20.0
290
     0
  0
SCALE
  5
E0
102
{ACAD_REACTORS
330
D7
102
}
330
D7
100
AcDbScale
 70
     0
300
1:30
140
1.0
141
30.0
290
     0
  0
SCALE
  5
E1
102
{ACAD_REACTORS
330
D7
102
}
330
D7
100
AcDbScale
 70
     0
300
1:40
140
1.0
141
40.0
290
     0
  0
SCALE
  5
E2
102
{ACAD_REACTORS
330
D7
102
}
330
D7
100
AcDbScale
 70
     0
300
1:50
140
1.0
141
50.0
290
     0
  0
SCALE
  5
E3
102
{ACAD_REACTORS
330
D7
102
}
330
D7
100
AcDbScale
 70
     0
300
1:100
140
1.0
141
100.0
290
     0
  0
SCALE
  5
E4
102
{ACAD_REACTORS
330
D7
102
}
330
D7
100
AcDbScale
 70
     0
300
2:1
140
2.0
141
1.0
290
     0
  0
SCALE
  5
E5
102
{ACAD_REACTORS
330
D7
102
}
330
D7
100
AcDbScale
 70
     0
300
4:1
140
4.0
141
1.0
290
     0
  0
SCALE
  5
E6
102
{ACAD_REACTORS
330
D7
102
}
330
D7
100
AcDbScale
 70
     0
300
8:1
140
8.0
141
1.0
290
     0
  0
SCALE
  5
E7
102
{ACAD_REACTORS
330
D7
102
}
330
D7
100
AcDbScale
 70
     0
300
10:1
140
10.0
141
1.0
290
     0
  0
SCALE
  5
E8
102
{ACAD_REACTORS
330
D7
102
}
330
D7
100
AcDbScale
 70
     0
300
100:1
140
100.0
141
1.0
290
     0
  0
SCALE
  5
E9
102
{ACAD_REACTORS
330
D7
102
}
330
D7
100
AcDbScale
 70
     0
300
1/128" = 1'-0"
140
0.0078125
141
12.0
290
     0
  0
SCALE
  5
EA
102
{ACAD_REACTORS
330
D7
102
}
330
D7
100
AcDbScale
 70
     0
300
1/64" = 1'-0"
140
0.015625
141
12.0
290
     0
  0
SCALE
  5
EB
102
{ACAD_REACTORS
330
D7
102
}
330
D7
100
AcDbScale
 70
     0
300
1/32" = 1'-0"
140
0.03125
141
12.0
290
     0
  0
SCALE
  5
EC
102
{ACAD_REACTORS
330
D7
102
}
330
D7
100
AcDbScale
 70
     0
300
1/16" = 1'-0"
140
0.0625
141
12.0
290
     0
  0
SCALE
  5
ED
102
{ACAD_REACTORS
330
D7
102
}
330
D7
100
AcDbScale
 70
     0
300
3/32" = 1'-0"
140
0.09375
141
12.0
290
     0
  0
SCALE
  5
EE
102
{ACAD_REACTORS
330
D7
102
}
330
D7
100
AcDbScale
 70
     0
300
1/8" = 1'-0"
140
0.125
141
12.0
290
     0
  0
SCALE
  5
EF
102
{ACAD_REACTORS
330
D7
102
}
330
D7
100
AcDbScale
 70
     0
300
3/16" = 1'-0"
140
0.1875
141
12.0
290
     0
  0
SCALE
  5
F0
102
{ACAD_REACTORS
330
D7
102
}
330
D7
100
AcDbScale
 70
     0
300
1/4" = 1'-0"
140
0.25
141
12.0
290
     0
  0
SCALE
  5
F1
102
{ACAD_REACTORS
330
D7
102
}
330
D7
100
AcDbScale
 70
     0
300
3/8" = 1'-0"
140
0.375
141
12.0
290
     0
  0
SCALE
  5
F2
102
{ACAD_REACTORS
330
D7
102
}
330
D7
100
AcDbScale
 70
     0
300
1/2" = 1'-0"
140
0.5
141
12.0
290
     0
  0
SCALE
  5
F3
102
{ACAD_REACTORS
330
D7
102
}
330
D7
100
AcDbScale
 70
     0
300
3/4" = 1'-0"
140
0.75
141
12.0
290
     0
  0
SCALE
  5
F4
102
{ACAD_REACTORS
330
D7
102
}
330
D7
100
AcDbScale
 70
     0
300
1" = 1'-0"
140
1.0
141
12.0
290
     0
  0
SCALE
  5
F5
102
{ACAD_REACTORS
330
D7
102
}
330
D7
100
AcDbScale
 70
     0
300
1-1/2" = 1'-0"
140
1.5
141
12.0
290
     0
  0
SCALE
  5
F6
102
{ACAD_REACTORS
330
D7
102
}
330
D7
100
AcDbScale
 70
     0
300
3" = 1'-0"
140
3.0
141
12.0
290
     0
  0
SCALE
  5
F7
102
{ACAD_REACTORS
330
D7
102
}
330
D7
100
AcDbScale
 70
     0
300
6" = 1'-0"
140
6.0
141
12.0
290
     0
  0
SCALE
  5
F8
102
{ACAD_REACTORS
330
D7
102
}
330
D7
100
AcDbScale
 70
     0
300
1'-0" = 1'-0"
140
12.0
141
12.0
290
     0
  0
TABLESTYLE
  5
D6
102
{ACAD_XDICTIONARY
360
51E
102
}
102
{ACAD_REACTORS
330
D5
102
}
330
D5
100
AcDbTableStyle
  3
Standard
 70
     0
 71
     0
 40
0.06
 41
0.06
280
     0
281
     0
  7
Standard
140
0.18
170
     2
 62
     0
 63
     7
283
     0
 90
      512
 91
        0
  1

274
    -2
284
     1
 64
     0
275
    -2
285
     1
 65
     0
276
    -2
286
     1
 66
     0
277
    -2
287
     1
 67
     0
278
    -2
288
     1
 68
     0
279
    -2
289
     1
 69
     0
  7
Standard
140
0.25
170
     5
 62
     0
 63
     7
283
     0
 90
      512
 91
        0
  1

274
    -2
284
     1
 64
     0
275
    -2
285
     1
 65
     0
276
    -2
286
     1
 66
     0
277
    -2
287
     1
 67
     0
278
    -2
288
     1
 68
     0
279
    -2
289
     1
 69
     0
  7
Standard
140
0.18
170
     5
 62
     0
 63
     7
283
     0
 90
      512
 91
        0
  1

274
    -2
284
     1
 64
     0
275
    -2
285
     1
 65
     0
276
    -2
286
     1
 66
     0
277
    -2
287
     1
 67
     0
278
    -2
288
     1
 68
     0
279
    -2
289
     1
 69
     0
  0
VISUALSTYLE
  5
C9
102
{ACAD_REACTORS
330
C3
102
}
330
C3
100
AcDbVisualStyle
  2
2dWireframe
 70
     4
 71
     0
 72
     2
 73
     0
 90
        0
 40
-0.6
 41
-30.0
 62
     5
 63
     7
421
 16777215
 74
     1
 91
        4
 64
     7
 65
   257
 75
     1
175
     1
 42
1.0
 92
        0
 66
   257
 43
1.0
 76
     1
 77
     6
 78
     2
 67
     7
 79
     5
170
     0
171
     0
290
     0
174
     0
 93
        1
 44
0.0
173
     0
291
     0
 45
0.0
  0
VISUALSTYLE
  5
CB
102
{ACAD_REACTORS
330
C3
102
}
330
C3
100
AcDbVisualStyle
  2
3D Hidden
 70
     6
 71
     1
 72
     2
 73
     2
 90
        0
 40
-0.6
 41
-30.0
 62
     5
 63
     7
421
 16777215
 74
     2
 91
        2
 64
     7
 65
   257
 75
     2
175
     1
 42
40.0
 92
        0
 66
   257
 43
1.0
 76
     1
 77
     6
 78
     2
 67
     7
 79
     3
170
     0
171
     0
290
     0
174
     0
 93
        1
 44
0.0
173
     0
291
     0
 45
0.0
  0
VISUALSTYLE
  5
CA
102
{ACAD_REACTORS
330
C3
102
}
330
C3
100
AcDbVisualStyle
  2
3dWireframe
 70
     5
 71
     0
 72
     2
 73
     0
 90
        0
 40
-0.6
 41
-30.0
 62
     5
 63
     7
421
 16777215
 74
     1
 91
        4
 64
     7
 65
   257
 75
     1
175
     1
 42
1.0
 92
        0
 66
   257
 43
1.0
 76
     1
 77
     6
 78
     2
 67
     7
 79
     5
170
     0
171
     0
290
     0
174
     0
 93
        1
 44
0.0
173
     0
291
     0
 45
0.0
  0
VISUALSTYLE
  5
C8
102
{ACAD_REACTORS
330
C3
102
}
330
C3
100
AcDbVisualStyle
  2
Basic
 70
     7
 71
     1
 72
     0
 73
     1
 90
        0
 40
-0.6
 41
-30.0
 62
     5
 63
     7
421
 16777215
 74
     0
 91
        4
 64
     7
 65
   257
 75
     1
175
     1
 42
1.0
 92
        8
 66
     7
 43
1.0
 76
     1
 77
     6
 78
     2
 67
     7
 79
     5
170
     0
171
     0
290
     0
174
     0
 93
        1
 44
0.0
173
     0
291
     1
 45
0.0
  0
VISUALSTYLE
  5
CF
102
{ACAD_REACTORS
330
C3
102
}
330
C3
100
AcDbVisualStyle
  2
Brighten
 70
    12
 71
     2
 72
     2
 73
     0
 90
        0
 40
-0.6
 41
-30.0
 62
     5
 63
     7
421
 16777215
 74
     1
 91
        4
 64
     7
 65
   257
 75
     1
175
     1
 42
1.0
 92
        8
 66
     7
 43
1.0
 76
     1
 77
     6
 78
     2
 67
     7
 79
     5
170
     0
171
     0
290
     0
174
     0
 93
        1
 44
50.0
173
     0
291
     1
 45
0.0
  0
VISUALSTYLE
  5
D3
102
{ACAD_REACTORS
330
C3
102
}
330
C3
100
AcDbVisualStyle
  2
ColorChange
 70
    16
 71
     2
 72
     2
 73
     3
 90
        0
 40
-0.6
 41
-30.0
 62
     5
 63
     8
421
  8421504
 74
     1
 91
        4
 64
     7
 65
   257
 75
     1
175
     1
 42
1.0
 92
        8
 66
     8
424
  8421504
 43
1.0
 76
     1
 77
     6
 78
     2
 67
     7
 79
     5
170
     0
171
     0
290
     0
174
     0
 93
        1
 44
0.0
173
     0
291
     1
 45
0.0
  0
VISUALSTYLE
  5
CC
102
{ACAD_REACTORS
330
C3
102
}
330
C3
100
AcDbVisualStyle
  2
Conceptual
 70
     9
 71
     3
 72
     2
 73
     0
 90
        0
 40
-0.6
 41
-30.0
 62
     5
 63
     7
421
 16777215
 74
     2
 91
        2
 64
     7
 65
   257
 75
     1
175
     1
 42
40.0
 92
        8
 66
     7
 43
1.0
 76
     1
 77
     6
 78
     2
 67
     7
 79
     3
170
     0
171
     0
290
     0
174
     0
 93
        1
 44
0.0
173
     0
291
     0
 45
0.0
  0
VISUALSTYLE
  5
CE
102
{ACAD_REACTORS
330
C3
102
}
330
C3
100
AcDbVisualStyle
  2
Dim
 70
    11
 71
     2
 72
     2
 73
     0
 90
        0
 40
-0.6
 41
-30.0
 62
     5
 63
     7
421
 16777215
 74
     1
 91
        4
 64
     7
 65
   257
 75
     1
175
     1
 42
1.0
 92
        8
 66
     7
 43
1.0
 76
     1
 77
     6
 78
     2
 67
     7
 79
     5
170
     0
171
     0
290
     0
174
     0
 93
        1
 44
-50.0
173
     0
291
     1
 45
0.0
  0
VISUALSTYLE
  5
D2
102
{ACAD_REACTORS
330
C3
102
}
330
C3
100
AcDbVisualStyle
  2
Facepattern
 70
    15
 71
     2
 72
     2
 73
     0
 90
        0
 40
-0.6
 41
-30.0
 62
     5
 63
     7
421
 16777215
 74
     1
 91
        4
 64
     7
 65
   257
 75
     1
175
     1
 42
1.0
 92
        8
 66
     7
 43
1.0
 76
     1
 77
     6
 78
     2
 67
     7
 79
     5
170
     0
171
     0
290
     0
174
     0
 93
        1
 44
0.0
173
     0
291
     1
 45
0.0
  0
VISUALSTYLE
  5
C4
102
{ACAD_REACTORS
330
C3
102
}
330
C3
100
AcDbVisualStyle
  2
Flat
 70
     0
 71
     2
 72
     1
 73
     1
 90
        2
 40
-0.6
 41
30.0
 62
     5
 63
     7
421
 16777215
 74
     0
 91
        4
 64
     7
 65
   257
 75
     1
175
     1
 42
1.0
 92
        8
 66
     7
 43
1.0
 76
     1
 77
     6
 78
     2
 67
     7
 79
     5
170
     0
171
     0
290
     0
174
     0
 93
       13
 44
0.0
173
     0
291
     1
 45
0.0
  0
VISUALSTYLE
  5
C5
102
{ACAD_REACTORS
330
C3
102
}
330
C3
100
AcDbVisualStyle
  2
FlatWithEdges
 70
     1
 71
     2
 72
     1
 73
     1
 90
        2
 40
-0.6
 41
30.0
 62
     5
 63
     7
421
 16777215
 74
     1
 91
        4
 64
     7
 65
   257
 75
     1
175
     1
 42
1.0
 92
        0
 66
   257
 43
1.0
 76
     1
 77
     6
 78
     2
 67
     7
 79
     5
170
     0
171
     0
290
     0
174
     0
 93
       13
 44
0.0
173
     0
291
     1
 45
0.0
  0
VISUALSTYLE
  5
C6
102
{ACAD_REACTORS
330
C3
102
}
330
C3
100
AcDbVisualStyle
  2
Gouraud
 70
     2
 71
     2
 72
     2
 73
     1
 90
        2
 40
-0.6
 41
30.0
 62
     5
 63
     7
421
 16777215
 74
     0
 91
        4
 64
     7
 65
   257
 75
     1
175
     1
 42
1.0
 92
        0
 66
     7
 43
1.0
 76
     1
 77
     6
 78
     2
 67
     7
 79
     5
170
     0
171
     0
290
     0
174
     0
 93
       13
 44
0.0
173
     0
291
     1
 45
0.0
  0
VISUALSTYLE
  5
C7
102
{ACAD_REACTORS
330
C3
102
}
330
C3
100
AcDbVisualStyle
  2
GouraudWithEdges
 70
     3
 71
     2
 72
     2
 73
     1
 90
        2
 40
-0.6
 41
30.0
 62
     5
 63
     7
421
 16777215
 74
     1
 91
        4
 64
     7
 65
   257
 75
     1
175
     1
 42
1.0
 92
        0
 66
   257
 43
1.0
 76
     1
 77
     6
 78
     2
 67
     7
 79
     5
170
     0
171
     0
290
     0
174
     0
 93
       13
 44
0.0
173
     0
291
     1
 45
0.0
  0
VISUALSTYLE
  5
D1
102
{ACAD_REACTORS
330
C3
102
}
330
C3
100
AcDbVisualStyle
  2
Linepattern
 70
    14
 71
     2
 72
     2
 73
     0
 90
        0
 40
-0.6
 41
-30.0
 62
     5
 63
     7
421
 16777215
 74
     1
 91
        4
 64
     7
 65
   257
 75
     7
175
     7
 42
1.0
 92
        8
 66
     7
 43
1.0
 76
     1
 77
     6
 78
     2
 67
     7
 79
     5
170
     0
171
     0
290
     0
174
     0
 93
        1
 44
0.0
173
     0
291
     1
 45
0.0
  0
VISUALSTYLE
  5
CD
102
{ACAD_REACTORS
330
C3
102
}
330
C3
100
AcDbVisualStyle
  2
Realistic
 70
     8
 71
     2
 72
     2
 73
     0
 90
        0
 40
-0.6
 41
-30.0
 62
     5
 63
     7
421
 16777215
 74
     1
 91
        0
 64
     7
 65
   257
 75
     1
175
     1
 42
1.0
 92
        8
 66
     8
424
  7895160
 43
1.0
 76
     1
 77
     6
 78
     2
 67
     7
 79
     5
170
     0
171
     0
290
     0
174
     0
 93
       13
 44
0.0
173
     0
291
     0
 45
0.0
  0
VISUALSTYLE
  5
D0
102
{ACAD_REACTORS
330
C3
102
}
330
C3
100
AcDbVisualStyle
  2
Thicken
 70
    13
 71
     2
 72
     2
 73
     0
 90
        0
 40
-0.6
 41
-30.0
 62
     5
 63
     7
421
 16777215
 74
     1
 91
        4
 64
     7
 65
   257
 75
     1
175
     1
 42
1.0
 92
       12
 66
     7
 43
1.0
 76
     1
 77
     6
 78
     2
 67
     7
 79
     5
170
     0
171
     0
290
     0
174
     0
 93
        1
 44
0.0
173
     0
291
     1
 45
0.0
  0
DICTIONARYVAR
  5
51C
102
{ACAD_REACTORS
330
518
102
}
330
518
100
DictionaryVariables
280
     0
  1
1:1
  0
DICTIONARYVAR
  5
51A
102
{ACAD_REACTORS
330
518
102
}
330
518
100
DictionaryVariables
280
     0
  1
STANDARD
  0
DICTIONARYVAR
  5
519
102
{ACAD_REACTORS
330
518
102
}
330
518
100
DictionaryVariables
280
     0
  1
STANDARD
  0
DICTIONARYVAR
  5
51D
102
{ACAD_REACTORS
330
518
102
}
330
518
100
DictionaryVariables
280
     0
  1
0
  0
DICTIONARYVAR
  5
51B
102
{ACAD_REACTORS
330
518
102
}
330
518
100
DictionaryVariables
280
     0
  1
0
  0
DICTIONARY
  5
B4
330
B3
100
AcDbDictionary
280
     1
281
     1
  3
BUMPTILE
360
B6
  3
DIFFUSETILE
360
B5
  3
OPACITYTILE
360
B9
  3
REFLECTIONTILE
360
B8
  3
REFRACTIONTILE
360
BA
  3
SPECULARTILE
360
B7
  0
DICTIONARY
  5
AC
330
AB
100
AcDbDictionary
280
     1
281
     1
  3
BUMPTILE
360
AE
  3
DIFFUSETILE
360
AD
  3
OPACITYTILE
360
B1
  3
REFLECTIONTILE
360
B0
  3
REFRACTIONTILE
360
B2
  3
SPECULARTILE
360
AF
  0
DICTIONARY
  5
BC
330
BB
100
AcDbDictionary
280
     1
281
     1
  3
BUMPTILE
360
BE
  3
DIFFUSETILE
360
BD
  3
OPACITYTILE
360
C1
  3
REFLECTIONTILE
360
C0
  3
REFRACTIONTILE
360
C2
  3
SPECULARTILE
360
BF
  0
DICTIONARY
  5
51E
330
D6
100
AcDbDictionary
280
     1
281
     1
  3
ACAD_ROUNDTRIP_2008_TABLESTYLE_CELLSTYLEMAP
360
51F
  0
XRECORD
  5
B6
102
{ACAD_REACTORS
330
B4
102
}
330
B4
100
AcDbXrecord
280
     1
270
     1
271
     1
  0
XRECORD
  5
B5
102
{ACAD_REACTORS
330
B4
102
}
330
B4
100
AcDbXrecord
280
     1
270
     1
271
     1
  0
XRECORD
  5
B9
102
{ACAD_REACTORS
330
B4
102
}
330
B4
100
AcDbXrecord
280
     1
270
     1
271
     1
  0
XRECORD
  5
B8
102
{ACAD_REACTORS
330
B4
102
}
330
B4
100
AcDbXrecord
280
     1
270
     1
271
     1
  0
XRECORD
  5
BA
102
{ACAD_REACTORS
330
B4
102
}
330
B4
100
AcDbXrecord
280
     1
270
     1
271
     1
  0
XRECORD
  5
B7
102
{ACAD_REACTORS
330
B4
102
}
330
B4
100
AcDbXrecord
280
     1
270
     1
271
     1
  0
XRECORD
  5
AE
102
{ACAD_REACTORS
330
AC
102
}
330
AC
100
AcDbXrecord
280
     1
270
     1
271
     1
  0
XRECORD
  5
AD
102
{ACAD_REACTORS
330
AC
102
}
330
AC
100
AcDbXrecord
280
     1
270
     1
271
     1
  0
XRECORD
  5
B1
102
{ACAD_REACTORS
330
AC
102
}
330
AC
100
AcDbXrecord
280
     1
270
     1
271
     1
  0
XRECORD
  5
B0
102
{ACAD_REACTORS
330
AC
102
}
330
AC
100
AcDbXrecord
280
     1
270
     1
271
     1
  0
XRECORD
  5
B2
102
{ACAD_REACTORS
330
AC
102
}
330
AC
100
AcDbXrecord
280
     1
270
     1
271
     1
  0
XRECORD
  5
AF
102
{ACAD_REACTORS
330
AC
102
}
330
AC
100
AcDbXrecord
280
     1
270
     1
271
     1
  0
XRECORD
  5
BE
102
{ACAD_REACTORS
330
BC
102
}
330
BC
100
AcDbXrecord
280
     1
270
     1
271
     1
  0
XRECORD
  5
BD
102
{ACAD_REACTORS
330
BC
102
}
330
BC
100
AcDbXrecord
280
     1
270
     1
271
     1
  0
XRECORD
  5
C1
102
{ACAD_REACTORS
330
BC
102
}
330
BC
100
AcDbXrecord
280
     1
270
     1
271
     1
  0
XRECORD
  5
C0
102
{ACAD_REACTORS
330
BC
102
}
330
BC
100
AcDbXrecord
280
     1
270
     1
271
     1
  0
XRECORD
  5
C2
102
{ACAD_REACTORS
330
BC
102
}
330
BC
100
AcDbXrecord
280
     1
270
     1
271
     1
  0
XRECORD
  5
BF
102
{ACAD_REACTORS
330
BC
102
}
330
BC
100
AcDbXrecord
280
     1
270
     1
271
     1
  0
CELLSTYLEMAP
  5
51F
102
{ACAD_REACTORS
330
51E
102
}
330
51E
100
AcDbCellStyleMap
 90
        3
300
CELLSTYLE
  1
TABLEFORMAT_BEGIN
 90
        5
170
     1
 91
        0
 92
    32768
 62
   257
 93
        1
300
CONTENTFORMAT
  1
CONTENTFORMAT_BEGIN
 90
        0
 91
        0
 92
      512
 93
        0
300

 40
0.0
140
1.0
 94
        5
 62
     0
340
11
144
0.25
309
CONTENTFORMAT_END
171
     0
 94
        0
309
TABLEFORMAT_END
  1
CELLSTYLE_BEGIN
 90
        1
 91
        1
300
_TITLE
309
CELLSTYLE_END
300
CELLSTYLE
  1
TABLEFORMAT_BEGIN
 90
        5
170
     1
 91
        0
 92
        0
 62
   257
 93
        1
300
CONTENTFORMAT
  1
CONTENTFORMAT_BEGIN
 90
        0
 91
        0
 92
      512
 93
        0
300

 40
0.0
140
1.0
 94
        5
 62
     0
340
11
144
0.18
309
CONTENTFORMAT_END
171
     0
 94
        0
309
TABLEFORMAT_END
  1
CELLSTYLE_BEGIN
 90
        2
 91
        1
300
_HEADER
309
CELLSTYLE_END
300
CELLSTYLE
  1
TABLEFORMAT_BEGIN
 90
        5
170
     1
 91
        0
 92
        0
 62
   257
 93
        1
300
CONTENTFORMAT
  1
CONTENTFORMAT_BEGIN
 90
        0
 91
        0
 92
      512
 93
        0
300

 40
0.0
140
1.0
 94
        2
 62
     0
340
11
144
0.18
309
CONTENTFORMAT_END
171
     0
 94
        0
309
TABLEFORMAT_END
  1
CELLSTYLE_BEGIN
 90
        3
 91
        2
300
_DATA
309
CELLSTYLE_END
  0
ENDSEC
  0
EOF
