  0
SECTION
  2
HEADER
  9
$ACADVER
  1
AC1009
  9
$INSBASE
 10
0.0
 20
0.0
 30
0.0
  9
$EXTMIN
 10
-9.7600177550025649
 20
-7.5006879715566583
 30
-0.0000000349181948
  9
$EXTMAX
 10
9.8537281964726731
 20
0.0024139279703945
 30
0.0000000814935747
  9
$LIMMIN
 10
0.0
 20
0.0
  9
$LIMMAX
 10
34.0
 20
22.0
  9
$ORTHOMODE
 70
     1
  9
$REGENMODE
 70
     1
  9
$FILLMODE
 70
     1
  9
$QTEXTMODE
 70
     0
  9
$MIRRTEXT
 70
     0
  9
$DRAGMODE
 70
     2
  9
$LTSCALE
 40
1.8700000000000001
  9
$OSMODE
 70
  2727
  9
$ATTMODE
 70
     1
  9
$TEXTSIZE
 40
0.2
  9
$TRACEWID
 40
0.05
  9
$TEXTSTYLE
  7
STANDARD
  9
$CLAYER
  8
0
  9
$CELTYPE
  6
BYLAYER
  9
$CECOLOR
 62
   256
  9
$DIMSCALE
 40
1.0
  9
$DIMASZ
 40
0.1875
  9
$DIMEXO
 40
0.2125
  9
$DIMDLI
 40
1.291999999999998
  9
$DIMRND
 40
0.0
  9
$DIMDLE
 40
0.0
  9
$DIMEXE
 40
0.612
  9
$DIMTP
 40
0.01
  9
$DIMTM
 40
0.01
  9
$DIMTXT
 40
0.15625
  9
$DIMCEN
 40
0.306
  9
$DIMTSZ
 40
0.0
  9
$DIMTOL
 70
     1
  9
$DIMLIM
 70
     0
  9
$DIMTIH
 70
     1
  9
$DIMTOH
 70
     1
  9
$DIMSE1
 70
     0
  9
$DIMSE2
 70
     0
  9
$DIMTAD
 70
     0
  9
$DIMZIN
 70
     0
  9
$DIMBLK
  1
_ARROW_FILLED
  9
$DIMASO
 70
     1
  9
$DIMSHO
 70
     1
  9
$DIMPOST
  1

  9
$DIMAPOST
  1

  9
$DIMALT
 70
     0
  9
$DIMALTD
 70
     2
  9
$DIMALTF
 40
25.399999999999999
  9
$DIMLFAC
 40
1.0
  9
$DIMTOFL
 70
     0
  9
$DIMTVP
 40
0.0
  9
$DIMTIX
 70
     0
  9
$DIMSOXD
 70
     0
  9
$DIMSAH
 70
     0
  9
$DIMBLK1
  1

  9
$DIMBLK2
  1

  9
$DIMSTYLE
  2
STANDARD
  9
$DIMCLRD
 70
     0
  9
$DIMCLRE
 70
     0
  9
$DIMCLRT
 70
     0
  9
$DIMTFAC
 40
1.0
  9
$DIMGAP
 40
0.09
  9
$LUNITS
 70
     2
  9
$LUPREC
 70
     4
  9
$SKETCHINC
 40
0.1
  9
$FILLETRAD
 40
0.0
  9
$AUNITS
 70
     0
  9
$AUPREC
 70
     0
  9
$MENU
  1
.
  9
$ELEVATION
 40
0.0
  9
$PELEVATION
 40
0.0
  9
$THICKNESS
 40
0.0
  9
$LIMCHECK
 70
     0
  9
$BLIPMODE
 70
     0
  9
$CHAMFERA
 40
0.0
  9
$CHAMFERB
 40
0.0
  9
$SKPOLY
 70
     0
  9
$TDCREATE
 40
2454497.501335382
  9
$TDUPDATE
 40
2454497.5255604279
  9
$TDINDWG
 40
0.0239550463
  9
$TDUSRTIMER
 40
0.0239550463
  9
$USRTIMER
 70
     1
  9
$ANGBASE
 50
0.0
  9
$ANGDIR
 70
     0
  9
$PDMODE
 70
     3
  9
$PDSIZE
 40
0.3125
  9
$PLINEWID
 40
0.0
  9
$COORDS
 70
     1
  9
$SPLFRAME
 70
     0
  9
$SPLINETYPE
 70
     6
  9
$SPLINESEGS
 70
     8
  9
$ATTDIA
 70
     0
  9
$ATTREQ
 70
     1
  9
$HANDLING
 70
     1
  9
$HANDSEED
  5
A0BB
  9
$SURFTAB1
 70
     6
  9
$SURFTAB2
 70
     6
  9
$SURFTYPE
 70
     6
  9
$SURFU
 70
     6
  9
$SURFV
 70
     6
  9
$UCSNAME
  2

  9
$UCSORG
 10
0.0
 20
0.0
 30
0.0
  9
$UCSXDIR
 10
1.0
 20
0.0
 30
0.0
  9
$UCSYDIR
 10
0.0
 20
1.0
 30
0.0
  9
$PUCSNAME
  2

  9
$PUCSORG
 10
0.0
 20
0.0
 30
0.0
  9
$PUCSXDIR
 10
1.0
 20
0.0
 30
0.0
  9
$PUCSYDIR
 10
0.0
 20
1.0
 30
0.0
  9
$USERI1
 70
     0
  9
$USERI2
 70
     0
  9
$USERI3
 70
     0
  9
$USERI4
 70
     0
  9
$USERI5
 70
     0
  9
$USERR1
 40
0.0
  9
$USERR2
 40
0.0
  9
$USERR3
 40
0.0
  9
$USERR4
 40
0.0
  9
$USERR5
 40
0.0
  9
$WORLDVIEW
 70
     1
  9
$SHADEDGE
 70
     3
  9
$SHADEDIF
 70
    70
  9
$TILEMODE
 70
     1
  9
$MAXACTVP
 70
    64
  9
$PLIMCHECK
 70
     0
  9
$PEXTMIN
 10
1.0000000000000000E+020
 20
1.0000000000000000E+020
 30
1.0000000000000000E+020
  9
$PEXTMAX
 10
-1.0000000000000000E+020
 20
-1.0000000000000000E+020
 30
-1.0000000000000000E+020
  9
$PLIMMIN
 10
0.0
 20
0.0
  9
$PLIMMAX
 10
12.0
 20
9.0
  9
$UNITMODE
 70
     0
  9
$VISRETAIN
 70
     1
  9
$PLINEGEN
 70
     0
  9
$PSLTSCALE
 70
     1
  0
ENDSEC
  0
SECTION
  2
TABLES
  0
TABLE
  2
VPORT
 70
     1
  0
VPORT
  2
*ACTIVE
 70
     0
 10
0.0
 20
0.0
 11
1.0
 21
1.0
 12
0.0468552207350541
 22
-3.749137021793131
 13
0.0
 23
0.0
 14
1.0
 24
1.0
 15
0.0
 25
0.0
 16
0.0
 26
0.0
 36
1.0
 17
0.0
 27
0.0
 37
0.0
 40
11.8235552618188
 41
1.6666666666666661
 42
50.0
 43
0.0
 44
0.0
 50
0.0
 51
0.0
 71
     0
 72
   100
 73
     1
 74
     1
 75
     0
 76
     0
 77
     0
 78
     0
  0
ENDTAB
  0
TABLE
  2
LTYPE
 70
     2
  0
LTYPE
  2
CONTINUOUS
 70
     0
  3
Solid line
 72
    65
 73
     0
 40
0.0
  0
LTYPE
  2
HIDDEN
 70
     0
  3
Hidden __ __ __ __ __ __ __ __ __ __ __ __ __ __
 72
    65
 73
     2
 40
0.375
 49
0.25
 49
-0.125
  0
ENDTAB
  0
TABLE
  2
LAYER
 70
     2
  0
LAYER
  2
0
 70
     0
 62
     7
  6
CONTINUOUS
  0
LAYER
  2
HIDDEN
 70
     0
 62
     7
  6
HIDDEN
  0
ENDTAB
  0
TABLE
  2
STYLE
 70
     2
  0
STYLE
  2
STANDARD
 70
     0
 40
0.0
 41
0.8
 50
0.0
 71
     0
 42
0.2
  3
txt
  4

  0
ENDTAB
  0
TABLE
  2
VIEW
 70
     0
  0
ENDTAB
  0
TABLE
  2
UCS
 70
     0
  0
ENDTAB
  0
TABLE
  2
APPID
 70
     2
  0
APPID
  2
ACAD
 70
     0
  0
APPID
  2
ACAECLAYERSTANDARD
 70
     0
  0
ENDTAB
  0
TABLE
  2
DIMSTYLE
 70
     1
  0
DIMSTYLE
  2
STANDARD
 70
     0
  3

  4

  5

  6

  7

 40
1.0
 41
0.1875
 42
0.0625
 43
0.38
 44
0.18
 45
0.0
 46
0.0
 47
0.01
 48
0.01
140
0.15625
141
0.09
142
0.0
143
25.399999999999999
144
1.0
145
0.0
146
1.0
147
0.09
 71
     1
 72
     0
 73
     1
 74
     1
 75
     0
 76
     0
 77
     0
 78
     4
170
     0
171
     2
172
     0
173
     0
174
     0
175
     0
176
     0
177
     0
178
     0
  0
ENDTAB
  0
ENDSEC
  0
SECTION
  2
BLOCKS
  0
BLOCK
  8
0
  2
$MODEL_SPACE
 70
     0
 10
0.0
 20
0.0
 30
0.0
  3
$MODEL_SPACE
  1

  0
ENDBLK
  5
9D7B
  8
0
  0
BLOCK
 67
     1
  8
0
  2
$PAPER_SPACE
 70
     0
 10
0.0
 20
0.0
 30
0.0
  3
$PAPER_SPACE
  1

  0
ENDBLK
  5
9D77
 67
     1
  8
0
  0
BLOCK
  8
0
  2
_ARROW_FILLED
 70
     0
 10
0.0
 20
0.0
 30
0.0
  3
_ARROW_FILLED
  1

  0
SOLID
  5
390
  8
0
  6
BYBLOCK
 62
     0
 10
0.0
 20
0.0
 30
0.0
 11
-1.0
 21
0.1666666667
 31
0.0
 12
-1.0
 22
-0.1666666667
 32
0.0
 13
-1.0
 23
-0.1666666667
 33
0.0
  0
ENDBLK
  5
391
  8
0
  6
BYBLOCK
 62
     0
  0
ENDSEC
  0
SECTION
  2
ENTITIES
  0
LINE
  5
8DE
  8
HIDDEN
 10
-9.7579980617033364
 20
-0.1241879395999987
 30
0.0
 11
-9.7489917846033372
 21
-0.3820939697999961
 31
0.0
  0
POLYLINE
  5
8E5
  8
HIDDEN
 66
     1
 10
0.0
 20
0.0
 30
0.0
  0
VERTEX
  5
9DAC
  8
HIDDEN
 10
-7.6496560131033373
 20
-3.9974488520999989
 30
0.0
  0
VERTEX
  5
9DAD
  8
HIDDEN
 10
-7.6444695861033374
 20
-4.0143137097000006
 30
0.0
  0
VERTEX
  5
9DAE
  8
HIDDEN
 10
-7.6374219871033366
 20
-4.035372319999996
 30
0.0
  0
VERTEX
  5
9DAF
  8
HIDDEN
 10
-7.6298012002033371
 20
-4.056226034899999
 30
0.0
  0
VERTEX
  5
9DB0
  8
HIDDEN
 10
-7.6216135138033367
 20
-4.0768586955000004
 30
0.0
  0
VERTEX
  5
9DB1
  8
HIDDEN
 10
-7.6128651703033361
 20
-4.097255547099997
 30
0.0
  0
VERTEX
  5
9DB2
  8
HIDDEN
 10
-7.6035621963033382
 20
-4.1174031786999983
 30
0.0
  0
VERTEX
  5
9DB3
  8
HIDDEN
 10
-7.5937117299033376
 20
-4.1372865403999981
 30
0.0
  0
VERTEX
  5
9DB4
  8
HIDDEN
 10
-7.5833213176033381
 20
-4.156890785699999
 30
0.0
  0
VERTEX
  5
9DB5
  8
HIDDEN
 10
-7.572397918803337
 20
-4.1762029787999992
 30
0.0
  0
VERTEX
  5
9DB6
  8
HIDDEN
 10
-7.5609497361033373
 20
-4.1952086384999978
 30
0.0
  0
VERTEX
  5
9DB7
  8
HIDDEN
 10
-7.5489853702033383
 20
-4.2138935062999989
 30
0.0
  0
VERTEX
  5
9DB8
  8
HIDDEN
 10
-7.5365126903033373
 20
-4.2322451642999956
 30
0.0
  0
VERTEX
  5
9DB9
  8
HIDDEN
 10
-7.523540930203338
 20
-4.2502497597
 30
0.0
  0
VERTEX
  5
9DBA
  8
HIDDEN
 10
-7.5100797064033369
 20
-4.267893689200001
 30
0.0
  0
VERTEX
  5
9DBB
  8
HIDDEN
 10
-7.4961377677033356
 20
-4.2851651080000011
 30
0.0
  0
VERTEX
  5
9DBC
  8
HIDDEN
 10
-7.4817247933033366
 20
-4.3020514790999966
 30
0.0
  0
VERTEX
  5
9DBD
  8
HIDDEN
 10
-7.4668518901033369
 20
-4.3185392611999971
 30
0.0
  0
VERTEX
  5
9DBE
  8
HIDDEN
 10
-7.4515303995033371
 20
-4.334615454999998
 30
0.0
  0
VERTEX
  5
9DBF
  8
HIDDEN
 10
-7.4357693866033383
 20
-4.3502699806999976
 30
0.0
  0
VERTEX
  5
9DC0
  8
HIDDEN
 10
-7.4195826589033373
 20
-4.3654885714999976
 30
0.0
  0
VERTEX
  5
9DC1
  8
HIDDEN
 10
-7.402989774803336
 20
-4.380253042699997
 30
0.0
  0
VERTEX
  5
9DC2
  8
HIDDEN
 10
-7.3860029998033356
 20
-4.3945531880999971
 30
0.0
  0
VERTEX
  5
9DC3
  8
HIDDEN
 10
-7.3686360143033367
 20
-4.4083781819999963
 30
0.0
  0
VERTEX
  5
9DC4
  8
HIDDEN
 10
-7.3509121035033376
 20
-4.4217108466999981
 30
0.0
  0
VERTEX
  5
9DC5
  8
HIDDEN
 10
-7.3328455195033371
 20
-4.4345424213999962
 30
0.0
  0
VERTEX
  5
9DC6
  8
HIDDEN
 10
-7.314450666403336
 20
-4.4468645954999992
 30
0.0
  0
VERTEX
  5
9DC7
  8
HIDDEN
 10
-7.2957525364033371
 20
-4.458663108299997
 30
0.0
  0
VERTEX
  5
9DC8
  8
HIDDEN
 10
-7.2767659814033356
 20
-4.4699315867999969
 30
0.0
  0
VERTEX
  5
9DC9
  8
HIDDEN
 10
-7.257506837603338
 20
-4.4806635766999987
 30
0.0
  0
VERTEX
  5
9DCA
  8
HIDDEN
 10
-7.238002842303338
 20
-4.4908471797000011
 30
0.0
  0
VERTEX
  5
9DCB
  8
HIDDEN
 10
-7.2182697811033361
 20
-4.5004782678999957
 30
0.0
  0
VERTEX
  5
9DCC
  8
HIDDEN
 10
-7.1983240440033374
 20
-4.5095528915999976
 30
0.0
  0
VERTEX
  5
9DCD
  8
HIDDEN
 10
-7.1781953360033359
 20
-4.518062194499997
 30
0.0
  0
VERTEX
  5
9DCE
  8
HIDDEN
 10
-7.157904762003338
 20
-4.5260027057999963
 30
0.0
  0
VERTEX
  5
9DCF
  8
HIDDEN
 10
-7.1374642672033382
 20
-4.5333751274999967
 30
0.0
  0
VERTEX
  5
9DD0
  8
HIDDEN
 10
-7.121496811503337
 20
-4.5387082499999991
 30
0.0
  0
SEQEND
  5
9DD1
  8
HIDDEN
  0
LINE
  5
8E6
  8
HIDDEN
 10
-8.591463881103337
 20
-0.8118801017999999
 30
0.0
 11
-7.6496546681033371
 21
-3.9974483263999971
 31
0.0
  0
POLYLINE
  5
8F2
  8
HIDDEN
 66
     1
 10
0.0
 20
0.0
 30
0.0
  0
VERTEX
  5
9DD2
  8
HIDDEN
 10
-8.6439981088033377
 20
-0.7161105716999998
 30
0.0
  0
VERTEX
  5
9DD3
  8
HIDDEN
 10
-8.6388013233033352
 20
-0.7243831522999998
 30
0.0
  0
VERTEX
  5
9DD4
  8
HIDDEN
 10
-8.6352256877033362
 20
-0.7287606347000022
 30
0.0
  0
VERTEX
  5
9DD5
  8
HIDDEN
 10
-8.6316862390033364
 20
-0.7333014773999979
 30
0.0
  0
VERTEX
  5
9DD6
  8
HIDDEN
 10
-8.6282196875033375
 20
-0.7379675847000016
 30
0.0
  0
VERTEX
  5
9DD7
  8
HIDDEN
 10
-8.6248028630033371
 20
-0.7427995663999952
 30
0.0
  0
VERTEX
  5
9DD8
  8
HIDDEN
 10
-8.6214544620033369
 20
-0.7477826984000018
 30
0.0
  0
VERTEX
  5
9DD9
  8
HIDDEN
 10
-8.6181825654033375
 20
-0.7529158850000002
 30
0.0
  0
VERTEX
  5
9DDA
  8
HIDDEN
 10
-8.6149932771033377
 20
-0.7582010519000022
 30
0.0
  0
VERTEX
  5
9DDB
  8
HIDDEN
 10
-8.6119005815033365
 20
-0.763626311399996
 30
0.0
  0
VERTEX
  5
9DDC
  8
HIDDEN
 10
-8.6089130900033375
 20
-0.7691871159999977
 30
0.0
  0
VERTEX
  5
9DDD
  8
HIDDEN
 10
-8.6060353227033364
 20
-0.7748862262999979
 30
0.0
  0
VERTEX
  5
9DDE
  8
HIDDEN
 10
-8.6032743627033366
 20
-0.7807217866999993
 30
0.0
  0
VERTEX
  5
9DDF
  8
HIDDEN
 10
-8.6006370927033373
 20
-0.7866921481999825
 30
0.0
  0
VERTEX
  5
9DE0
  8
HIDDEN
 10
-8.5981303603033368
 20
-0.7927956117999955
 30
0.0
  0
VERTEX
  5
9DE1
  8
HIDDEN
 10
-8.5957612341033371
 20
-0.7990297886000022
 30
0.0
  0
VERTEX
  5
9DE2
  8
HIDDEN
 10
-8.5935367413033372
 20
-0.8053921646999953
 30
0.0
  0
VERTEX
  5
9DE3
  8
HIDDEN
 10
-8.591463881103337
 20
-0.8118801017999999
 30
0.0
  0
SEQEND
  5
9DE4
  8
HIDDEN
  0
LINE
  5
8F8
  8
HIDDEN
 10
-1.0624712080033381
 20
-7.5
 30
0.0
 11
1.1578016077966611
 21
-7.5
 31
0.0
  0
LINE
  5
903
  8
HIDDEN
 10
-8.8921063083033367
 20
-0.495569949900002
 30
0.0
 11
-8.6439981088033377
 21
-0.7161105716999998
 31
0.0
  0
LINE
  5
917
  8
HIDDEN
 10
-0.6461191671033381
 20
-6.6215463707999973
 30
0.0
 11
0.7414495669966624
 21
-6.6215463707999973
 31
0.0
  0
POLYLINE
  5
91E
  8
HIDDEN
 66
     1
 10
0.0
 20
0.0
 30
0.0
  0
VERTEX
  5
9DE5
  8
HIDDEN
 10
-3.6431852145033359
 20
-5.6604222576999979
 30
0.0
  0
VERTEX
  5
9DE6
  8
HIDDEN
 10
-3.6237777804033371
 20
-5.6662685109000002
 30
0.0
  0
VERTEX
  5
9DE7
  8
HIDDEN
 10
-3.604551870903336
 20
-5.6715024993999981
 30
0.0
  0
VERTEX
  5
9DE8
  8
HIDDEN
 10
-3.5855272087033381
 20
-5.6761471603999993
 30
0.0
  0
VERTEX
  5
9DE9
  8
HIDDEN
 10
-3.566724170903337
 20
-5.6802251497
 30
0.0
  0
VERTEX
  5
9DEA
  8
HIDDEN
 10
-3.5481638820033359
 20
-5.6837590380000007
 30
0.0
  0
VERTEX
  5
9DEB
  8
HIDDEN
 10
-3.529864072803337
 20
-5.6867721397999977
 30
0.0
  0
VERTEX
  5
9DEC
  8
HIDDEN
 10
-3.511839065703338
 20
-5.6892881815000003
 30
0.0
  0
VERTEX
  5
9DED
  8
HIDDEN
 10
-3.4989130994033371
 20
-5.6908189784999967
 30
0.0
  0
SEQEND
  5
9DEE
  8
HIDDEN
  0
LINE
  5
921
  8
HIDDEN
 10
-7.1214969217033381
 20
-4.5387084865999974
 30
0.0
 11
-3.6431852145033359
 21
-5.6604222576999979
 31
0.0
  0
POLYLINE
  5
92D
  8
HIDDEN
 66
     1
 10
0.0
 20
0.0
 30
0.0
  0
VERTEX
  5
9DEF
  8
HIDDEN
 10
1.7946022808966631
 20
-0.4399999999999978
 30
0.0
  0
VERTEX
  5
9DF0
  8
HIDDEN
 10
1.7942545345966641
 20
-0.440179225999998
 30
0.0
  0
VERTEX
  5
9DF1
  8
HIDDEN
 10
1.793906854096663
 20
-0.4407166120999975
 30
0.0
  0
VERTEX
  5
9DF2
  8
HIDDEN
 10
1.7935598033966631
 20
-0.4416112832999986
 30
0.0
  0
VERTEX
  5
9DF3
  8
HIDDEN
 10
1.7932139423966631
 20
-0.4428617824000014
 30
0.0
  0
VERTEX
  5
9DF4
  8
HIDDEN
 10
1.7928698337966631
 20
-0.4444660724999992
 30
0.0
  0
VERTEX
  5
9DF5
  8
HIDDEN
 10
1.792528045896663
 20
-0.4464215391999958
 30
0.0
  0
VERTEX
  5
9DF6
  8
HIDDEN
 10
1.792189140496661
 20
-0.4487249960999975
 30
0.0
  0
VERTEX
  5
9DF7
  8
HIDDEN
 10
1.791853667496663
 20
-0.4513726903999995
 30
0.0
  0
VERTEX
  5
9DF8
  8
HIDDEN
 10
1.791522173796662
 20
-0.4543603065999875
 30
0.0
  0
VERTEX
  5
9DF9
  8
HIDDEN
 10
1.7911952009966621
 20
-0.4576829764999957
 30
0.0
  0
VERTEX
  5
9DFA
  8
HIDDEN
 10
1.7908732817966611
 20
-0.4613352857999971
 30
0.0
  0
VERTEX
  5
9DFB
  8
HIDDEN
 10
1.7905569379966619
 20
-0.4653112815999947
 30
0.0
  0
VERTEX
  5
9DFC
  8
HIDDEN
 10
1.790246685196663
 20
-0.4696044794999992
 30
0.0
  0
VERTEX
  5
9DFD
  8
HIDDEN
 10
1.7899430286966631
 20
-0.4742078883000005
 30
0.0
  0
VERTEX
  5
9DFE
  8
HIDDEN
 10
1.789646458396664
 20
-0.4791140220999992
 30
0.0
  0
VERTEX
  5
9DFF
  8
HIDDEN
 10
1.7893574557966609
 20
-0.4843148946999989
 30
0.0
  0
VERTEX
  5
9E00
  8
HIDDEN
 10
1.7888040262966629
 20
-0.4955664866999996
 30
0.0
  0
SEQEND
  5
9E01
  8
HIDDEN
  0
POLYLINE
  5
933
  8
HIDDEN
 66
     1
 10
0.0
 20
0.0
 30
0.0
  0
VERTEX
  5
9E02
  8
HIDDEN
 10
3.5942434985966609
 20
-5.6908189785999994
 30
0.0
  0
VERTEX
  5
9E03
  8
HIDDEN
 10
3.607596082896662
 20
-5.6892337757999982
 30
0.0
  0
VERTEX
  5
9E04
  8
HIDDEN
 10
3.6256419579966628
 20
-5.6867039938999957
 30
0.0
  0
VERTEX
  5
9E05
  8
HIDDEN
 10
3.6439547404966621
 20
-5.6836772145999994
 30
0.0
  0
VERTEX
  5
9E06
  8
HIDDEN
 10
3.6625201340966629
 20
-5.6801302607999977
 30
0.0
  0
VERTEX
  5
9E07
  8
HIDDEN
 10
3.6813205050966622
 20
-5.676040378699998
 30
0.0
  0
VERTEX
  5
9E08
  8
HIDDEN
 10
3.7003348980966608
 20
-5.6713855628999994
 30
0.0
  0
VERTEX
  5
9E09
  8
HIDDEN
 10
3.7195430984966609
 20
-5.6661437398999999
 30
0.0
  0
VERTEX
  5
9E0A
  8
HIDDEN
 10
3.7389255426966619
 20
-5.6602925755000006
 30
0.0
  0
VERTEX
  5
9E0B
  8
HIDDEN
 10
7.2168273214966616
 20
-4.5387084865999974
 30
0.0
  0
SEQEND
  5
9E0C
  8
HIDDEN
  0
LINE
  5
939
  8
HIDDEN
 10
1.6985919131966609
 20
-5.8986818827
 30
0.0
 11
1.7004656209966631
 21
-5.8984692707999962
 31
0.0
  0
LINE
  5
93A
  8
HIDDEN
 10
1.700465662496663
 20
-5.8984692647000001
 30
0.0
 11
3.5942434768966631
 21
-5.6908189653000001
 31
0.0
  0
LINE
  5
944
  8
HIDDEN
 10
1.478203638996662
 20
-6.1313849740999968
 30
0.0
 11
1.478139253696662
 21
-6.1313890839999976
 31
0.0
  0
LINE
  5
945
  8
HIDDEN
 10
1.700465395996664
 20
-5.8984692938999963
 30
0.0
 11
1.700394277796663
 21
-5.898472916999995
 31
0.0
  0
LINE
  5
949
  8
HIDDEN
 10
1.700394277796663
 20
-5.898472916999995
 30
0.0
 11
1.686639496896662
 21
-5.8989473212999988
 31
0.0
  0
LINE
  5
94A
  8
HIDDEN
 10
1.686639496896662
 20
-5.8989473212999988
 30
0.0
 11
1.6278586871966629
 21
-5.900813970799998
 31
0.0
  0
LINE
  5
94B
  8
HIDDEN
 10
3.5941847026966629
 20
-5.6908205561999976
 30
0.0
 11
3.5942430373966641
 21
-5.6908190134999961
 31
0.0
  0
POLYLINE
  5
94D
  8
HIDDEN
 66
     1
 10
0.0
 20
0.0
 30
0.0
  0
VERTEX
  5
9E0D
  8
HIDDEN
 10
1.6278586871966629
 20
-5.900813970799998
 30
0.0
  0
VERTEX
  5
9E0E
  8
HIDDEN
 10
1.580216022996662
 20
-5.9021760949999971
 30
0.0
  0
VERTEX
  5
9E0F
  8
HIDDEN
 10
1.5718363366966619
 20
-5.9023296720999978
 30
0.0
  0
VERTEX
  5
9E10
  8
HIDDEN
 10
1.563681590996663
 20
-5.9024172206999976
 30
0.0
  0
VERTEX
  5
9E11
  8
HIDDEN
 10
1.555722561896661
 20
-5.9024408644999973
 30
0.0
  0
VERTEX
  5
9E12
  8
HIDDEN
 10
1.547973922696662
 20
-5.9023983741999997
 30
0.0
  0
VERTEX
  5
9E13
  8
HIDDEN
 10
1.540495294996663
 20
-5.9022831659999957
 30
0.0
  0
VERTEX
  5
9E14
  8
HIDDEN
 10
1.5332786498966631
 20
-5.902095167999998
 30
0.0
  0
VERTEX
  5
9E15
  8
HIDDEN
 10
1.5263230088966619
 20
-5.9018343038999879
 30
0.0
  0
VERTEX
  5
9E16
  8
HIDDEN
 10
1.5197024542966631
 20
-5.9014939695999997
 30
0.0
  0
VERTEX
  5
9E17
  8
HIDDEN
 10
1.513442404396663
 20
-5.901071899599998
 30
0.0
  0
VERTEX
  5
9E18
  8
HIDDEN
 10
1.507517501796662
 20
-5.9005701685999981
 30
0.0
  0
VERTEX
  5
9E19
  8
HIDDEN
 10
1.501928821596662
 20
-5.8999886720999966
 30
0.0
  0
SEQEND
  5
9E1A
  8
HIDDEN
  0
POLYLINE
  5
94E
  8
HIDDEN
 66
     1
 10
0.0
 20
0.0
 30
0.0
  0
VERTEX
  5
9E1B
  8
HIDDEN
 10
-1.4848856231033369
 20
-5.9021760949999971
 30
0.0
  0
VERTEX
  5
9E1C
  8
HIDDEN
 10
-1.476505936903338
 20
-5.9023296720999978
 30
0.0
  0
VERTEX
  5
9E1D
  8
HIDDEN
 10
-1.468351191103336
 20
-5.9024172206999976
 30
0.0
  0
VERTEX
  5
9E1E
  8
HIDDEN
 10
-1.460392162003338
 20
-5.9024408644999973
 30
0.0
  0
VERTEX
  5
9E1F
  8
HIDDEN
 10
-1.4526435228033361
 20
-5.9023983741999997
 30
0.0
  0
VERTEX
  5
9E20
  8
HIDDEN
 10
-1.445164895203338
 20
-5.9022831659999957
 30
0.0
  0
VERTEX
  5
9E21
  8
HIDDEN
 10
-1.437948250103336
 20
-5.902095167999998
 30
0.0
  0
VERTEX
  5
9E22
  8
HIDDEN
 10
-1.430992609103338
 20
-5.9018343038999879
 30
0.0
  0
VERTEX
  5
9E23
  8
HIDDEN
 10
-1.424372054403338
 20
-5.9014939695999997
 30
0.0
  0
VERTEX
  5
9E24
  8
HIDDEN
 10
-1.418112004503338
 20
-5.901071899599998
 30
0.0
  0
VERTEX
  5
9E25
  8
HIDDEN
 10
-1.4121871019033381
 20
-5.9005701685999981
 30
0.0
  0
VERTEX
  5
9E26
  8
HIDDEN
 10
-1.406598421703338
 20
-5.8999886720999966
 30
0.0
  0
SEQEND
  5
9E27
  8
HIDDEN
  0
LINE
  5
950
  8
HIDDEN
 10
-1.5325282873033359
 20
-5.900813970799998
 30
0.0
 11
-1.4848856231033369
 21
-5.9021760949999971
 31
0.0
  0
LINE
  5
951
  8
HIDDEN
 10
-1.602410283303338
 20
-5.8985691206999986
 30
0.0
 11
-1.5325282873033359
 21
-5.900813970799998
 31
0.0
  0
POLYLINE
  5
953
  8
HIDDEN
 66
     1
 10
0.0
 20
0.0
 30
0.0
  0
VERTEX
  5
9E28
  8
HIDDEN
 10
-1.6051349996033379
 20
-5.8984692934999963
 30
0.0
  0
VERTEX
  5
9E29
  8
HIDDEN
 10
-1.6050638779033359
 20
-5.898472916999995
 30
0.0
  0
VERTEX
  5
9E2A
  8
HIDDEN
 10
-1.602410283303338
 20
-5.8985691206999986
 30
0.0
  0
SEQEND
  5
9E2B
  8
HIDDEN
  0
POLYLINE
  5
95F
  8
HIDDEN
 66
     1
 10
0.0
 20
0.0
 30
0.0
  0
VERTEX
  5
9E2C
  8
HIDDEN
 10
-3.4989130771033361
 20
-5.6908189653000001
 30
0.0
  0
VERTEX
  5
9E2D
  8
HIDDEN
 10
-1.603469791103338
 20
-5.8986575416999996
 30
0.0
  0
VERTEX
  5
9E2E
  8
HIDDEN
 10
-1.601878704303338
 20
-5.898847983699997
 30
0.0
  0
VERTEX
  5
9E2F
  8
HIDDEN
 10
-1.600270460903336
 20
-5.8990510051000022
 30
0.0
  0
VERTEX
  5
9E30
  8
HIDDEN
 10
-1.5986403874033379
 20
-5.899267607699997
 30
0.0
  0
VERTEX
  5
9E31
  8
HIDDEN
 10
-1.5969877853033381
 20
-5.899498358199998
 30
0.0
  0
VERTEX
  5
9E32
  8
HIDDEN
 10
-1.5953120712033371
 20
-5.899743835399998
 30
0.0
  0
VERTEX
  5
9E33
  8
HIDDEN
 10
-1.593614122803336
 20
-5.9000044156999989
 30
0.0
  0
VERTEX
  5
9E34
  8
HIDDEN
 10
-1.5918954403033361
 20
-5.9002803597000009
 30
0.0
  0
VERTEX
  5
9E35
  8
HIDDEN
 10
-1.590156189003336
 20
-5.9005721247000009
 30
0.0
  0
VERTEX
  5
9E36
  8
HIDDEN
 10
-1.5883965311033359
 20
-5.9008801738999948
 30
0.0
  0
VERTEX
  5
9E37
  8
HIDDEN
 10
-1.586617963903338
 20
-5.9012047279999988
 30
0.0
  0
VERTEX
  5
9E38
  8
HIDDEN
 10
-1.584820942203337
 20
-5.9015461753999956
 30
0.0
  0
VERTEX
  5
9E39
  8
HIDDEN
 10
-1.583005372603336
 20
-5.9019050114999976
 30
0.0
  0
VERTEX
  5
9E3A
  8
HIDDEN
 10
-1.5811719337033381
 20
-5.902281583499998
 30
0.0
  0
VERTEX
  5
9E3B
  8
HIDDEN
 10
-1.579320882603338
 20
-5.9026763198999994
 30
0.0
  0
VERTEX
  5
9E3C
  8
HIDDEN
 10
-1.5774523661033379
 20
-5.9030896767999961
 30
0.0
  0
VERTEX
  5
9E3D
  8
HIDDEN
 10
-1.5755669052033381
 20
-5.9035220296999986
 30
0.0
  0
VERTEX
  5
9E3E
  8
HIDDEN
 10
-1.573664721503337
 20
-5.9039738206999992
 30
0.0
  0
VERTEX
  5
9E3F
  8
HIDDEN
 10
-1.571746042503336
 20
-5.9044454950999992
 30
0.0
  0
VERTEX
  5
9E40
  8
HIDDEN
 10
-1.5698114073033369
 20
-5.9049374219999962
 30
0.0
  0
VERTEX
  5
9E41
  8
HIDDEN
 10
-1.567861058503337
 20
-5.9054500436999957
 30
0.0
  0
VERTEX
  5
9E42
  8
HIDDEN
 10
-1.5658952496033369
 20
-5.9059838038999963
 30
0.0
  0
VERTEX
  5
9E43
  8
HIDDEN
 10
-1.563914544703338
 20
-5.9065390618999984
 30
0.0
  0
VERTEX
  5
9E44
  8
HIDDEN
 10
-1.5619192262033379
 20
-5.9071162530000008
 30
0.0
  0
VERTEX
  5
9E45
  8
HIDDEN
 10
-1.5599095564033361
 20
-5.9077158220999983
 30
0.0
  0
VERTEX
  5
9E46
  8
HIDDEN
 10
-1.557886078703338
 20
-5.9083381307999971
 30
0.0
  0
VERTEX
  5
9E47
  8
HIDDEN
 10
-1.555849230803338
 20
-5.9089835688999983
 30
0.0
  0
VERTEX
  5
9E48
  8
HIDDEN
 10
-1.5537991695033371
 20
-5.9096526174000017
 30
0.0
  0
VERTEX
  5
9E49
  8
HIDDEN
 10
-1.5517360311033359
 20
-5.9103457735999987
 30
0.0
  0
VERTEX
  5
9E4A
  8
HIDDEN
 10
-1.549660215303337
 20
-5.9110634528999979
 30
0.0
  0
VERTEX
  5
9E4B
  8
HIDDEN
 10
-1.5475719769033369
 20
-5.9118061235999981
 30
0.0
  0
VERTEX
  5
9E4C
  8
HIDDEN
 10
-1.5454712555033381
 20
-5.9125743776000022
 30
0.0
  0
VERTEX
  5
9E4D
  8
HIDDEN
 10
-1.5433584081033369
 20
-5.9133686680999977
 30
0.0
  0
VERTEX
  5
9E4E
  8
HIDDEN
 10
-1.541233801003338
 20
-5.914189448200001
 30
0.0
  0
VERTEX
  5
9E4F
  8
HIDDEN
 10
-1.539097410603337
 20
-5.915037331899998
 30
0.0
  0
VERTEX
  5
9E50
  8
HIDDEN
 10
-1.5369496297033369
 20
-5.9159127820999968
 30
0.0
  0
VERTEX
  5
9E51
  8
HIDDEN
 10
-1.5347908624033371
 20
-5.9168162608999992
 30
0.0
  0
VERTEX
  5
9E52
  8
HIDDEN
 10
-1.5326211275033379
 20
-5.9177484019999973
 30
0.0
  0
VERTEX
  5
9E53
  8
HIDDEN
 10
-1.530440877203338
 20
-5.9187096672000008
 30
0.0
  0
VERTEX
  5
9E54
  8
HIDDEN
 10
-1.5282505345033379
 20
-5.919700534799996
 30
0.0
  0
VERTEX
  5
9E55
  8
HIDDEN
 10
-1.526050102603338
 20
-5.9207216855000011
 30
0.0
  0
VERTEX
  5
9E56
  8
HIDDEN
 10
-1.5238401056033379
 20
-5.9217735741999986
 30
0.0
  0
VERTEX
  5
9E57
  8
HIDDEN
 10
-1.521620980003336
 20
-5.9228567009999971
 30
0.0
  0
VERTEX
  5
9E58
  8
HIDDEN
 10
-1.519392632303336
 20
-5.9239718408999984
 30
0.0
  0
VERTEX
  5
9E59
  8
HIDDEN
 10
-1.5171555916033359
 20
-5.9251194797000011
 30
0.0
  0
VERTEX
  5
9E5A
  8
HIDDEN
 10
-1.5149103861033371
 20
-5.9263001075999986
 30
0.0
  0
VERTEX
  5
9E5B
  8
HIDDEN
 10
-1.5126569593033381
 20
-5.9275145384999979
 30
0.0
  0
VERTEX
  5
9E5C
  8
HIDDEN
 10
-1.5103958846033381
 20
-5.9287632707999967
 30
0.0
  0
VERTEX
  5
9E5D
  8
HIDDEN
 10
-1.5081277504033359
 20
-5.9300467990999968
 30
0.0
  0
VERTEX
  5
9E5E
  8
HIDDEN
 10
-1.5058525644033369
 20
-5.9313659628999993
 30
0.0
  0
VERTEX
  5
9E5F
  8
HIDDEN
 10
-1.5035709556033381
 20
-5.932721266999998
 30
0.0
  0
VERTEX
  5
9E60
  8
HIDDEN
 10
-1.5012835689033359
 20
-5.9341132109999961
 30
0.0
  0
VERTEX
  5
9E61
  8
HIDDEN
 10
-1.4989904810033361
 20
-5.9355426575999992
 30
0.0
  0
VERTEX
  5
9E62
  8
HIDDEN
 10
-1.4966923767033371
 20
-5.9370101171999989
 30
0.0
  0
VERTEX
  5
9E63
  8
HIDDEN
 10
-1.4943899651033361
 20
-5.9385160888000001
 30
0.0
  0
VERTEX
  5
9E64
  8
HIDDEN
 10
-1.492083408803337
 20
-5.9400614468999988
 30
0.0
  0
VERTEX
  5
9E65
  8
HIDDEN
 10
-1.489773292103338
 20
-5.9416468147999977
 30
0.0
  0
VERTEX
  5
9E66
  8
HIDDEN
 10
-1.487460554503337
 20
-5.9432725790999958
 30
0.0
  0
VERTEX
  5
9E67
  8
HIDDEN
 10
-1.485145931703338
 20
-5.9449392688999971
 30
0.0
  0
VERTEX
  5
9E68
  8
HIDDEN
 10
-1.4828300072033369
 20
-5.9466475355000021
 30
0.0
  0
VERTEX
  5
9E69
  8
HIDDEN
 10
-1.480513832603336
 20
-5.9483976930999978
 30
0.0
  0
VERTEX
  5
9E6A
  8
HIDDEN
 10
-1.4781988582033381
 20
-5.9501897319000001
 30
0.0
  0
VERTEX
  5
9E6B
  8
HIDDEN
 10
-1.4758859125033359
 20
-5.9520240988999973
 30
0.0
  0
VERTEX
  5
9E6C
  8
HIDDEN
 10
-1.4735758731033379
 20
-5.9539012057999967
 30
0.0
  0
VERTEX
  5
9E6D
  8
HIDDEN
 10
-1.471270255203337
 20
-5.9558209293999971
 30
0.0
  0
VERTEX
  5
9E6E
  8
HIDDEN
 10
-1.4689699357033379
 20
-5.9577836476999968
 30
0.0
  0
VERTEX
  5
9E6F
  8
HIDDEN
 10
-1.466675808403338
 20
-5.959789726599996
 30
0.0
  0
VERTEX
  5
9E70
  8
HIDDEN
 10
-1.4643893999033359
 20
-5.961838960199997
 30
0.0
  0
VERTEX
  5
9E71
  8
HIDDEN
 10
-1.462111617703336
 20
-5.9639316644000004
 30
0.0
  0
VERTEX
  5
9E72
  8
HIDDEN
 10
-1.4598433823033361
 20
-5.9660681440000012
 30
0.0
  0
VERTEX
  5
9E73
  8
HIDDEN
 10
-1.457586221803338
 20
-5.9682481108999994
 30
0.0
  0
VERTEX
  5
9E74
  8
HIDDEN
 10
-1.455341139903336
 20
-5.9704717445999966
 30
0.0
  0
VERTEX
  5
9E75
  8
HIDDEN
 10
-1.453109007903336
 20
-5.9727393536000006
 30
0.0
  0
VERTEX
  5
9E76
  8
HIDDEN
 10
-1.4508911424033359
 20
-5.9750507838999978
 30
0.0
  0
VERTEX
  5
9E77
  8
HIDDEN
 10
-1.448688605903337
 20
-5.9774061162999992
 30
0.0
  0
VERTEX
  5
9E78
  8
HIDDEN
 10
-1.446502266603338
 20
-5.9798056353999982
 30
0.0
  0
VERTEX
  5
9E79
  8
HIDDEN
 10
-1.4443331534033379
 20
-5.9822494524999987
 30
0.0
  0
VERTEX
  5
9E7A
  8
HIDDEN
 10
-1.442182273003338
 20
-5.9847376984
 30
0.0
  0
VERTEX
  5
9E7B
  8
HIDDEN
 10
-1.4400506289033359
 20
-5.987270504199997
 30
0.0
  0
VERTEX
  5
9E7C
  8
HIDDEN
 10
-1.4379392629033381
 20
-5.9898479528999964
 30
0.0
  0
VERTEX
  5
9E7D
  8
HIDDEN
 10
-1.4358492117033379
 20
-5.9924701286999991
 30
0.0
  0
VERTEX
  5
9E7E
  8
HIDDEN
 10
-1.4337815243033369
 20
-5.995137096199997
 30
0.0
  0
VERTEX
  5
9E7F
  8
HIDDEN
 10
-1.431737278203338
 20
-5.9978488787999993
 30
0.0
  0
VERTEX
  5
9E80
  8
HIDDEN
 10
-1.429717545903336
 20
-6.0006055000999998
 30
0.0
  0
VERTEX
  5
9E81
  8
HIDDEN
 10
-1.4277234115033379
 20
-6.0034069629999989
 30
0.0
  0
VERTEX
  5
9E82
  8
HIDDEN
 10
-1.4257559856033371
 20
-6.0062532263000001
 30
0.0
  0
VERTEX
  5
9E83
  8
HIDDEN
 10
-1.4238163740033369
 20
-6.0091442486999957
 30
0.0
  0
VERTEX
  5
9E84
  8
HIDDEN
 10
-1.4219056930033369
 20
-6.0120799661999982
 30
0.0
  0
VERTEX
  5
9E85
  8
HIDDEN
 10
-1.4200250837033379
 20
-6.0150602688999966
 30
0.0
  0
VERTEX
  5
9E86
  8
HIDDEN
 10
-1.418175681803338
 20
-6.0180850455000012
 30
0.0
  0
VERTEX
  5
9E87
  8
HIDDEN
 10
-1.416358633003338
 20
-6.0211541607000001
 30
0.0
  0
VERTEX
  5
9E88
  8
HIDDEN
 10
-1.4145751050033359
 20
-6.0242674309999984
 30
0.0
  0
VERTEX
  5
9E89
  8
HIDDEN
 10
-1.4128262605033379
 20
-6.0274246705999976
 30
0.0
  0
VERTEX
  5
9E8A
  8
HIDDEN
 10
-1.411113270403338
 20
-6.0306256682999972
 30
0.0
  0
VERTEX
  5
9E8B
  8
HIDDEN
 10
-1.4094373257033379
 20
-6.0338701624999969
 30
0.0
  0
VERTEX
  5
9E8C
  8
HIDDEN
 10
-1.407799611603336
 20
-6.0371578884999968
 30
0.0
  0
VERTEX
  5
9E8D
  8
HIDDEN
 10
-1.4062013203033361
 20
-6.0404885541999986
 30
0.0
  0
VERTEX
  5
9E8E
  8
HIDDEN
 10
-1.404643661503336
 20
-6.0438618157000006
 30
0.0
  0
VERTEX
  5
9E8F
  8
HIDDEN
 10
-1.4031278388033379
 20
-6.0472773245999987
 30
0.0
  0
VERTEX
  5
9E90
  8
HIDDEN
 10
-1.4016550609033369
 20
-6.050734703999999
 30
0.0
  0
VERTEX
  5
9E91
  8
HIDDEN
 10
-1.400226551503337
 20
-6.0542335229999997
 30
0.0
  0
VERTEX
  5
9E92
  8
HIDDEN
 10
-1.3988435273033371
 20
-6.0577733454999994
 30
0.0
  0
VERTEX
  5
9E93
  8
HIDDEN
 10
-1.3975072085033371
 20
-6.0613537053999984
 30
0.0
  0
VERTEX
  5
9E94
  8
HIDDEN
 10
-1.396218827303338
 20
-6.0649740806999999
 30
0.0
  0
VERTEX
  5
9E95
  8
HIDDEN
 10
-1.3949796081033381
 20
-6.0686339432999956
 30
0.0
  0
VERTEX
  5
9E96
  8
HIDDEN
 10
-1.3937907771033371
 20
-6.0723327338999971
 30
0.0
  0
VERTEX
  5
9E97
  8
HIDDEN
 10
-1.392653568903337
 20
-6.0760698355000002
 30
0.0
  0
VERTEX
  5
9E98
  8
HIDDEN
 10
-1.3915692096033361
 20
-6.0798446243999988
 30
0.0
  0
VERTEX
  5
9E99
  8
HIDDEN
 10
-1.3905389250033391
 20
-6.0836564440999972
 30
0.0
  0
VERTEX
  5
9E9A
  8
HIDDEN
 10
-1.389563945903336
 20
-6.0875045790999947
 30
0.0
  0
VERTEX
  5
9E9B
  8
HIDDEN
 10
-1.388645493603337
 20
-6.091388306199998
 30
0.0
  0
VERTEX
  5
9E9C
  8
HIDDEN
 10
-1.3877847866033359
 20
-6.0953068684999963
 30
0.0
  0
VERTEX
  5
9E9D
  8
HIDDEN
 10
-1.386983044903336
 20
-6.099259448799998
 30
0.0
  0
VERTEX
  5
9E9E
  8
HIDDEN
 10
-1.3862414779033381
 20
-6.1032452211999981
 30
0.0
  0
VERTEX
  5
9E9F
  8
HIDDEN
 10
-1.385561289603336
 20
-6.107263325299999
 30
0.0
  0
VERTEX
  5
9EA0
  8
HIDDEN
 10
-1.3849436819033369
 20
-6.1113128388999982
 30
0.0
  0
VERTEX
  5
9EA1
  8
HIDDEN
 10
-1.3843898443033369
 20
-6.1153928310999994
 30
0.0
  0
VERTEX
  5
9EA2
  8
HIDDEN
 10
-1.383900958803336
 20
-6.1195023349999991
 30
0.0
  0
VERTEX
  5
9EA3
  8
HIDDEN
 10
-1.3834782008033379
 20
-6.1236403214999982
 30
0.0
  0
VERTEX
  5
9EA4
  8
HIDDEN
 10
-1.3831227329033391
 20
-6.1278057427999988
 30
0.0
  0
VERTEX
  5
9EA5
  8
HIDDEN
 10
-1.382873239903337
 20
-6.1313849023999998
 30
0.0
  0
SEQEND
  5
9EA6
  8
HIDDEN
  0
POLYLINE
  5
973
  8
HIDDEN
 66
     1
 10
0.0
 20
0.0
 30
0.0
  0
VERTEX
  5
9EA7
  8
HIDDEN
 10
-1.3864053714033391
 20
-5.8801646282999966
 30
0.0
  0
VERTEX
  5
9EA8
  8
HIDDEN
 10
-1.386702240803336
 20
-5.8774228765999972
 30
0.0
  0
VERTEX
  5
9EA9
  8
HIDDEN
 10
-1.3870897685033361
 20
-5.8745589578999988
 30
0.0
  0
VERTEX
  5
9EAA
  8
HIDDEN
 10
-1.3875306306033379
 20
-5.8715729415999958
 30
0.0
  0
VERTEX
  5
9EAB
  8
HIDDEN
 10
-1.387954167303338
 20
-5.8684675306999976
 30
0.0
  0
VERTEX
  5
9EAC
  8
HIDDEN
 10
-1.388359332803337
 20
-5.8652402003999979
 30
0.0
  0
VERTEX
  5
9EAD
  8
HIDDEN
 10
-1.389288952003338
 20
-5.8583963994999868
 30
0.0
  0
SEQEND
  5
9EAE
  8
HIDDEN
  0
LINE
  5
975
  8
HIDDEN
 10
-1.397766766603336
 20
-5.7892587576999972
 30
0.0
 11
-1.3997074189033369
 21
-5.7711798342999963
 31
0.0
  0
LINE
  5
976
  8
HIDDEN
 10
-1.3997074189033369
 20
-5.7711798342999963
 30
0.0
 11
-1.401699929703337
 21
-5.7514400088999968
 31
0.0
  0
LINE
  5
977
  8
HIDDEN
 10
-1.401699929703337
 20
-5.7514400088999968
 30
0.0
 11
-1.4037345918033379
 21
-5.7299328033999997
 31
0.0
  0
POLYLINE
  5
978
  8
HIDDEN
 66
     1
 10
0.0
 20
0.0
 30
0.0
  0
VERTEX
  5
9EAF
  8
HIDDEN
 10
-1.4037345918033379
 20
-5.7299328033999997
 30
0.0
  0
VERTEX
  5
9EB0
  8
HIDDEN
 10
-1.4065247831033381
 20
-5.6983348170999966
 30
0.0
  0
VERTEX
  5
9EB1
  8
HIDDEN
 10
-1.407200968803336
 20
-5.6898986686999962
 30
0.0
  0
SEQEND
  5
9EB2
  8
HIDDEN
  0
POLYLINE
  5
97B
  8
HIDDEN
 66
     1
 10
0.0
 20
0.0
 30
0.0
  0
VERTEX
  5
9EB3
  8
HIDDEN
 10
-1.1453395007033369
 20
-6.194215265399996
 30
0.0
  0
VERTEX
  5
9EB4
  8
HIDDEN
 10
-1.144196805503338
 20
-6.209544929099998
 30
0.0
  0
VERTEX
  5
9EB5
  8
HIDDEN
 10
-1.142485926003336
 20
-6.2248252661999963
 30
0.0
  0
VERTEX
  5
9EB6
  8
HIDDEN
 10
-1.1402088138033379
 20
-6.2400388453999973
 30
0.0
  0
VERTEX
  5
9EB7
  8
HIDDEN
 10
-1.1373680668033379
 20
-6.2551683119000003
 30
0.0
  0
VERTEX
  5
9EB8
  8
HIDDEN
 10
-1.133966925303336
 20
-6.2701964066999976
 30
0.0
  0
VERTEX
  5
9EB9
  8
HIDDEN
 10
-1.130009269303337
 20
-6.2851059862999987
 30
0.0
  0
VERTEX
  5
9EBA
  8
HIDDEN
 10
-1.1254996135033379
 20
-6.2998800426000008
 30
0.0
  0
VERTEX
  5
9EBB
  8
HIDDEN
 10
-1.120443102303337
 20
-6.3145017220999966
 30
0.0
  0
VERTEX
  5
9EBC
  8
HIDDEN
 10
-1.114845504003336
 20
-6.3289543449000014
 30
0.0
  0
VERTEX
  5
9EBD
  8
HIDDEN
 10
-1.1087132039033361
 20
-6.3432214242999967
 30
0.0
  0
VERTEX
  5
9EBE
  8
HIDDEN
 10
-1.1020531977033361
 20
-6.3572866849
 30
0.0
  0
VERTEX
  5
9EBF
  8
HIDDEN
 10
-1.094873082603337
 20
-6.3711340817999966
 30
0.0
  0
VERTEX
  5
9EC0
  8
HIDDEN
 10
-1.0871810496033381
 20
-6.3847478184999993
 30
0.0
  0
VERTEX
  5
9EC1
  8
HIDDEN
 10
-1.0789858731033379
 20
-6.3981123649999994
 30
0.0
  0
VERTEX
  5
9EC2
  8
HIDDEN
 10
-1.0702969021033359
 20
-6.4112124757000011
 30
0.0
  0
VERTEX
  5
9EC3
  8
HIDDEN
 10
-1.061124048303338
 20
-6.4240332064999981
 30
0.0
  0
VERTEX
  5
9EC4
  8
HIDDEN
 10
-1.0514777759033369
 20
-6.4365599322999989
 30
0.0
  0
VERTEX
  5
9EC5
  8
HIDDEN
 10
-1.041369088803336
 20
-6.448778362999998
 30
0.0
  0
VERTEX
  5
9EC6
  8
HIDDEN
 10
-1.0308095186033359
 20
-6.4606745603999967
 30
0.0
  0
VERTEX
  5
9EC7
  8
HIDDEN
 10
-1.0198111111033361
 20
-6.4722349538999877
 30
0.0
  0
VERTEX
  5
9EC8
  8
HIDDEN
 10
-1.008386412803336
 20
-6.4834463558999991
 30
0.0
  0
VERTEX
  5
9EC9
  8
HIDDEN
 10
-0.9965484565033371
 20
-6.4942959769999957
 30
0.0
  0
VERTEX
  5
9ECA
  8
HIDDEN
 10
-0.984310746403338
 20
-6.5047714403999981
 30
0.0
  0
VERTEX
  5
9ECB
  8
HIDDEN
 10
-0.9716872427033367
 20
-6.514860796099998
 30
0.0
  0
VERTEX
  5
9ECC
  8
HIDDEN
 10
-0.958692345803338
 20
-6.5245525347999971
 30
0.0
  0
VERTEX
  5
9ECD
  8
HIDDEN
 10
-0.9453408796033384
 20
-6.5338356003999989
 30
0.0
  0
VERTEX
  5
9ECE
  8
HIDDEN
 10
-0.9316480748033368
 20
-6.5426994034000003
 30
0.0
  0
VERTEX
  5
9ECF
  8
HIDDEN
 10
-0.9176295516033362
 20
-6.5511338322000006
 30
0.0
  0
VERTEX
  5
9ED0
  8
HIDDEN
 10
-0.9033013017033386
 20
-6.5591292653000011
 30
0.0
  0
VERTEX
  5
9ED1
  8
HIDDEN
 10
-0.888679670103337
 20
-6.566676581799995
 30
0.0
  0
VERTEX
  5
9ED2
  8
HIDDEN
 10
-0.8737813365033382
 20
-6.5737671722000002
 30
0.0
  0
VERTEX
  5
9ED3
  8
HIDDEN
 10
-0.8586232962033388
 20
-6.5803929476999983
 30
0.0
  0
VERTEX
  5
9ED4
  8
HIDDEN
 10
-0.8432228408033388
 20
-6.5865463500999999
 30
0.0
  0
VERTEX
  5
9ED5
  8
HIDDEN
 10
-0.827597538503337
 20
-6.5922203596999998
 30
0.0
  0
VERTEX
  5
9ED6
  8
HIDDEN
 10
-0.8117652139033388
 20
-6.5974085038999979
 30
0.0
  0
VERTEX
  5
9ED7
  8
HIDDEN
 10
-0.7957439277033364
 20
-6.6021048643999967
 30
0.0
  0
VERTEX
  5
9ED8
  8
HIDDEN
 10
-0.7795519564033367
 20
-6.6063040836999951
 30
0.0
  0
VERTEX
  5
9ED9
  8
HIDDEN
 10
-0.763207771003339
 20
-6.6100013715999948
 30
0.0
  0
VERTEX
  5
9EDA
  8
HIDDEN
 10
-0.7467300162033368
 20
-6.6131925103999967
 30
0.0
  0
VERTEX
  5
9EDB
  8
HIDDEN
 10
-0.7301374891033367
 20
-6.6158738595999971
 30
0.0
  0
VERTEX
  5
9EDC
  8
HIDDEN
 10
-0.7134491177033393
 20
-6.6180423606999979
 30
0.0
  0
VERTEX
  5
9EDD
  8
HIDDEN
 10
-0.6966839393033393
 20
-6.6196955399000004
 30
0.0
  0
VERTEX
  5
9EDE
  8
HIDDEN
 10
-0.6798610788033379
 20
-6.6208315111999978
 30
0.0
  0
VERTEX
  5
9EDF
  8
HIDDEN
 10
-0.6629997270033368
 20
-6.6214489788999984
 30
0.0
  0
VERTEX
  5
9EE0
  8
HIDDEN
 10
-0.6461191186033393
 20
-6.6215472385999981
 30
0.0
  0
SEQEND
  5
9EE1
  8
HIDDEN
  0
LINE
  5
980
  8
HIDDEN
 10
-1.4889336131033371
 20
-4.2401625586999963
 30
0.0
 11
-1.504997854203338
 21
-4.0023528650999998
 31
0.0
  0
LINE
  5
981
  8
HIDDEN
 10
-1.3828721510033359
 20
-6.1314023846999994
 30
0.0
 11
-1.3119851394033379
 21
-7.2655945715999968
 31
0.0
  0
LINE
  5
982
  8
HIDDEN
 10
-1.4804572205033379
 20
-4.3744868790999973
 30
0.0
 11
-1.4889336131033371
 21
-4.2401625586999963
 31
0.0
  0
LINE
  5
983
  8
HIDDEN
 10
-1.409488584103336
 20
-5.6057573501999967
 30
0.0
 11
-1.4151899033033379
 21
-5.5101048770999981
 31
0.0
  0
LINE
  5
984
  8
HIDDEN
 10
-1.4151899033033379
 20
-5.5101048770999981
 30
0.0
 11
-1.4282754899033361
 21
-5.2861456761999959
 31
0.0
  0
LINE
  5
986
  8
HIDDEN
 10
-1.4282754899033361
 20
-5.2861456761999959
 30
0.0
 11
-1.4678968020033381
 21
-4.6004232076000022
 31
0.0
  0
LINE
  5
987
  8
HIDDEN
 10
-1.475559692103336
 20
-4.4580806000999997
 30
0.0
 11
-1.4804572205033379
 21
-4.3744868790999973
 31
0.0
  0
LINE
  5
988
  8
HIDDEN
 10
-1.504997830403336
 20
-4.0023528699999993
 30
0.0
 11
-1.683336861603336
 21
-0.8135703477000006
 31
0.0
  0
LINE
  5
989
  8
HIDDEN
 10
-1.4678968020033381
 20
-4.6004232076000022
 30
0.0
 11
-1.4716435437033359
 21
-4.5334047430999957
 31
0.0
  0
LINE
  5
98A
  8
HIDDEN
 10
-1.407827459303338
 20
-5.6354382515999957
 30
0.0
 11
-1.409488584103336
 21
-5.6057573501999967
 31
0.0
  0
LINE
  5
98B
  8
HIDDEN
 10
-1.4502656479033369
 20
-0.7402115543999983
 30
0.0
 11
-1.1453395007033369
 21
-6.194215265399996
 31
0.0
  0
LINE
  5
98C
  8
HIDDEN
 10
-1.686387533103338
 20
-0.6906115204999992
 30
0.0
 11
-1.693274715103338
 21
-0.5673147223999991
 31
0.0
  0
LINE
  5
98D
  8
HIDDEN
 10
-1.473073545303337
 20
-4.5042579260999993
 30
0.0
 11
-1.475559692103336
 21
-4.4580806000999997
 31
0.0
  0
POLYLINE
  5
98E
  8
HIDDEN
 66
     1
 10
0.0
 20
0.0
 30
0.0
  0
VERTEX
  5
9EE2
  8
HIDDEN
 10
-1.694316058603337
 20
-0.4791140220999992
 30
0.0
  0
VERTEX
  5
9EE3
  8
HIDDEN
 10
-1.693746092703337
 20
-0.4898020290999981
 30
0.0
  0
VERTEX
  5
9EE4
  8
HIDDEN
 10
-1.693473626403337
 20
-0.4955664866999996
 30
0.0
  0
SEQEND
  5
9EE5
  8
HIDDEN
  0
LINE
  5
98F
  8
HIDDEN
 10
-1.471643472903337
 20
-4.5334047324999993
 30
0.0
 11
-1.473073545303337
 21
-4.5042579260999993
 31
0.0
  0
POLYLINE
  5
990
  8
HIDDEN
 66
     1
 10
0.0
 20
0.0
 30
0.0
  0
VERTEX
  5
9EE6
  8
HIDDEN
 10
-1.450265675003336
 20
-0.740211069099999
 30
0.0
  0
VERTEX
  5
9EE7
  8
HIDDEN
 10
-1.4511795924033359
 20
-0.7206593808000008
 30
0.0
  0
VERTEX
  5
9EE8
  8
HIDDEN
 10
-1.451729152803338
 20
-0.7012942823999993
 30
0.0
  0
VERTEX
  5
9EE9
  8
HIDDEN
 10
-1.4519211325033361
 20
-0.6821155153999996
 30
0.0
  0
VERTEX
  5
9EEA
  8
HIDDEN
 10
-1.451762496203336
 20
-0.6631228559999869
 30
0.0
  0
VERTEX
  5
9EEB
  8
HIDDEN
 10
-1.4512603829033359
 20
-0.6443161144999863
 30
0.0
  0
VERTEX
  5
9EEC
  8
HIDDEN
 10
-1.450422090503338
 20
-0.6256951344999991
 30
0.0
  0
SEQEND
  5
9EED
  8
HIDDEN
  0
POLYLINE
  5
991
  8
HIDDEN
 66
     1
 10
0.0
 20
0.0
 30
0.0
  0
VERTEX
  5
9EEE
  8
HIDDEN
 10
-1.693274715103338
 20
-0.5673147223999991
 30
0.0
  0
VERTEX
  5
9EEF
  8
HIDDEN
 10
-1.6938383302033371
 20
-0.5551783087000004
 30
0.0
  0
VERTEX
  5
9EF0
  8
HIDDEN
 10
-1.6941908472033369
 20
-0.5431132232999972
 30
0.0
  0
VERTEX
  5
9EF1
  8
HIDDEN
 10
-1.6943314393033371
 20
-0.5311194655999998
 30
0.0
  0
VERTEX
  5
9EF2
  8
HIDDEN
 10
-1.694259290003336
 20
-0.5191970350999995
 30
0.0
  0
VERTEX
  5
9EF3
  8
HIDDEN
 10
-1.693973593603336
 20
-0.5073459311999998
 30
0.0
  0
VERTEX
  5
9EF4
  8
HIDDEN
 10
-1.693473554703337
 20
-0.4955661535000005
 30
0.0
  0
SEQEND
  5
9EF5
  8
HIDDEN
  0
LINE
  5
992
  8
HIDDEN
 10
-1.6859133092033369
 20
-0.7018077518999988
 30
0.0
 11
-1.686387529303337
 21
-0.690611503199996
 31
0.0
  0
LINE
  5
993
  8
HIDDEN
 10
-1.685469002003338
 20
-0.7137483256999957
 30
0.0
 11
-1.6859133092033369
 21
-0.7018077518999988
 31
0.0
  0
LINE
  5
994
  8
HIDDEN
 10
-1.6848626978033361
 20
-0.7329431435999965
 30
0.0
 11
-1.685469002003338
 21
-0.7137483256999957
 31
0.0
  0
LINE
  5
995
  8
HIDDEN
 10
-1.407477020703338
 20
-5.6475182838999984
 30
0.0
 11
-1.407827467203338
 21
-5.6354382103999958
 31
0.0
  0
LINE
  5
996
  8
HIDDEN
 10
-1.6843336421033379
 20
-0.7535141258999972
 30
0.0
 11
-1.6848626978033361
 21
-0.7329431435999965
 31
0.0
  0
LINE
  5
997
  8
HIDDEN
 10
-1.407224098003337
 20
-5.6584012276999971
 30
0.0
 11
-1.407477020703338
 21
-5.6475182838999984
 31
0.0
  0
LINE
  5
998
  8
HIDDEN
 10
-1.683886971503336
 20
-0.7752651983999997
 30
0.0
 11
-1.6843336421033379
 21
-0.7535141258999972
 31
0.0
  0
LINE
  5
999
  8
HIDDEN
 10
-1.6835270075033379
 20
-0.7979886189
 30
0.0
 11
-1.683886971503336
 21
-0.7752651983999997
 31
0.0
  0
LINE
  5
99A
  8
HIDDEN
 10
-1.6833368544033369
 20
-0.8135703453000004
 30
0.0
 11
-1.6835270075033379
 21
-0.7979886189
 31
0.0
  0
POLYLINE
  5
99B
  8
HIDDEN
 66
     1
 10
0.0
 20
0.0
 30
0.0
  0
VERTEX
  5
9EF6
  8
HIDDEN
 10
-1.4072009120033371
 20
-5.689898634299996
 30
0.0
  0
VERTEX
  5
9EF7
  8
HIDDEN
 10
-1.4071166030033371
 20
-5.6870234407999973
 30
0.0
  0
VERTEX
  5
9EF8
  8
HIDDEN
 10
-1.407057694503338
 20
-5.6838404971000003
 30
0.0
  0
VERTEX
  5
9EF9
  8
HIDDEN
 10
-1.4070238934033359
 20
-5.6803522151999992
 30
0.0
  0
VERTEX
  5
9EFA
  8
HIDDEN
 10
-1.4070146934033381
 20
-5.6765624524000016
 30
0.0
  0
VERTEX
  5
9EFB
  8
HIDDEN
 10
-1.4070300328033361
 20
-5.6724727357000013
 30
0.0
  0
VERTEX
  5
9EFC
  8
HIDDEN
 10
-1.4070702740033381
 20
-5.6680812382999974
 30
0.0
  0
VERTEX
  5
9EFD
  8
HIDDEN
 10
-1.407224098003337
 20
-5.6584012276999971
 30
0.0
  0
SEQEND
  5
9EFE
  8
HIDDEN
  0
POLYLINE
  5
9A0
  8
HIDDEN
 66
     1
 10
0.0
 20
0.0
 30
0.0
  0
VERTEX
  5
9EFF
  8
HIDDEN
 10
-1.406531151403337
 20
-5.8999813336999969
 30
0.0
  0
VERTEX
  5
9F00
  8
HIDDEN
 10
-1.402375108203338
 20
-5.8992161284999973
 30
0.0
  0
VERTEX
  5
9F01
  8
HIDDEN
 10
-1.398767324003338
 20
-5.8981575890999984
 30
0.0
  0
VERTEX
  5
9F02
  8
HIDDEN
 10
-1.395707488603338
 20
-5.896805800700001
 30
0.0
  0
VERTEX
  5
9F03
  8
HIDDEN
 10
-1.3931952645033361
 20
-5.8951607962999999
 30
0.0
  0
VERTEX
  5
9F04
  8
HIDDEN
 10
-1.3912302973033359
 20
-5.8932225538000012
 30
0.0
  0
VERTEX
  5
9F05
  8
HIDDEN
 10
-1.389812139603336
 20
-5.8909909686999979
 30
0.0
  0
SEQEND
  5
9F06
  8
HIDDEN
  0
LINE
  5
9A2
  8
HIDDEN
 10
-1.406598094003338
 20
-5.8999896167000001
 30
0.0
 11
-1.406531151403337
 21
-5.8999813336999969
 31
0.0
  0
LINE
  5
9B9
  8
HIDDEN
 10
1.501928493796663
 20
-5.8999896167000001
 30
0.0
 11
1.5018615512966631
 21
-5.8999813336999969
 31
0.0
  0
POLYLINE
  5
9BB
  8
HIDDEN
 66
     1
 10
0.0
 20
0.0
 30
0.0
  0
VERTEX
  5
9F07
  8
HIDDEN
 10
1.5018615512966631
 20
-5.8999813336999969
 30
0.0
  0
VERTEX
  5
9F08
  8
HIDDEN
 10
1.497705508096663
 20
-5.8992161284999973
 30
0.0
  0
VERTEX
  5
9F09
  8
HIDDEN
 10
1.4940977238966631
 20
-5.8981575890999984
 30
0.0
  0
VERTEX
  5
9F0A
  8
HIDDEN
 10
1.4910378883966631
 20
-5.896805800700001
 30
0.0
  0
VERTEX
  5
9F0B
  8
HIDDEN
 10
1.4885256642966631
 20
-5.8951607962999999
 30
0.0
  0
VERTEX
  5
9F0C
  8
HIDDEN
 10
1.4865606970966629
 20
-5.8932225538000012
 30
0.0
  0
VERTEX
  5
9F0D
  8
HIDDEN
 10
1.485142539496662
 20
-5.8909909686999979
 30
0.0
  0
SEQEND
  5
9F0E
  8
HIDDEN
  0
POLYLINE
  5
9C8
  8
HIDDEN
 66
     1
 10
0.0
 20
0.0
 30
0.0
  0
VERTEX
  5
9F0F
  8
HIDDEN
 10
-1.3912741044033381
 20
-5.8431166838999964
 30
0.0
  0
VERTEX
  5
9F10
  8
HIDDEN
 10
-1.392374945003338
 20
-5.834648622699997
 30
0.0
  0
VERTEX
  5
9F11
  8
HIDDEN
 10
-1.394085672803336
 20
-5.8208837664999988
 30
0.0
  0
SEQEND
  5
9F12
  8
HIDDEN
  0
POLYLINE
  5
9C9
  8
HIDDEN
 66
     1
 10
0.0
 20
0.0
 30
0.0
  0
VERTEX
  5
9F13
  8
HIDDEN
 10
-1.389288952003338
 20
-5.8583963994999868
 30
0.0
  0
VERTEX
  5
9F14
  8
HIDDEN
 10
-1.389746854803338
 20
-5.8547802809999956
 30
0.0
  0
VERTEX
  5
9F15
  8
HIDDEN
 10
-1.3907689166033359
 20
-5.8471400966999978
 30
0.0
  0
SEQEND
  5
9F16
  8
HIDDEN
  0
LINE
  5
9CA
  8
HIDDEN
 10
-1.3907689166033359
 20
-5.8471400966999978
 30
0.0
 11
-1.3912741044033381
 21
-5.8431166838999964
 31
0.0
  0
LINE
  5
9CC
  8
HIDDEN
 10
-1.394085672803336
 20
-5.8208837664999988
 30
0.0
 11
-1.395888504703338
 21
-5.805788566999996
 31
0.0
  0
LINE
  5
9CD
  8
HIDDEN
 10
-1.395888504703338
 20
-5.805788566999996
 30
0.0
 11
-1.397766766603336
 21
-5.7892587576999972
 31
0.0
  0
POLYLINE
  5
A00
  8
HIDDEN
 66
     1
 10
0.0
 20
0.0
 30
0.0
  0
VERTEX
  5
9F17
  8
HIDDEN
 10
1.4851426206966609
 20
-5.8909910857999961
 30
0.0
  0
VERTEX
  5
9F18
  8
HIDDEN
 10
1.4842812771966629
 20
-5.8899232855999983
 30
0.0
  0
VERTEX
  5
9F19
  8
HIDDEN
 10
1.4835467808966629
 20
-5.8888218140999982
 30
0.0
  0
VERTEX
  5
9F1A
  8
HIDDEN
 10
1.482934196396662
 20
-5.8876866674999979
 30
0.0
  0
VERTEX
  5
9F1B
  8
HIDDEN
 10
1.482432356796662
 20
-5.8865179922999991
 30
0.0
  0
VERTEX
  5
9F1C
  8
HIDDEN
 10
1.482042794996663
 20
-5.8853156384999963
 30
0.0
  0
VERTEX
  5
9F1D
  8
HIDDEN
 10
1.4817802832966629
 20
-5.8840791625999991
 30
0.0
  0
VERTEX
  5
9F1E
  8
HIDDEN
 10
1.4816473543966611
 20
-5.8828084224999984
 30
0.0
  0
VERTEX
  5
9F1F
  8
HIDDEN
 10
1.481633758096663
 20
-5.8815035744999982
 30
0.0
  0
VERTEX
  5
9F20
  8
HIDDEN
 10
1.4817357711966621
 20
-5.8801646282999966
 30
0.0
  0
SEQEND
  5
9F21
  8
HIDDEN
  0
POLYLINE
  5
A03
  8
HIDDEN
 66
     1
 10
0.0
 20
0.0
 30
0.0
  0
VERTEX
  5
9F22
  8
HIDDEN
 10
-1.3898122208033381
 20
-5.8909910857999961
 30
0.0
  0
VERTEX
  5
9F23
  8
HIDDEN
 10
-1.3889508773033361
 20
-5.8899232855999983
 30
0.0
  0
VERTEX
  5
9F24
  8
HIDDEN
 10
-1.388216381003337
 20
-5.8888218140999982
 30
0.0
  0
VERTEX
  5
9F25
  8
HIDDEN
 10
-1.3876037965033381
 20
-5.8876866674999979
 30
0.0
  0
VERTEX
  5
9F26
  8
HIDDEN
 10
-1.3871019570033369
 20
-5.8865179922999991
 30
0.0
  0
VERTEX
  5
9F27
  8
HIDDEN
 10
-1.386712395103336
 20
-5.8853156384999963
 30
0.0
  0
VERTEX
  5
9F28
  8
HIDDEN
 10
-1.3864498834033361
 20
-5.8840791625999991
 30
0.0
  0
VERTEX
  5
9F29
  8
HIDDEN
 10
-1.386316954603338
 20
-5.8828084224999984
 30
0.0
  0
VERTEX
  5
9F2A
  8
HIDDEN
 10
-1.3863033582033379
 20
-5.8815035744999982
 30
0.0
  0
VERTEX
  5
9F2B
  8
HIDDEN
 10
-1.3864053714033391
 20
-5.8801646282999966
 30
0.0
  0
SEQEND
  5
9F2C
  8
HIDDEN
  0
POLYLINE
  5
A09
  8
HIDDEN
 66
     1
 10
0.0
 20
0.0
 30
0.0
  0
VERTEX
  5
9F2D
  8
HIDDEN
 10
1.5025313118966619
 20
-5.689898634299996
 30
0.0
  0
VERTEX
  5
9F2E
  8
HIDDEN
 10
1.5024470027966621
 20
-5.6870234407999973
 30
0.0
  0
VERTEX
  5
9F2F
  8
HIDDEN
 10
1.5023880942966621
 20
-5.6838404971000003
 30
0.0
  0
VERTEX
  5
9F30
  8
HIDDEN
 10
1.502354293196662
 20
-5.6803522151999992
 30
0.0
  0
VERTEX
  5
9F31
  8
HIDDEN
 10
1.502345093196662
 20
-5.6765624524000016
 30
0.0
  0
VERTEX
  5
9F32
  8
HIDDEN
 10
1.5023604326966631
 20
-5.6724727357000013
 30
0.0
  0
VERTEX
  5
9F33
  8
HIDDEN
 10
1.502400673896662
 20
-5.6680812382999974
 30
0.0
  0
SEQEND
  5
9F34
  8
HIDDEN
  0
LINE
  5
A0B
  8
HIDDEN
 10
1.502400673896662
 20
-5.6680812382999974
 30
0.0
 11
1.5025544978966621
 21
-5.6584012276999971
 31
0.0
  0
POLYLINE
  5
A0F
  8
HIDDEN
 66
     1
 10
0.0
 20
0.0
 30
0.0
  0
VERTEX
  5
9F35
  8
HIDDEN
 10
1.5455960747966619
 20
-0.740211069099999
 30
0.0
  0
VERTEX
  5
9F36
  8
HIDDEN
 10
1.5465099921966621
 20
-0.7206593808000008
 30
0.0
  0
VERTEX
  5
9F37
  8
HIDDEN
 10
1.5470595525966619
 20
-0.7012942823999993
 30
0.0
  0
VERTEX
  5
9F38
  8
HIDDEN
 10
1.547251532296662
 20
-0.6821155153999996
 30
0.0
  0
VERTEX
  5
9F39
  8
HIDDEN
 10
1.5470928960966619
 20
-0.6631228559999869
 30
0.0
  0
VERTEX
  5
9F3A
  8
HIDDEN
 10
1.5465907826966629
 20
-0.6443161144999863
 30
0.0
  0
VERTEX
  5
9F3B
  8
HIDDEN
 10
1.545752490296662
 20
-0.6256951344999991
 30
0.0
  0
SEQEND
  5
9F3C
  8
HIDDEN
  0
LINE
  5
A17
  8
HIDDEN
 10
1.5455960476966619
 20
-0.7402115543999983
 30
0.0
 11
1.2406699005966619
 21
-6.194215265399996
 31
0.0
  0
POLYLINE
  5
A1D
  8
HIDDEN
 66
     1
 10
0.0
 20
0.0
 30
0.0
  0
VERTEX
  5
9F3D
  8
HIDDEN
 10
1.2406699005966619
 20
-6.194215265399996
 30
0.0
  0
VERTEX
  5
9F3E
  8
HIDDEN
 10
1.2395272052966619
 20
-6.209544929099998
 30
0.0
  0
VERTEX
  5
9F3F
  8
HIDDEN
 10
1.237816325796663
 20
-6.2248252661999963
 30
0.0
  0
VERTEX
  5
9F40
  8
HIDDEN
 10
1.235539213696663
 20
-6.2400388453999973
 30
0.0
  0
VERTEX
  5
9F41
  8
HIDDEN
 10
1.232698466596662
 20
-6.2551683119000003
 30
0.0
  0
VERTEX
  5
9F42
  8
HIDDEN
 10
1.229297325096663
 20
-6.2701964066999976
 30
0.0
  0
VERTEX
  5
9F43
  8
HIDDEN
 10
1.225339669096662
 20
-6.2851059862999987
 30
0.0
  0
VERTEX
  5
9F44
  8
HIDDEN
 10
1.2208300133966621
 20
-6.2998800426000008
 30
0.0
  0
VERTEX
  5
9F45
  8
HIDDEN
 10
1.2157735021966629
 20
-6.3145017220999966
 30
0.0
  0
VERTEX
  5
9F46
  8
HIDDEN
 10
1.2101759037966631
 20
-6.3289543449000014
 30
0.0
  0
VERTEX
  5
9F47
  8
HIDDEN
 10
1.204043603796662
 20
-6.3432214242999967
 30
0.0
  0
VERTEX
  5
9F48
  8
HIDDEN
 10
1.197383597496664
 20
-6.3572866849
 30
0.0
  0
VERTEX
  5
9F49
  8
HIDDEN
 10
1.190203482496663
 20
-6.3711340817999966
 30
0.0
  0
VERTEX
  5
9F4A
  8
HIDDEN
 10
1.1825114493966611
 20
-6.3847478184999993
 30
0.0
  0
VERTEX
  5
9F4B
  8
HIDDEN
 10
1.1743162729966621
 20
-6.3981123649999994
 30
0.0
  0
VERTEX
  5
9F4C
  8
HIDDEN
 10
1.1656273018966621
 20
-6.4112124757000011
 30
0.0
  0
VERTEX
  5
9F4D
  8
HIDDEN
 10
1.1564544481966621
 20
-6.4240332064999981
 30
0.0
  0
VERTEX
  5
9F4E
  8
HIDDEN
 10
1.1468081756966619
 20
-6.4365599322999989
 30
0.0
  0
VERTEX
  5
9F4F
  8
HIDDEN
 10
1.136699488596663
 20
-6.448778362999998
 30
0.0
  0
VERTEX
  5
9F50
  8
HIDDEN
 10
1.1261399183966629
 20
-6.4606745603999967
 30
0.0
  0
VERTEX
  5
9F51
  8
HIDDEN
 10
1.1151415108966629
 20
-6.4722349538999877
 30
0.0
  0
VERTEX
  5
9F52
  8
HIDDEN
 10
1.1037168125966621
 20
-6.4834463558999991
 30
0.0
  0
VERTEX
  5
9F53
  8
HIDDEN
 10
1.091878856396663
 20
-6.4942959769999957
 30
0.0
  0
VERTEX
  5
9F54
  8
HIDDEN
 10
1.079641146296662
 20
-6.5047714403999981
 30
0.0
  0
VERTEX
  5
9F55
  8
HIDDEN
 10
1.0670176425966631
 20
-6.514860796099998
 30
0.0
  0
VERTEX
  5
9F56
  8
HIDDEN
 10
1.0540227455966631
 20
-6.5245525347999971
 30
0.0
  0
VERTEX
  5
9F57
  8
HIDDEN
 10
1.0406712793966599
 20
-6.5338356003999989
 30
0.0
  0
VERTEX
  5
9F58
  8
HIDDEN
 10
1.0269784746966619
 20
-6.5426994034000003
 30
0.0
  0
VERTEX
  5
9F59
  8
HIDDEN
 10
1.012959951496663
 20
-6.5511338322000006
 30
0.0
  0
VERTEX
  5
9F5A
  8
HIDDEN
 10
0.998631701596663
 20
-6.5591292653000011
 30
0.0
  0
VERTEX
  5
9F5B
  8
HIDDEN
 10
0.9840100699966622
 20
-6.566676581799995
 30
0.0
  0
VERTEX
  5
9F5C
  8
HIDDEN
 10
0.9691117362966625
 20
-6.5737671722000002
 30
0.0
  0
VERTEX
  5
9F5D
  8
HIDDEN
 10
0.9539536959966632
 20
-6.5803929476999983
 30
0.0
  0
VERTEX
  5
9F5E
  8
HIDDEN
 10
0.9385532406966632
 20
-6.5865463500999999
 30
0.0
  0
VERTEX
  5
9F5F
  8
HIDDEN
 10
0.922927938296663
 20
-6.5922203596999998
 30
0.0
  0
VERTEX
  5
9F60
  8
HIDDEN
 10
0.9070956136966633
 20
-6.5974085038999979
 30
0.0
  0
VERTEX
  5
9F61
  8
HIDDEN
 10
0.8910743275966623
 20
-6.6021048643999967
 30
0.0
  0
VERTEX
  5
9F62
  8
HIDDEN
 10
0.8748823562966627
 20
-6.6063040836999951
 30
0.0
  0
VERTEX
  5
9F63
  8
HIDDEN
 10
0.8585381708966632
 20
-6.6100013715999948
 30
0.0
  0
VERTEX
  5
9F64
  8
HIDDEN
 10
0.8420604160966611
 20
-6.6131925103999967
 30
0.0
  0
VERTEX
  5
9F65
  8
HIDDEN
 10
0.8254678889966626
 20
-6.6158738595999971
 30
0.0
  0
VERTEX
  5
9F66
  8
HIDDEN
 10
0.8087795174966636
 20
-6.6180423606999979
 30
0.0
  0
VERTEX
  5
9F67
  8
HIDDEN
 10
0.7920143390966637
 20
-6.6196955399000004
 30
0.0
  0
VERTEX
  5
9F68
  8
HIDDEN
 10
0.7751914785966623
 20
-6.6208315111999978
 30
0.0
  0
VERTEX
  5
9F69
  8
HIDDEN
 10
0.7583301268966612
 20
-6.6214489788999984
 30
0.0
  0
VERTEX
  5
9F6A
  8
HIDDEN
 10
0.7414495184966637
 20
-6.6215472385999981
 30
0.0
  0
SEQEND
  5
9F6B
  8
HIDDEN
  0
LINE
  5
A26
  8
HIDDEN
 10
1.7786672542966619
 20
-0.8135703453000004
 30
0.0
 11
1.7790875768966621
 21
-0.7827423178999881
 31
0.0
  0
LINE
  5
A27
  8
HIDDEN
 10
1.7790875768966621
 20
-0.7827423178999881
 30
0.0
 11
1.7795057564966621
 21
-0.7606433619999962
 31
0.0
  0
LINE
  5
A28
  8
HIDDEN
 10
1.5025544978966621
 20
-5.6584012276999971
 30
0.0
 11
1.5028074204966619
 21
-5.6475182838999984
 31
0.0
  0
LINE
  5
A29
  8
HIDDEN
 10
1.7795057564966621
 20
-0.7606433619999962
 30
0.0
 11
1.780007894596662
 21
-0.7396566794999872
 31
0.0
  0
LINE
  5
A2A
  8
HIDDEN
 10
1.5028074204966619
 20
-5.6475182838999984
 30
0.0
 11
1.5031578670966621
 21
-5.6354382103999958
 31
0.0
  0
LINE
  5
A2B
  8
HIDDEN
 10
1.780007894596662
 20
-0.7396566794999872
 30
0.0
 11
1.7805890608966619
 21
-0.7199821068999981
 31
0.0
  0
LINE
  5
A2C
  8
HIDDEN
 10
1.7805890608966619
 20
-0.7199821068999981
 30
0.0
 11
1.7810176945966629
 21
-0.7076880576999969
 31
0.0
  0
POLYLINE
  5
A2D
  8
HIDDEN
 66
     1
 10
0.0
 20
0.0
 30
0.0
  0
VERTEX
  5
9F6C
  8
HIDDEN
 10
1.7810176945966629
 20
-0.7076880576999969
 30
0.0
  0
VERTEX
  5
9F6D
  8
HIDDEN
 10
1.781477203196661
 20
-0.6961135636999956
 30
0.0
  0
VERTEX
  5
9F6E
  8
HIDDEN
 10
1.7817179291966629
 20
-0.690611503199996
 30
0.0
  0
SEQEND
  5
9F6F
  8
HIDDEN
  0
POLYLINE
  5
A2E
  8
HIDDEN
 66
     1
 10
0.0
 20
0.0
 30
0.0
  0
VERTEX
  5
9F70
  8
HIDDEN
 10
1.7886051148966631
 20
-0.5673147223999991
 30
0.0
  0
VERTEX
  5
9F71
  8
HIDDEN
 10
1.7891687300966621
 20
-0.5551783087000004
 30
0.0
  0
VERTEX
  5
9F72
  8
HIDDEN
 10
1.789521247096663
 20
-0.5431132232999972
 30
0.0
  0
VERTEX
  5
9F73
  8
HIDDEN
 10
1.7896618390966621
 20
-0.5311194655999998
 30
0.0
  0
VERTEX
  5
9F74
  8
HIDDEN
 10
1.789589689896663
 20
-0.5191970350999995
 30
0.0
  0
VERTEX
  5
9F75
  8
HIDDEN
 10
1.789303993496663
 20
-0.5073459311999998
 30
0.0
  0
VERTEX
  5
9F76
  8
HIDDEN
 10
1.7888039544966621
 20
-0.4955661535000005
 30
0.0
  0
SEQEND
  5
9F77
  8
HIDDEN
  0
LINE
  5
A2F
  8
HIDDEN
 10
1.566973872796662
 20
-4.5334047324999993
 30
0.0
 11
1.568403945096662
 21
-4.5042579260999993
 31
0.0
  0
LINE
  5
A30
  8
HIDDEN
 10
1.568403945096662
 20
-4.5042579260999993
 30
0.0
 11
1.5708900919966631
 21
-4.4580806000999997
 31
0.0
  0
LINE
  5
A31
  8
HIDDEN
 10
1.563227201896662
 20
-4.6004232076000022
 30
0.0
 11
1.5669739435966621
 21
-4.5334047430999957
 31
0.0
  0
LINE
  5
A32
  8
HIDDEN
 10
1.781717932896663
 20
-0.6906115204999992
 30
0.0
 11
1.7886051148966631
 21
-0.5673147223999991
 31
0.0
  0
LINE
  5
A33
  8
HIDDEN
 10
1.6003282301966619
 20
-4.0023528699999993
 30
0.0
 11
1.7786672614966621
 21
-0.8135703477000006
 31
0.0
  0
LINE
  5
A34
  8
HIDDEN
 10
1.542711665796662
 20
-4.9553588885999993
 30
0.0
 11
1.563227201896662
 21
-4.6004232076000022
 31
0.0
  0
LINE
  5
A35
  8
HIDDEN
 10
1.5708900919966631
 20
-4.4580806000999997
 30
0.0
 11
1.574007184996663
 21
-4.4041302945999981
 31
0.0
  0
LINE
  5
A36
  8
HIDDEN
 10
1.5188707224966631
 20
-5.3663805843999981
 30
0.0
 11
1.542711665796662
 21
-4.9553588885999993
 31
0.0
  0
LINE
  5
A37
  8
HIDDEN
 10
1.5031578591966619
 20
-5.6354382515999957
 30
0.0
 11
1.5188707224966631
 21
-5.3663805843999981
 31
0.0
  0
LINE
  5
A38
  8
HIDDEN
 10
1.574007184996663
 20
-4.4041302945999981
 30
0.0
 11
1.578720477996663
 21
-4.3269422565999882
 31
0.0
  0
LINE
  5
A39
  8
HIDDEN
 10
1.4782025508966621
 20
-6.1314023846999994
 30
0.0
 11
1.4073155391966621
 21
-7.2655945715999968
 31
0.0
  0
LINE
  5
A3A
  8
HIDDEN
 10
1.578720477996663
 20
-4.3269422565999882
 30
0.0
 11
1.5842640129966621
 21
-4.2401625586999963
 31
0.0
  0
LINE
  5
A3B
  8
HIDDEN
 10
1.5842640129966621
 20
-4.2401625586999963
 30
0.0
 11
1.5905494011966621
 21
-4.1451640413999966
 31
0.0
  0
LINE
  5
A3C
  8
HIDDEN
 10
1.5905494011966621
 20
-4.1451640413999966
 30
0.0
 11
1.597438692296663
 21
-4.0439960841999989
 31
0.0
  0
POLYLINE
  5
A3D
  8
HIDDEN
 66
     1
 10
0.0
 20
0.0
 30
0.0
  0
VERTEX
  5
9F78
  8
HIDDEN
 10
1.478203639796662
 20
-6.1313849023999998
 30
0.0
  0
VERTEX
  5
9F79
  8
HIDDEN
 10
1.478441877496663
 20
-6.1279526299999993
 30
0.0
  0
VERTEX
  5
9F7A
  8
HIDDEN
 10
1.478770019896662
 20
-6.1240555028000001
 30
0.0
  0
VERTEX
  5
9F7B
  8
HIDDEN
 10
1.4791571148966629
 20
-6.1201822595999991
 30
0.0
  0
VERTEX
  5
9F7C
  8
HIDDEN
 10
1.4796022135966631
 20
-6.1163337611999964
 30
0.0
  0
VERTEX
  5
9F7D
  8
HIDDEN
 10
1.4801043568966621
 20
-6.1125108551000009
 30
0.0
  0
VERTEX
  5
9F7E
  8
HIDDEN
 10
1.480662580896662
 20
-6.1087143397999979
 30
0.0
  0
VERTEX
  5
9F7F
  8
HIDDEN
 10
1.4812759156966611
 20
-6.1049449863999881
 30
0.0
  0
VERTEX
  5
9F80
  8
HIDDEN
 10
1.481943381296662
 20
-6.1012035605000001
 30
0.0
  0
VERTEX
  5
9F81
  8
HIDDEN
 10
1.482663996296663
 20
-6.0974907790999877
 30
0.0
  0
VERTEX
  5
9F82
  8
HIDDEN
 10
1.483436774496661
 20
-6.0938073326
 30
0.0
  0
VERTEX
  5
9F83
  8
HIDDEN
 10
1.4842607211966621
 20
-6.0901539060999994
 30
0.0
  0
VERTEX
  5
9F84
  8
HIDDEN
 10
1.4851348427966631
 20
-6.0865311370999988
 30
0.0
  0
VERTEX
  5
9F85
  8
HIDDEN
 10
1.486058142696663
 20
-6.0829396369999884
 30
0.0
  0
VERTEX
  5
9F86
  8
HIDDEN
 10
1.487029616896663
 20
-6.0793800126999988
 30
0.0
  0
VERTEX
  5
9F87
  8
HIDDEN
 10
1.4880482644966611
 20
-6.0758528241999983
 30
0.0
  0
VERTEX
  5
9F88
  8
HIDDEN
 10
1.4891130839966631
 20
-6.0723586063999981
 30
0.0
  0
VERTEX
  5
9F89
  8
HIDDEN
 10
1.4902230667966621
 20
-6.0688978899999979
 30
0.0
  0
VERTEX
  5
9F8A
  8
HIDDEN
 10
1.4913772100966629
 20
-6.0654711598999986
 30
0.0
  0
VERTEX
  5
9F8B
  8
HIDDEN
 10
1.4925745120966629
 20
-6.0620788768999994
 30
0.0
  0
VERTEX
  5
9F8C
  8
HIDDEN
 10
1.493813964296663
 20
-6.0587214979999997
 30
0.0
  0
VERTEX
  5
9F8D
  8
HIDDEN
 10
1.495094566696662
 20
-6.0553994359999983
 30
0.0
  0
VERTEX
  5
9F8E
  8
HIDDEN
 10
1.496415321496662
 20
-6.052113079999998
 30
0.0
  0
VERTEX
  5
9F8F
  8
HIDDEN
 10
1.4977752246966629
 20
-6.0488628161000007
 30
0.0
  0
VERTEX
  5
9F90
  8
HIDDEN
 10
1.4991732832966611
 20
-6.0456489874999981
 30
0.0
  0
VERTEX
  5
9F91
  8
HIDDEN
 10
1.5006085075966631
 20
-6.0424719148000001
 30
0.0
  0
VERTEX
  5
9F92
  8
HIDDEN
 10
1.502079902296664
 20
-6.0393319161999983
 30
0.0
  0
VERTEX
  5
9F93
  8
HIDDEN
 10
1.5035864849966629
 20
-6.0362292679999987
 30
0.0
  0
VERTEX
  5
9F94
  8
HIDDEN
 10
1.505127277996662
 20
-6.0331642253999958
 30
0.0
  0
VERTEX
  5
9F95
  8
HIDDEN
 10
1.506701298296661
 20
-6.0301370414999971
 30
0.0
  0
VERTEX
  5
9F96
  8
HIDDEN
 10
1.5083075777966619
 20
-6.0271479291999981
 30
0.0
  0
VERTEX
  5
9F97
  8
HIDDEN
 10
1.509945153996662
 20
-6.0241970811999961
 30
0.0
  0
VERTEX
  5
9F98
  8
HIDDEN
 10
1.5116130595966639
 20
-6.0212846886999962
 30
0.0
  0
VERTEX
  5
9F99
  8
HIDDEN
 10
1.513310343796662
 20
-6.0184109043999987
 30
0.0
  0
VERTEX
  5
9F9A
  8
HIDDEN
 10
1.5150360625966619
 20
-6.0155758615999977
 30
0.0
  0
VERTEX
  5
9F9B
  8
HIDDEN
 10
1.5167892671966641
 20
-6.0127796929999979
 30
0.0
  0
VERTEX
  5
9F9C
  8
HIDDEN
 10
1.518569027296663
 20
-6.0100224940999878
 30
0.0
  0
VERTEX
  5
9F9D
  8
HIDDEN
 10
1.5203744196966631
 20
-6.0073043424000012
 30
0.0
  0
VERTEX
  5
9F9E
  8
HIDDEN
 10
1.5222045171966621
 20
-6.0046253151999984
 30
0.0
  0
VERTEX
  5
9F9F
  8
HIDDEN
 10
1.524058411996662
 20
-6.0019854542999971
 30
0.0
  0
VERTEX
  5
9FA0
  8
HIDDEN
 10
1.525935204696663
 20
-5.9993847842999983
 30
0.0
  0
VERTEX
  5
9FA1
  8
HIDDEN
 10
1.527833991396663
 20
-5.9968233307999981
 30
0.0
  0
VERTEX
  5
9FA2
  8
HIDDEN
 10
1.529753889596664
 20
-5.994301085
 30
0.0
  0
VERTEX
  5
9FA3
  8
HIDDEN
 10
1.531694025396662
 20
-5.9918180224000004
 30
0.0
  0
VERTEX
  5
9FA4
  8
HIDDEN
 10
1.5336535207966611
 20
-5.9893741195999972
 30
0.0
  0
VERTEX
  5
9FA5
  8
HIDDEN
 10
1.535631519796663
 20
-5.9869693209999957
 30
0.0
  0
VERTEX
  5
9FA6
  8
HIDDEN
 10
1.5376271763966629
 20
-5.9846035559000006
 30
0.0
  0
VERTEX
  5
9FA7
  8
HIDDEN
 10
1.5396396396966621
 20
-5.9822767557999974
 30
0.0
  0
VERTEX
  5
9FA8
  8
HIDDEN
 10
1.5416680856966609
 20
-5.9799888176000016
 30
0.0
  0
VERTEX
  5
9FA9
  8
HIDDEN
 10
1.543711693996662
 20
-5.9777396315999978
 30
0.0
  0
VERTEX
  5
9FAA
  8
HIDDEN
 10
1.545769633096663
 20
-5.9755290975999991
 30
0.0
  0
VERTEX
  5
9FAB
  8
HIDDEN
 10
1.547841178996662
 20
-5.9733569986999981
 30
0.0
  0
VERTEX
  5
9FAC
  8
HIDDEN
 10
1.549925472496664
 20
-5.9712232603999977
 30
0.0
  0
VERTEX
  5
9FAD
  8
HIDDEN
 10
1.5520214845966629
 20
-5.9691279663999977
 30
0.0
  0
VERTEX
  5
9FAE
  8
HIDDEN
 10
1.554128515696662
 20
-5.9670708583999987
 30
0.0
  0
VERTEX
  5
9FAF
  8
HIDDEN
 10
1.556245728396662
 20
-5.9650518128999961
 30
0.0
  0
VERTEX
  5
9FB0
  8
HIDDEN
 10
1.5583718785966629
 20
-5.9630710737999983
 30
0.0
  0
VERTEX
  5
9FB1
  8
HIDDEN
 10
1.5605062122966631
 20
-5.9611284011999963
 30
0.0
  0
VERTEX
  5
9FB2
  8
HIDDEN
 10
1.5626479810966629
 20
-5.9592235507999973
 30
0.0
  0
VERTEX
  5
9FB3
  8
HIDDEN
 10
1.5647959345966631
 20
-5.9573567086999972
 30
0.0
  0
VERTEX
  5
9FB4
  8
HIDDEN
 10
1.566949336496662
 20
-5.9555275897
 30
0.0
  0
VERTEX
  5
9FB5
  8
HIDDEN
 10
1.5691074627966619
 20
-5.9537358989999971
 30
0.0
  0
VERTEX
  5
9FB6
  8
HIDDEN
 10
1.571269070796661
 20
-5.9519817587999979
 30
0.0
  0
VERTEX
  5
9FB7
  8
HIDDEN
 10
1.5734334473966629
 20
-5.9502648384999972
 30
0.0
  0
VERTEX
  5
9FB8
  8
HIDDEN
 10
1.575599892996661
 20
-5.9485847988999971
 30
0.0
  0
VERTEX
  5
9FB9
  8
HIDDEN
 10
1.5777671763966621
 20
-5.9469417008999983
 30
0.0
  0
VERTEX
  5
9FBA
  8
HIDDEN
 10
1.5799345311966631
 20
-5.9453352300999986
 30
0.0
  0
VERTEX
  5
9FBB
  8
HIDDEN
 10
1.5821013629966609
 20
-5.9437649460999991
 30
0.0
  0
VERTEX
  5
9FBC
  8
HIDDEN
 10
1.5842666970966639
 20
-5.9422306824999991
 30
0.0
  0
VERTEX
  5
9FBD
  8
HIDDEN
 10
1.586429656596662
 20
-5.9407321890999958
 30
0.0
  0
VERTEX
  5
9FBE
  8
HIDDEN
 10
1.5885898234966629
 20
-5.939268897499999
 30
0.0
  0
VERTEX
  5
9FBF
  8
HIDDEN
 10
1.5907469330966619
 20
-5.9378401555999956
 30
0.0
  0
VERTEX
  5
9FC0
  8
HIDDEN
 10
1.5929003417966621
 20
-5.9364455781999999
 30
0.0
  0
VERTEX
  5
9FC1
  8
HIDDEN
 10
1.5950494970966631
 20
-5.9350847236999966
 30
0.0
  0
VERTEX
  5
9FC2
  8
HIDDEN
 10
1.5971943069966621
 20
-5.9337568742000002
 30
0.0
  0
VERTEX
  5
9FC3
  8
HIDDEN
 10
1.5993342152966621
 20
-5.9324616193999971
 30
0.0
  0
VERTEX
  5
9FC4
  8
HIDDEN
 10
1.6014686782966621
 20
-5.9311985445999973
 30
0.0
  0
VERTEX
  5
9FC5
  8
HIDDEN
 10
1.6035976591966621
 20
-5.9299669481999997
 30
0.0
  0
VERTEX
  5
9FC6
  8
HIDDEN
 10
1.6057206470966641
 20
-5.9287664224000016
 30
0.0
  0
VERTEX
  5
9FC7
  8
HIDDEN
 10
1.6078371425966631
 20
-5.9275965560999992
 30
0.0
  0
VERTEX
  5
9FC8
  8
HIDDEN
 10
1.6099471606966631
 20
-5.9264566662999982
 30
0.0
  0
VERTEX
  5
9FC9
  8
HIDDEN
 10
1.6120502329966611
 20
-5.9253463499999981
 30
0.0
  0
VERTEX
  5
9FCA
  8
HIDDEN
 10
1.6141459016966619
 20
-5.9242652015999973
 30
0.0
  0
VERTEX
  5
9FCB
  8
HIDDEN
 10
1.616234230096663
 20
-5.9232125585999986
 30
0.0
  0
VERTEX
  5
9FCC
  8
HIDDEN
 10
1.6183147976966621
 20
-5.9221880208999984
 30
0.0
  0
VERTEX
  5
9FCD
  8
HIDDEN
 10
1.6203871774966629
 20
-5.9211911940999959
 30
0.0
  0
VERTEX
  5
9FCE
  8
HIDDEN
 10
1.622451452596662
 20
-5.9202214497999988
 30
0.0
  0
VERTEX
  5
9FCF
  8
HIDDEN
 10
1.624507271696662
 20
-5.919278380799998
 30
0.0
  0
VERTEX
  5
9FD0
  8
HIDDEN
 10
1.626554211496662
 20
-5.9183616161999977
 30
0.0
  0
VERTEX
  5
9FD1
  8
HIDDEN
 10
1.628592272996662
 20
-5.9174706026000008
 30
0.0
  0
VERTEX
  5
9FD2
  8
HIDDEN
 10
1.630621109096662
 20
-5.9166049520999984
 30
0.0
  0
VERTEX
  5
9FD3
  8
HIDDEN
 10
1.632640356896661
 20
-5.9157642859999982
 30
0.0
  0
VERTEX
  5
9FD4
  8
HIDDEN
 10
1.6346500153966621
 20
-5.9149480829999979
 30
0.0
  0
VERTEX
  5
9FD5
  8
HIDDEN
 10
1.6366497551966619
 20
-5.9141559661999876
 30
0.0
  0
VERTEX
  5
9FD6
  8
HIDDEN
 10
1.6386392555966629
 20
-5.9133875582000002
 30
0.0
  0
VERTEX
  5
9FD7
  8
HIDDEN
 10
1.6406185482966631
 20
-5.9126423531999981
 30
0.0
  0
VERTEX
  5
9FD8
  8
HIDDEN
 10
1.6425873322966631
 20
-5.9119199816999979
 30
0.0
  0
VERTEX
  5
9FD9
  8
HIDDEN
 10
1.644545314796664
 20
-5.9112200736999974
 30
0.0
  0
VERTEX
  5
9FDA
  8
HIDDEN
 10
1.646492557796662
 20
-5.910542140199996
 30
0.0
  0
VERTEX
  5
9FDB
  8
HIDDEN
 10
1.6484288235966631
 20
-5.909885807600002
 30
0.0
  0
VERTEX
  5
9FDC
  8
HIDDEN
 10
1.650353808796662
 20
-5.909250727399999
 30
0.0
  0
VERTEX
  5
9FDD
  8
HIDDEN
 10
1.6522674933966639
 20
-5.9086364627999997
 30
0.0
  0
VERTEX
  5
9FDE
  8
HIDDEN
 10
1.6541697636966619
 20
-5.9080426166999969
 30
0.0
  0
VERTEX
  5
9FDF
  8
HIDDEN
 10
1.656060240196662
 20
-5.9074688787999987
 30
0.0
  0
VERTEX
  5
9FE0
  8
HIDDEN
 10
1.657938515496661
 20
-5.9069149447000022
 30
0.0
  0
VERTEX
  5
9FE1
  8
HIDDEN
 10
1.659804389696663
 20
-5.9063804484000002
 30
0.0
  0
VERTEX
  5
9FE2
  8
HIDDEN
 10
1.6616576081966621
 20
-5.9058650424000021
 30
0.0
  0
VERTEX
  5
9FE3
  8
HIDDEN
 10
1.6634976896966629
 20
-5.9053684411999958
 30
0.0
  0
VERTEX
  5
9FE4
  8
HIDDEN
 10
1.6653244208966631
 20
-5.9048902846000004
 30
0.0
  0
VERTEX
  5
9FE5
  8
HIDDEN
 10
1.667137597496664
 20
-5.9044302128000012
 30
0.0
  0
VERTEX
  5
9FE6
  8
HIDDEN
 10
1.668936758296663
 20
-5.9039879313999961
 30
0.0
  0
VERTEX
  5
9FE7
  8
HIDDEN
 10
1.670721709096662
 20
-5.9035630778999986
 30
0.0
  0
VERTEX
  5
9FE8
  8
HIDDEN
 10
1.6724922625966621
 20
-5.9031552916999992
 30
0.0
  0
VERTEX
  5
9FE9
  8
HIDDEN
 10
1.6742479743966621
 20
-5.9027642713999979
 30
0.0
  0
VERTEX
  5
9FEA
  8
HIDDEN
 10
1.6759886714966621
 20
-5.9023896536000002
 30
0.0
  0
VERTEX
  5
9FEB
  8
HIDDEN
 10
1.677714180496662
 20
-5.9020310784000003
 30
0.0
  0
VERTEX
  5
9FEC
  8
HIDDEN
 10
1.679424062996663
 20
-5.9016882411999978
 30
0.0
  0
VERTEX
  5
9FED
  8
HIDDEN
 10
1.6811182917966621
 20
-5.9013607548999998
 30
0.0
  0
VERTEX
  5
9FEE
  8
HIDDEN
 10
1.6827965814966619
 20
-5.9010482869000001
 30
0.0
  0
VERTEX
  5
9FEF
  8
HIDDEN
 10
1.684458111296663
 20
-5.900750598200001
 30
0.0
  0
VERTEX
  5
9FF0
  8
HIDDEN
 10
1.6861029518966619
 20
-5.900467284499995
 30
0.0
  0
VERTEX
  5
9FF1
  8
HIDDEN
 10
1.687730749496662
 20
-5.9001980199999968
 30
0.0
  0
VERTEX
  5
9FF2
  8
HIDDEN
 10
1.6893400486966621
 20
-5.899942647899997
 30
0.0
  0
VERTEX
  5
9FF3
  8
HIDDEN
 10
1.690930489496661
 20
-5.8997008176999968
 30
0.0
  0
VERTEX
  5
9FF4
  8
HIDDEN
 10
1.692502173096663
 20
-5.8994721116999989
 30
0.0
  0
VERTEX
  5
9FF5
  8
HIDDEN
 10
1.6940543366966621
 20
-5.8992562403000006
 30
0.0
  0
VERTEX
  5
9FF6
  8
HIDDEN
 10
1.6955866874966621
 20
-5.899052841499997
 30
0.0
  0
VERTEX
  5
9FF7
  8
HIDDEN
 10
1.697099288196662
 20
-5.8988615097000006
 30
0.0
  0
VERTEX
  5
9FF8
  8
HIDDEN
 10
1.6985919131966609
 20
-5.8986818827
 30
0.0
  0
SEQEND
  5
9FF9
  8
HIDDEN
  0
LINE
  5
A3E
  8
HIDDEN
 10
1.597438692296663
 20
-4.0439960841999989
 30
0.0
 11
1.600328254096663
 21
-4.0023528650999998
 31
0.0
  0
LINE
  5
A41
  8
HIDDEN
 10
1.501855182996662
 20
-5.6983348170999966
 30
0.0
 11
1.502531368696663
 21
-5.6898986686999962
 31
0.0
  0
LINE
  5
A42
  8
HIDDEN
 10
1.499064991596663
 20
-5.7299328033999997
 30
0.0
 11
1.501855182996662
 21
-5.6983348170999966
 31
0.0
  0
LINE
  5
A43
  8
HIDDEN
 10
1.4970303294966609
 20
-5.7514400088999968
 30
0.0
 11
1.499064991596663
 21
-5.7299328033999997
 31
0.0
  0
LINE
  5
A44
  8
HIDDEN
 10
1.495037818796662
 20
-5.7711798342999963
 30
0.0
 11
1.4970303294966609
 21
-5.7514400088999968
 31
0.0
  0
POLYLINE
  5
A45
  8
HIDDEN
 66
     1
 10
0.0
 20
0.0
 30
0.0
  0
VERTEX
  5
9FFA
  8
HIDDEN
 10
1.4817357711966621
 20
-5.8801646282999966
 30
0.0
  0
VERTEX
  5
9FFB
  8
HIDDEN
 10
1.482032640596662
 20
-5.8774228765999972
 30
0.0
  0
VERTEX
  5
9FFC
  8
HIDDEN
 10
1.4824201683966629
 20
-5.8745589578999988
 30
0.0
  0
VERTEX
  5
9FFD
  8
HIDDEN
 10
1.4828610304966621
 20
-5.8715729415999958
 30
0.0
  0
VERTEX
  5
9FFE
  8
HIDDEN
 10
1.4832845670966639
 20
-5.8684675306999976
 30
0.0
  0
VERTEX
  5
9FFF
  8
HIDDEN
 10
1.483689732596662
 20
-5.8652402003999979
 30
0.0
  0
SEQEND
  5
A000
  8
HIDDEN
  0
LINE
  5
A46
  8
HIDDEN
 10
1.4930971663966619
 20
-5.7892587576999972
 30
0.0
 11
1.495037818796662
 21
-5.7711798342999963
 31
0.0
  0
LINE
  5
A47
  8
HIDDEN
 10
1.4912189044966619
 20
-5.805788566999996
 30
0.0
 11
1.4930971663966619
 21
-5.7892587576999972
 31
0.0
  0
LINE
  5
A48
  8
HIDDEN
 10
1.489416072596663
 20
-5.8208837664999988
 30
0.0
 11
1.4912189044966619
 21
-5.805788566999996
 31
0.0
  0
LINE
  5
A49
  8
HIDDEN
 10
1.4877053447966639
 20
-5.834648622699997
 30
0.0
 11
1.489416072596663
 21
-5.8208837664999988
 31
0.0
  0
POLYLINE
  5
A4A
  8
HIDDEN
 66
     1
 10
0.0
 20
0.0
 30
0.0
  0
VERTEX
  5
A001
  8
HIDDEN
 10
1.485077254696664
 20
-5.8547802809999956
 30
0.0
  0
VERTEX
  5
A002
  8
HIDDEN
 10
1.486099316496662
 20
-5.8471400966999978
 30
0.0
  0
VERTEX
  5
A003
  8
HIDDEN
 10
1.486604504296662
 20
-5.8431166838999964
 30
0.0
  0
VERTEX
  5
A004
  8
HIDDEN
 10
1.4877053447966639
 20
-5.834648622699997
 30
0.0
  0
SEQEND
  5
A005
  8
HIDDEN
  0
POLYLINE
  5
A4B
  8
HIDDEN
 66
     1
 10
0.0
 20
0.0
 30
0.0
  0
VERTEX
  5
A006
  8
HIDDEN
 10
1.483689732596662
 20
-5.8652402003999979
 30
0.0
  0
VERTEX
  5
A007
  8
HIDDEN
 10
1.484619351796663
 20
-5.8583963994999868
 30
0.0
  0
VERTEX
  5
A008
  8
HIDDEN
 10
1.485077254696664
 20
-5.8547802809999956
 30
0.0
  0
SEQEND
  5
A009
  8
HIDDEN
  0
POLYLINE
  5
A5A
  8
HIDDEN
 66
     1
 10
0.0
 20
0.0
 30
0.0
  0
VERTEX
  5
A00A
  8
HIDDEN
 10
-1.699271881103338
 20
-0.4399999999999978
 30
0.0
  0
VERTEX
  5
A00B
  8
HIDDEN
 10
-1.6989241347033379
 20
-0.440179225999998
 30
0.0
  0
VERTEX
  5
A00C
  8
HIDDEN
 10
-1.6985764543033379
 20
-0.4407166120999975
 30
0.0
  0
VERTEX
  5
A00D
  8
HIDDEN
 10
-1.6982294035033361
 20
-0.4416112832999986
 30
0.0
  0
VERTEX
  5
A00E
  8
HIDDEN
 10
-1.697883542503337
 20
-0.4428617824000014
 30
0.0
  0
VERTEX
  5
A00F
  8
HIDDEN
 10
-1.697539434003337
 20
-0.4444660724999992
 30
0.0
  0
VERTEX
  5
A010
  8
HIDDEN
 10
-1.697197646103338
 20
-0.4464215391999958
 30
0.0
  0
VERTEX
  5
A011
  8
HIDDEN
 10
-1.6968587406033371
 20
-0.4487249960999975
 30
0.0
  0
VERTEX
  5
A012
  8
HIDDEN
 10
-1.6965232676033359
 20
-0.4513726903999995
 30
0.0
  0
VERTEX
  5
A013
  8
HIDDEN
 10
-1.6961917740033361
 20
-0.4543603065999875
 30
0.0
  0
VERTEX
  5
A014
  8
HIDDEN
 10
-1.6958648012033359
 20
-0.4576829764999957
 30
0.0
  0
VERTEX
  5
A015
  8
HIDDEN
 10
-1.6955428820033369
 20
-0.4613352857999971
 30
0.0
  0
VERTEX
  5
A016
  8
HIDDEN
 10
-1.6952265382033369
 20
-0.4653112815999947
 30
0.0
  0
VERTEX
  5
A017
  8
HIDDEN
 10
-1.6949162854033359
 20
-0.4696044794999992
 30
0.0
  0
VERTEX
  5
A018
  8
HIDDEN
 10
-1.6946126288033361
 20
-0.4742078883000005
 30
0.0
  0
VERTEX
  5
A019
  8
HIDDEN
 10
-1.694316058603337
 20
-0.4791140220999992
 30
0.0
  0
SEQEND
  5
A01A
  8
HIDDEN
  0
LINE
  5
A96
  8
HIDDEN
 10
8.9874367080966628
 20
-0.495569949900002
 30
0.0
 11
8.7598589398966631
 21
-0.6978611549000036
 31
0.0
  0
POLYLINE
  5
AA2
  8
HIDDEN
 66
     1
 10
0.0
 20
0.0
 30
0.0
  0
VERTEX
  5
A01B
  8
HIDDEN
 10
7.2168272116966641
 20
-4.5387082499
 30
0.0
  0
VERTEX
  5
A01C
  8
HIDDEN
 10
7.2331759906966608
 20
-4.5332432390999884
 30
0.0
  0
VERTEX
  5
A01D
  8
HIDDEN
 10
7.2536156645966621
 20
-4.5258595618999991
 30
0.0
  0
VERTEX
  5
A01E
  8
HIDDEN
 10
7.2739046391966653
 20
-4.5179078947000022
 30
0.0
  0
VERTEX
  5
A01F
  8
HIDDEN
 10
7.2940309422966614
 20
-4.5093875935999987
 30
0.0
  0
VERTEX
  5
A020
  8
HIDDEN
 10
7.3139735170966631
 20
-4.5003021629999997
 30
0.0
  0
VERTEX
  5
A021
  8
HIDDEN
 10
7.3337027773966632
 20
-4.4906604588999883
 30
0.0
  0
VERTEX
  5
A022
  8
HIDDEN
 10
7.353202346996663
 20
-4.480466465300001
 30
0.0
  0
VERTEX
  5
A023
  8
HIDDEN
 10
7.372456452396662
 20
-4.4697243455999986
 30
0.0
  0
VERTEX
  5
A024
  8
HIDDEN
 10
7.3914374679966626
 20
-4.4584459817999971
 30
0.0
  0
VERTEX
  5
A025
  8
HIDDEN
 10
7.4101295738966613
 20
-4.4466378515000002
 30
0.0
  0
VERTEX
  5
A026
  8
HIDDEN
 10
7.4285179289966647
 20
-4.4343063547000021
 30
0.0
  0
VERTEX
  5
A027
  8
HIDDEN
 10
7.4465776384966631
 20
-4.4214657241999999
 30
0.0
  0
VERTEX
  5
A028
  8
HIDDEN
 10
7.4642943101966628
 20
-4.4081242875999989
 30
0.0
  0
VERTEX
  5
A029
  8
HIDDEN
 10
7.4816537050966607
 20
-4.3942908221000003
 30
0.0
  0
VERTEX
  5
A02A
  8
HIDDEN
 10
7.4986326301966626
 20
-4.3799824616999992
 30
0.0
  0
VERTEX
  5
A02B
  8
HIDDEN
 10
7.5152174187966621
 20
-4.3652100373999998
 30
0.0
  0
VERTEX
  5
A02C
  8
HIDDEN
 10
7.5313958104966607
 20
-4.3499837672999986
 30
0.0
  0
VERTEX
  5
A02D
  8
HIDDEN
 10
7.5471483170966627
 20
-4.334321789799997
 30
0.0
  0
VERTEX
  5
A02E
  8
HIDDEN
 10
7.5624611553966608
 20
-4.3182383571000003
 30
0.0
  0
VERTEX
  5
A02F
  8
HIDDEN
 10
7.5773252462966632
 20
-4.3017435683999992
 30
0.0
  0
VERTEX
  5
A030
  8
HIDDEN
 10
7.5917292573966613
 20
-4.284850422299999
 30
0.0
  0
VERTEX
  5
A031
  8
HIDDEN
 10
7.6056620916966651
 20
-4.2675724574
 30
0.0
  0
VERTEX
  5
A032
  8
HIDDEN
 10
7.6191140702966642
 20
-4.2499222178999956
 30
0.0
  0
VERTEX
  5
A033
  8
HIDDEN
 10
7.6320764392966636
 20
-4.2319115643999998
 30
0.0
  0
VERTEX
  5
A034
  8
HIDDEN
 10
7.6445395886966621
 20
-4.2135541030999981
 30
0.0
  0
VERTEX
  5
A035
  8
HIDDEN
 10
7.6564942910966627
 20
-4.1948636894999964
 30
0.0
  0
VERTEX
  5
A036
  8
HIDDEN
 10
7.6679326744966652
 20
-4.1758527586999961
 30
0.0
  0
VERTEX
  5
A037
  8
HIDDEN
 10
7.678846145996661
 20
-4.1565355720999966
 30
0.0
  0
VERTEX
  5
A038
  8
HIDDEN
 10
7.6892265106966633
 20
-4.1369266142000001
 30
0.0
  0
VERTEX
  5
A039
  8
HIDDEN
 10
7.6990668090966627
 20
-4.1170388386999974
 30
0.0
  0
VERTEX
  5
A03A
  8
HIDDEN
 10
7.7083595038966619
 20
-4.0968870951999987
 30
0.0
  0
VERTEX
  5
A03B
  8
HIDDEN
 10
7.7170974661966616
 20
-4.076486436899998
 30
0.0
  0
VERTEX
  5
A03C
  8
HIDDEN
 10
7.7252746718966634
 20
-4.0558502926000024
 30
0.0
  0
VERTEX
  5
A03D
  8
HIDDEN
 10
7.7328848872966631
 20
-4.0349934257000006
 30
0.0
  0
VERTEX
  5
A03E
  8
HIDDEN
 10
7.7399218371966638
 20
-4.013931992199999
 30
0.0
  0
VERTEX
  5
A03F
  8
HIDDEN
 10
7.7449864128966608
 20
-3.9974488520999989
 30
0.0
  0
SEQEND
  5
A040
  8
HIDDEN
  0
POLYLINE
  5
AAF
  8
HIDDEN
 66
     1
 10
0.0
 20
0.0
 30
0.0
  0
VERTEX
  5
A041
  8
HIDDEN
 10
1.7416723540966621
 20
-0.4399999614999999
 30
0.0
  0
VERTEX
  5
A042
  8
HIDDEN
 10
1.733810180496663
 20
-0.4401753548999992
 30
0.0
  0
VERTEX
  5
A043
  8
HIDDEN
 10
1.7259383869966609
 20
-0.4407012132000006
 30
0.0
  0
VERTEX
  5
A044
  8
HIDDEN
 10
1.718071423896663
 20
-0.4415765711999882
 30
0.0
  0
VERTEX
  5
A045
  8
HIDDEN
 10
1.710223733196661
 20
-0.442799821899996
 30
0.0
  0
VERTEX
  5
A046
  8
HIDDEN
 10
1.702409720996662
 20
-0.4443687201000018
 30
0.0
  0
VERTEX
  5
A047
  8
HIDDEN
 10
1.6946437310966631
 20
-0.446280385599998
 30
0.0
  0
VERTEX
  5
A048
  8
HIDDEN
 10
1.6869400196966631
 20
-0.4485313093999963
 30
0.0
  0
VERTEX
  5
A049
  8
HIDDEN
 10
1.679312728996663
 20
-0.451117359499996
 30
0.0
  0
VERTEX
  5
A04A
  8
HIDDEN
 10
1.671775860996662
 20
-0.4540337886000004
 30
0.0
  0
VERTEX
  5
A04B
  8
HIDDEN
 10
1.6643432513966621
 20
-0.4572752430999998
 30
0.0
  0
VERTEX
  5
A04C
  8
HIDDEN
 10
1.657028544596663
 20
-0.4608357724999977
 30
0.0
  0
VERTEX
  5
A04D
  8
HIDDEN
 10
1.649845168696662
 20
-0.4647088406999984
 30
0.0
  0
VERTEX
  5
A04E
  8
HIDDEN
 10
1.642806310596663
 20
-0.4688873379000001
 30
0.0
  0
VERTEX
  5
A04F
  8
HIDDEN
 10
1.635924891796662
 20
-0.473363593400002
 30
0.0
  0
VERTEX
  5
A050
  8
HIDDEN
 10
1.629213544996662
 20
-0.4781293899999995
 30
0.0
  0
VERTEX
  5
A051
  8
HIDDEN
 10
1.622684590596662
 20
-0.4831759790000021
 30
0.0
  0
VERTEX
  5
A052
  8
HIDDEN
 10
1.616350013996662
 20
-0.488494096300002
 30
0.0
  0
VERTEX
  5
A053
  8
HIDDEN
 10
1.610221444096662
 20
-0.4940739790999871
 30
0.0
  0
VERTEX
  5
A054
  8
HIDDEN
 10
1.6043101313966619
 20
-0.4999053841999981
 30
0.0
  0
VERTEX
  5
A055
  8
HIDDEN
 10
1.5986269274966629
 20
-0.5059776067999878
 30
0.0
  0
VERTEX
  5
A056
  8
HIDDEN
 10
1.593182265396663
 20
-0.5122794995999982
 30
0.0
  0
VERTEX
  5
A057
  8
HIDDEN
 10
1.587986140296662
 20
-0.5187994941999961
 30
0.0
  0
VERTEX
  5
A058
  8
HIDDEN
 10
1.583048090796662
 20
-0.5255256214
 30
0.0
  0
VERTEX
  5
A059
  8
HIDDEN
 10
1.5783771819966621
 20
-0.5324455338000007
 30
0.0
  0
VERTEX
  5
A05A
  8
HIDDEN
 10
1.573981988396663
 20
-0.539546528199999
 30
0.0
  0
VERTEX
  5
A05B
  8
HIDDEN
 10
1.5698705785966629
 20
-0.5468155689999961
 30
0.0
  0
VERTEX
  5
A05C
  8
HIDDEN
 10
1.5660504998966629
 20
-0.554239312
 30
0.0
  0
VERTEX
  5
A05D
  8
HIDDEN
 10
1.5625287651966631
 20
-0.5618041291999987
 30
0.0
  0
VERTEX
  5
A05E
  8
HIDDEN
 10
1.5593118391966629
 20
-0.569496133499989
 30
0.0
  0
VERTEX
  5
A05F
  8
HIDDEN
 10
1.556405627396662
 20
-0.5773012041999978
 30
0.0
  0
VERTEX
  5
A060
  8
HIDDEN
 10
1.5538154646966631
 20
-0.5852050186
 30
0.0
  0
VERTEX
  5
A061
  8
HIDDEN
 10
1.5515461060966631
 20
-0.593193062200001
 30
0.0
  0
VERTEX
  5
A062
  8
HIDDEN
 10
1.549601717596663
 20
-0.6012506542999958
 30
0.0
  0
VERTEX
  5
A063
  8
HIDDEN
 10
1.5479858669966611
 20
-0.6093629974999999
 30
0.0
  0
VERTEX
  5
A064
  8
HIDDEN
 10
1.5467015186966631
 20
-0.6175152048000001
 30
0.0
  0
VERTEX
  5
A065
  8
HIDDEN
 10
1.5457510291966621
 20
-0.6256923109999875
 30
0.0
  0
SEQEND
  5
A066
  8
HIDDEN
  0
LINE
  5
AD5
  8
HIDDEN
 10
-9.6890283350033375
 20
-0.4399999999999978
 30
0.0
 11
9.7843587348966636
 21
-0.4399999999999978
 31
0.0
  0
POLYLINE
  5
AF8
  8
HIDDEN
 66
     1
 10
0.0
 20
0.0
 30
0.0
  0
VERTEX
  5
A067
  8
HIDDEN
 10
-1.646341954203338
 20
-0.4399999614999999
 30
0.0
  0
VERTEX
  5
A068
  8
HIDDEN
 10
-1.6384797807033371
 20
-0.4401753548999992
 30
0.0
  0
VERTEX
  5
A069
  8
HIDDEN
 10
-1.6306079871033381
 20
-0.4407012132000006
 30
0.0
  0
VERTEX
  5
A06A
  8
HIDDEN
 10
-1.622741024103336
 20
-0.4415765711999882
 30
0.0
  0
VERTEX
  5
A06B
  8
HIDDEN
 10
-1.6148933334033371
 20
-0.442799821899996
 30
0.0
  0
VERTEX
  5
A06C
  8
HIDDEN
 10
-1.607079321103337
 20
-0.4443687201000018
 30
0.0
  0
VERTEX
  5
A06D
  8
HIDDEN
 10
-1.5993133312033381
 20
-0.446280385599998
 30
0.0
  0
VERTEX
  5
A06E
  8
HIDDEN
 10
-1.591609619803336
 20
-0.4485313093999963
 30
0.0
  0
VERTEX
  5
A06F
  8
HIDDEN
 10
-1.583982329103337
 20
-0.451117359499996
 30
0.0
  0
VERTEX
  5
A070
  8
HIDDEN
 10
-1.5764454611033369
 20
-0.4540337886000004
 30
0.0
  0
VERTEX
  5
A071
  8
HIDDEN
 10
-1.569012851503337
 20
-0.4572752430999998
 30
0.0
  0
VERTEX
  5
A072
  8
HIDDEN
 10
-1.561698144703338
 20
-0.4608357724999977
 30
0.0
  0
VERTEX
  5
A073
  8
HIDDEN
 10
-1.5545147688033361
 20
-0.4647088406999984
 30
0.0
  0
VERTEX
  5
A074
  8
HIDDEN
 10
-1.547475910703338
 20
-0.4688873379000001
 30
0.0
  0
VERTEX
  5
A075
  8
HIDDEN
 10
-1.540594491903337
 20
-0.473363593400002
 30
0.0
  0
VERTEX
  5
A076
  8
HIDDEN
 10
-1.5338831451033359
 20
-0.4781293899999995
 30
0.0
  0
VERTEX
  5
A077
  8
HIDDEN
 10
-1.5273541907033381
 20
-0.4831759790000021
 30
0.0
  0
VERTEX
  5
A078
  8
HIDDEN
 10
-1.5210196141033361
 20
-0.488494096300002
 30
0.0
  0
VERTEX
  5
A079
  8
HIDDEN
 10
-1.5148910442033381
 20
-0.4940739790999871
 30
0.0
  0
VERTEX
  5
A07A
  8
HIDDEN
 10
-1.508979731503336
 20
-0.4999053841999981
 30
0.0
  0
VERTEX
  5
A07B
  8
HIDDEN
 10
-1.5032965276033361
 20
-0.5059776067999878
 30
0.0
  0
VERTEX
  5
A07C
  8
HIDDEN
 10
-1.4978518656033371
 20
-0.5122794995999982
 30
0.0
  0
VERTEX
  5
A07D
  8
HIDDEN
 10
-1.492655740503338
 20
-0.5187994941999961
 30
0.0
  0
VERTEX
  5
A07E
  8
HIDDEN
 10
-1.4877176909033381
 20
-0.5255256214
 30
0.0
  0
VERTEX
  5
A07F
  8
HIDDEN
 10
-1.483046782103338
 20
-0.5324455338000007
 30
0.0
  0
VERTEX
  5
A080
  8
HIDDEN
 10
-1.478651588603336
 20
-0.539546528199999
 30
0.0
  0
VERTEX
  5
A081
  8
HIDDEN
 10
-1.4745401787033361
 20
-0.5468155689999961
 30
0.0
  0
VERTEX
  5
A082
  8
HIDDEN
 10
-1.4707201001033381
 20
-0.554239312
 30
0.0
  0
VERTEX
  5
A083
  8
HIDDEN
 10
-1.467198365303336
 20
-0.5618041291999987
 30
0.0
  0
VERTEX
  5
A084
  8
HIDDEN
 10
-1.463981439303337
 20
-0.569496133499989
 30
0.0
  0
VERTEX
  5
A085
  8
HIDDEN
 10
-1.4610752276033381
 20
-0.5773012041999978
 30
0.0
  0
VERTEX
  5
A086
  8
HIDDEN
 10
-1.458485064803337
 20
-0.5852050186
 30
0.0
  0
VERTEX
  5
A087
  8
HIDDEN
 10
-1.4562157063033361
 20
-0.593193062200001
 30
0.0
  0
VERTEX
  5
A088
  8
HIDDEN
 10
-1.454271317803336
 20
-0.6012506542999958
 30
0.0
  0
VERTEX
  5
A089
  8
HIDDEN
 10
-1.4526554671033369
 20
-0.6093629974999999
 30
0.0
  0
VERTEX
  5
A08A
  8
HIDDEN
 10
-1.451371118903336
 20
-0.6175152048000001
 30
0.0
  0
VERTEX
  5
A08B
  8
HIDDEN
 10
-1.4504206293033379
 20
-0.6256923109999875
 30
0.0
  0
SEQEND
  5
A08C
  8
HIDDEN
  0
POLYLINE
  5
B05
  8
HIDDEN
 66
     1
 10
0.0
 20
0.0
 30
0.0
  0
VERTEX
  5
A08D
  8
HIDDEN
 10
8.7439143860966624
 20
-0.713356877599999
 30
0.0
  0
VERTEX
  5
A08E
  8
HIDDEN
 10
8.7473721371966633
 20
-0.7097563685999972
 30
0.0
  0
VERTEX
  5
A08F
  8
HIDDEN
 10
8.7514343042966622
 20
-0.7057042355999883
 30
0.0
  0
VERTEX
  5
A090
  8
HIDDEN
 10
8.7559478843966652
 20
-0.701412323699998
 30
0.0
  0
VERTEX
  5
A091
  8
HIDDEN
 10
8.7598589398966631
 20
-0.6978611549000036
 30
0.0
  0
SEQEND
  5
A092
  8
HIDDEN
  0
LINE
  5
B12
  8
0
 10
-9.6380711624033371
 20
0.0
 30
0.0
 11
9.7334015622966632
 21
0.0
 31
0.0
  0
POLYLINE
  5
B1A
  8
HIDDEN
 66
     1
 10
0.0
 20
0.0
 30
0.0
  0
VERTEX
  5
A093
  8
HIDDEN
 10
8.7376825580966617
 20
-0.7202281311000008
 30
0.0
  0
VERTEX
  5
A094
  8
HIDDEN
 10
8.7408587488966631
 20
-0.716662049
 30
0.0
  0
VERTEX
  5
A095
  8
HIDDEN
 10
8.7439143860966624
 20
-0.713356877599999
 30
0.0
  0
SEQEND
  5
A096
  8
HIDDEN
  0
LINE
  5
B2B
  8
HIDDEN
 10
7.7449850678966641
 20
-3.9974483263999971
 30
0.0
 11
8.6862077809966536
 21
-0.8138351449999987
 31
0.0
  0
POLYLINE
  5
B2C
  8
HIDDEN
 66
     1
 10
0.0
 20
0.0
 30
0.0
  0
VERTEX
  5
A097
  8
HIDDEN
 10
8.6862076380966613
 20
-0.8138349883999964
 30
0.0
  0
VERTEX
  5
A098
  8
HIDDEN
 10
8.6869055903966625
 20
-0.8115156054999985
 30
0.0
  0
VERTEX
  5
A099
  8
HIDDEN
 10
8.6889823974966625
 20
-0.8050485061999879
 30
0.0
  0
VERTEX
  5
A09A
  8
HIDDEN
 10
8.6912097687966607
 20
-0.7987066743
 30
0.0
  0
VERTEX
  5
A09B
  8
HIDDEN
 10
8.6935807457966625
 20
-0.7924927091999976
 30
0.0
  0
VERTEX
  5
A09C
  8
HIDDEN
 10
8.6960883409966634
 20
-0.7864090922999978
 30
0.0
  0
VERTEX
  5
A09D
  8
HIDDEN
 10
8.6987255236966625
 20
-0.7804581855999971
 30
0.0
  0
VERTEX
  5
A09E
  8
HIDDEN
 10
8.7014854822966612
 20
-0.7746416697999976
 30
0.0
  0
VERTEX
  5
A09F
  8
HIDDEN
 10
8.7043613791966656
 20
-0.7689611567000015
 30
0.0
  0
VERTEX
  5
A0A0
  8
HIDDEN
 10
8.7073461860966646
 20
-0.7634184517999998
 30
0.0
  0
VERTEX
  5
A0A1
  8
HIDDEN
 10
8.7104354504966643
 20
-0.7580107396999978
 30
0.0
  0
VERTEX
  5
A0A2
  8
HIDDEN
 10
8.7136205799966646
 20
-0.7527425854000001
 30
0.0
  0
VERTEX
  5
A0A3
  8
HIDDEN
 10
8.7168875708966631
 20
-0.7476259366999969
 30
0.0
  0
VERTEX
  5
A0A4
  8
HIDDEN
 10
8.7202304186966622
 20
-0.7426587656999999
 30
0.0
  0
VERTEX
  5
A0A5
  8
HIDDEN
 10
8.723641023396663
 20
-0.7378422430999976
 30
0.0
  0
VERTEX
  5
A0A6
  8
HIDDEN
 10
8.7271004667966636
 20
-0.7331914032999976
 30
0.0
  0
VERTEX
  5
A0A7
  8
HIDDEN
 10
8.7306319855966628
 20
-0.7286655895999985
 30
0.0
  0
VERTEX
  5
A0A8
  8
HIDDEN
 10
8.7341988353966613
 20
-0.7243028940999992
 30
0.0
  0
VERTEX
  5
A0A9
  8
HIDDEN
 10
8.7376825580966617
 20
-0.7202281311000008
 30
0.0
  0
SEQEND
  5
A0AA
  8
HIDDEN
  0
LINE
  5
B2D
  8
HIDDEN
 10
9.8533284614966625
 20
-0.1241879395999987
 30
0.0
 11
9.8443221844966651
 21
-0.3820939697999961
 31
0.0
  0
ARC
  5
E0B
  8
HIDDEN
 10
-1.0624719947033361
 20
-7.25
 30
0.0
 40
0.25
 50
183.57633437499979
 51
270.0
  0
ARC
  5
E0C
  8
HIDDEN
 10
1.1578023945966629
 20
-7.25
 30
0.0
 40
0.25
 50
270.0
 51
356.42366562499978
  0
ARC
  5
E0D
  8
HIDDEN
 10
9.1335967532966613
 20
-0.6599999999999966
 30
0.0
 40
0.2200000001
 50
90.000000163699923
 51
131.63353945890009
  0
ARC
  5
E0E
  8
HIDDEN
 10
-9.0382663528033351
 20
-0.6599999999999966
 30
0.0
 40
0.22
 50
48.36646066340014
 51
90.0
  0
ARC
  5
E0F
  8
0
 10
9.7334015622966632
 20
-0.1199999999999974
 30
0.0
 40
0.12
 50
358.0
 51
90.0
  0
ARC
  5
E10
  8
0
 10
-9.6380711624033371
 20
-0.1199999999999974
 30
0.0
 40
0.12
 50
90.0
 51
182.0
  0
ARC
  5
E11
  8
HIDDEN
 10
9.7843586330966623
 20
-0.3799999999999954
 30
0.0
 40
0.06
 50
270.00009714970003
 51
358.0000033904999
  0
ARC
  5
E12
  8
HIDDEN
 10
-9.6890282333033362
 20
-0.3799999999999954
 30
0.0
 40
0.06
 50
181.99999660949999
 51
269.99990285029992
  0
ATTDEF
  5
5435
  8
0
 62
     7
 10
-0.0041154719936856
 20
-0.012300316362925
 30
0.0
 40
0.001
  1
VITREOUS CHINA
  3

  2
MATERIAL
 70
     8
  0
ATTDEF
  5
5436
  8
0
 62
     7
 10
-0.0041154719936856
 20
-0.010633316362906
 30
0.0
 40
0.001
  1
LAVATORY
  3

  2
PRODUCT
 70
     8
  0
ATTDEF
  5
5437
  8
0
 62
     7
 10
-0.0041154719936856
 20
-0.0089673163629058
 30
0.0
 40
0.001
  1
ARCHER
  3

  2
TRADENAME
 70
     8
  0
ATTDEF
  5
5438
  8
0
 62
     7
 10
-0.0041154719936856
 20
-0.0073003163629224
 30
0.0
 40
0.001
  1
K-2355
  3

  2
MODELNUMBER
 70
     8
  0
ENDSEC
  0
EOF
