  0
SECTION
  2
HEADER
  9
$ACADVER
  1
AC1009
  9
$INSBASE
 10
0.0
 20
0.0
 30
0.0
  9
$EXTMIN
 10
-9.8084841543791157
 20
-7.7662132956426433
 30
-0.0000000349181948
  9
$EXTMAX
 10
9.8082909470571593
 20
7.5578163315082341
 30
0.0000000814935747
  9
$LIMMIN
 10
0.0
 20
0.0
  9
$LIMMAX
 10
34.0
 20
22.0
  9
$ORTHOMODE
 70
     1
  9
$REGENMODE
 70
     1
  9
$FILLMODE
 70
     1
  9
$QTEXTMODE
 70
     0
  9
$MIRRTEXT
 70
     0
  9
$DRAGMODE
 70
     2
  9
$LTSCALE
 40
1.8700000000000001
  9
$OSMODE
 70
  2727
  9
$ATTMODE
 70
     1
  9
$TEXTSIZE
 40
0.2
  9
$TRACEWID
 40
0.05
  9
$TEXTSTYLE
  7
STANDARD
  9
$CLAYER
  8
0
  9
$CELTYPE
  6
BYLAYER
  9
$CECOLOR
 62
   256
  9
$DIMSCALE
 40
1.0
  9
$DIMASZ
 40
0.1875
  9
$DIMEXO
 40
0.2125
  9
$DIMDLI
 40
1.291999999999998
  9
$DIMRND
 40
0.0
  9
$DIMDLE
 40
0.0
  9
$DIMEXE
 40
0.612
  9
$DIMTP
 40
0.01
  9
$DIMTM
 40
0.01
  9
$DIMTXT
 40
0.15625
  9
$DIMCEN
 40
0.306
  9
$DIMTSZ
 40
0.0
  9
$DIMTOL
 70
     1
  9
$DIMLIM
 70
     0
  9
$DIMTIH
 70
     1
  9
$DIMTOH
 70
     1
  9
$DIMSE1
 70
     0
  9
$DIMSE2
 70
     0
  9
$DIMTAD
 70
     0
  9
$DIMZIN
 70
     0
  9
$DIMBLK
  1
_ARROW_FILLED
  9
$DIMASO
 70
     1
  9
$DIMSHO
 70
     1
  9
$DIMPOST
  1

  9
$DIMAPOST
  1

  9
$DIMALT
 70
     0
  9
$DIMALTD
 70
     2
  9
$DIMALTF
 40
25.399999999999999
  9
$DIMLFAC
 40
1.0
  9
$DIMTOFL
 70
     0
  9
$DIMTVP
 40
0.0
  9
$DIMTIX
 70
     0
  9
$DIMSOXD
 70
     0
  9
$DIMSAH
 70
     0
  9
$DIMBLK1
  1

  9
$DIMBLK2
  1

  9
$DIMSTYLE
  2
STANDARD
  9
$DIMCLRD
 70
     0
  9
$DIMCLRE
 70
     0
  9
$DIMCLRT
 70
     0
  9
$DIMTFAC
 40
1.0
  9
$DIMGAP
 40
0.09
  9
$LUNITS
 70
     2
  9
$LUPREC
 70
     4
  9
$SKETCHINC
 40
0.1
  9
$FILLETRAD
 40
0.0
  9
$AUNITS
 70
     0
  9
$AUPREC
 70
     0
  9
$MENU
  1
.
  9
$ELEVATION
 40
0.0
  9
$PELEVATION
 40
0.0
  9
$THICKNESS
 40
0.0
  9
$LIMCHECK
 70
     0
  9
$BLIPMODE
 70
     0
  9
$CHAMFERA
 40
0.0
  9
$CHAMFERB
 40
0.0
  9
$SKPOLY
 70
     0
  9
$TDCREATE
 40
2454497.501335382
  9
$TDUPDATE
 40
2454497.5256812391
  9
$TDINDWG
 40
0.0237445486
  9
$TDUSRTIMER
 40
0.0237443634
  9
$USRTIMER
 70
     1
  9
$ANGBASE
 50
0.0
  9
$ANGDIR
 70
     0
  9
$PDMODE
 70
     3
  9
$PDSIZE
 40
0.3125
  9
$PLINEWID
 40
0.0
  9
$COORDS
 70
     1
  9
$SPLFRAME
 70
     0
  9
$SPLINETYPE
 70
     6
  9
$SPLINESEGS
 70
     8
  9
$ATTDIA
 70
     0
  9
$ATTREQ
 70
     1
  9
$HANDLING
 70
     1
  9
$HANDSEED
  5
7A74
  9
$SURFTAB1
 70
     6
  9
$SURFTAB2
 70
     6
  9
$SURFTYPE
 70
     6
  9
$SURFU
 70
     6
  9
$SURFV
 70
     6
  9
$UCSNAME
  2

  9
$UCSORG
 10
0.0
 20
0.0
 30
0.0
  9
$UCSXDIR
 10
1.0
 20
0.0
 30
0.0
  9
$UCSYDIR
 10
0.0
 20
1.0
 30
0.0
  9
$PUCSNAME
  2

  9
$PUCSORG
 10
0.0
 20
0.0
 30
0.0
  9
$PUCSXDIR
 10
1.0
 20
0.0
 30
0.0
  9
$PUCSYDIR
 10
0.0
 20
1.0
 30
0.0
  9
$USERI1
 70
     0
  9
$USERI2
 70
     0
  9
$USERI3
 70
     0
  9
$USERI4
 70
     0
  9
$USERI5
 70
     0
  9
$USERR1
 40
0.0
  9
$USERR2
 40
0.0
  9
$USERR3
 40
0.0
  9
$USERR4
 40
0.0
  9
$USERR5
 40
0.0
  9
$WORLDVIEW
 70
     1
  9
$SHADEDGE
 70
     3
  9
$SHADEDIF
 70
    70
  9
$TILEMODE
 70
     1
  9
$MAXACTVP
 70
    64
  9
$PLIMCHECK
 70
     0
  9
$PEXTMIN
 10
1.0000000000000000E+020
 20
1.0000000000000000E+020
 30
1.0000000000000000E+020
  9
$PEXTMAX
 10
-1.0000000000000000E+020
 20
-1.0000000000000000E+020
 30
-1.0000000000000000E+020
  9
$PLIMMIN
 10
0.0
 20
0.0
  9
$PLIMMAX
 10
12.0
 20
9.0
  9
$UNITMODE
 70
     0
  9
$VISRETAIN
 70
     1
  9
$PLINEGEN
 70
     0
  9
$PSLTSCALE
 70
     1
  0
ENDSEC
  0
SECTION
  2
TABLES
  0
TABLE
  2
VPORT
 70
     1
  0
VPORT
  2
*ACTIVE
 70
     0
 10
0.0
 20
0.0
 11
1.0
 21
1.0
 12
5.4812923082428782
 22
0.1122646794907247
 13
0.0
 23
0.0
 14
1.0
 24
1.0
 15
0.0
 25
0.0
 16
0.0
 26
0.0
 36
1.0
 17
0.0
 27
0.0
 37
0.0
 40
39.498044615925522
 41
1.6666666666666661
 42
50.0
 43
0.0
 44
0.0
 50
0.0
 51
0.0
 71
     0
 72
   100
 73
     1
 74
     1
 75
     0
 76
     0
 77
     0
 78
     0
  0
ENDTAB
  0
TABLE
  2
LTYPE
 70
     2
  0
LTYPE
  2
CONTINUOUS
 70
     0
  3
Solid line
 72
    65
 73
     0
 40
0.0
  0
ENDTAB
  0
TABLE
  2
LAYER
 70
     2
  0
LAYER
  2
0
 70
     0
 62
     7
  6
CONTINUOUS
  0
ENDTAB
  0
TABLE
  2
STYLE
 70
     2
  0
STYLE
  2
STANDARD
 70
     0
 40
0.0
 41
0.8
 50
0.0
 71
     0
 42
0.2
  3
txt
  4

  0
ENDTAB
  0
TABLE
  2
VIEW
 70
     0
  0
ENDTAB
  0
TABLE
  2
UCS
 70
     0
  0
ENDTAB
  0
TABLE
  2
APPID
 70
     2
  0
APPID
  2
ACAD
 70
     0
  0
APPID
  2
ACAECLAYERSTANDARD
 70
     0
  0
ENDTAB
  0
TABLE
  2
DIMSTYLE
 70
     1
  0
DIMSTYLE
  2
STANDARD
 70
     0
  3

  4

  5

  6

  7

 40
1.0
 41
0.1875
 42
0.0625
 43
0.38
 44
0.18
 45
0.0
 46
0.0
 47
0.01
 48
0.01
140
0.15625
141
0.09
142
0.0
143
25.399999999999999
144
1.0
145
0.0
146
1.0
147
0.09
 71
     1
 72
     0
 73
     1
 74
     1
 75
     0
 76
     0
 77
     0
 78
     4
170
     0
171
     2
172
     0
173
     0
174
     0
175
     0
176
     0
177
     0
178
     0
  0
ENDTAB
  0
ENDSEC
  0
SECTION
  2
BLOCKS
  0
BLOCK
  8
0
  2
$MODEL_SPACE
 70
     0
 10
0.0
 20
0.0
 30
0.0
  3
$MODEL_SPACE
  1

  0
ENDBLK
  5
71AA
  8
0
  0
BLOCK
 67
     1
  8
0
  2
$PAPER_SPACE
 70
     0
 10
0.0
 20
0.0
 30
0.0
  3
$PAPER_SPACE
  1

  0
ENDBLK
  5
71A6
 67
     1
  8
0
  0
BLOCK
  8
0
  2
_ARROW_FILLED
 70
     0
 10
0.0
 20
0.0
 30
0.0
  3
_ARROW_FILLED
  1

  0
SOLID
  5
390
  8
0
  6
BYBLOCK
 62
     0
 10
0.0
 20
0.0
 30
0.0
 11
-1.0
 21
0.1666666667
 31
0.0
 12
-1.0
 22
-0.1666666667
 32
0.0
 13
-1.0
 23
-0.1666666667
 33
0.0
  0
ENDBLK
  5
391
  8
0
  6
BYBLOCK
 62
     0
  0
ENDSEC
  0
SECTION
  2
ENTITIES
  0
LINE
  5
42B
  8
0
 10
-9.8057363622999993
 20
7.3577400224000007
 30
0.0
 11
-9.8057363622999993
 21
-6.5864436330999956
 31
0.0
  0
POLYLINE
  5
431
  8
0
 66
     1
 10
0.0
 20
0.0
 30
0.0
  0
VERTEX
  5
71DE
  8
0
 10
-8.2337392327999996
 20
-5.0722885015999921
 30
0.0
  0
VERTEX
  5
71DF
  8
0
 10
-8.2328390762999994
 20
-5.0819420156000064
 30
0.0
  0
VERTEX
  5
71E0
  8
0
 10
-8.2315745056999994
 20
-5.0915792884999931
 30
0.0
  0
VERTEX
  5
71E1
  8
0
 10
-8.2299489705000006
 20
-5.1011854793999936
 30
0.0
  0
VERTEX
  5
71E2
  8
0
 10
-8.2279659462999994
 20
-5.110745633300005
 30
0.0
  0
VERTEX
  5
71E3
  8
0
 10
-8.2256288648999991
 20
-5.1202450262000019
 30
0.0
  0
VERTEX
  5
71E4
  8
0
 10
-8.2229410725999994
 20
-5.129669156599995
 30
0.0
  0
VERTEX
  5
71E5
  8
0
 10
-8.2199058887999996
 20
-5.1390034428999982
 30
0.0
  0
VERTEX
  5
71E6
  8
0
 10
-8.2165267984000003
 20
-5.1482327598999973
 30
0.0
  0
VERTEX
  5
71E7
  8
0
 10
-8.2128077142000002
 20
-5.157341903999999
 30
0.0
  0
VERTEX
  5
71E8
  8
0
 10
-8.2087551325000003
 20
-5.1663169005999938
 30
0.0
  0
VERTEX
  5
71E9
  8
0
 10
-8.2043767520999982
 20
-5.175144623600004
 30
0.0
  0
VERTEX
  5
71EA
  8
0
 10
-8.1996803045999993
 20
-5.1838118543999983
 30
0.0
  0
VERTEX
  5
71EB
  8
0
 10
-8.1946736046000002
 20
-5.1923052118999991
 30
0.0
  0
VERTEX
  5
71EC
  8
0
 10
-8.1893643832999992
 20
-5.2006114624999986
 30
0.0
  0
VERTEX
  5
71ED
  8
0
 10
-8.1837602044000004
 20
-5.208717584699996
 30
0.0
  0
VERTEX
  5
71EE
  8
0
 10
-8.177868633300001
 20
-5.2166104715999921
 30
0.0
  0
VERTEX
  5
71EF
  8
0
 10
-8.1716976401999997
 20
-5.2242766163999974
 30
0.0
  0
VERTEX
  5
71F0
  8
0
 10
-8.1652570553999997
 20
-5.2317038069999953
 30
0.0
  0
VERTEX
  5
71F1
  8
0
 10
-8.1585582984999991
 20
-5.2388814625999984
 30
0.0
  0
VERTEX
  5
71F2
  8
0
 10
-8.1516124829999992
 20
-5.2457994856999974
 30
0.0
  0
VERTEX
  5
71F3
  8
0
 10
-8.1444306404999995
 20
-5.2524477965999941
 30
0.0
  0
VERTEX
  5
71F4
  8
0
 10
-8.1370239742999981
 20
-5.258816107099995
 30
0.0
  0
VERTEX
  5
71F5
  8
0
 10
-8.1294038133999997
 20
-5.2648940166999969
 30
0.0
  0
VERTEX
  5
71F6
  8
0
 10
-8.1215813462999993
 20
-5.2706712395999977
 30
0.0
  0
VERTEX
  5
71F7
  8
0
 10
-8.1135676796999991
 20
-5.2761375399999864
 30
0.0
  0
VERTEX
  5
71F8
  8
0
 10
-8.1053749585000006
 20
-5.2812837348999864
 30
0.0
  0
VERTEX
  5
71F9
  8
0
 10
-8.0970169904000002
 20
-5.2861030138999956
 30
0.0
  0
VERTEX
  5
71FA
  8
0
 10
-8.0885075885000006
 20
-5.2905890128999991
 30
0.0
  0
VERTEX
  5
71FB
  8
0
 10
-8.0798600776999994
 20
-5.2947356368999996
 30
0.0
  0
VERTEX
  5
71FC
  8
0
 10
-8.0710877007999997
 20
-5.2985367790999973
 30
0.0
  0
VERTEX
  5
71FD
  8
0
 10
-8.0622038974999999
 20
-5.3019862041999977
 30
0.0
  0
VERTEX
  5
71FE
  8
0
 10
-8.0532223199999997
 20
-5.3050775896999971
 30
0.0
  0
VERTEX
  5
71FF
  8
0
 10
-8.0441565164999993
 20
-5.3078046605999978
 30
0.0
  0
SEQEND
  5
7200
  8
0
  0
POLYLINE
  5
432
  8
0
 66
     1
 10
0.0
 20
0.0
 30
0.0
  0
VERTEX
  5
7201
  8
0
 10
-8.8806239221999999
 20
-5.5863756328999941
 30
0.0
  0
VERTEX
  5
7202
  8
0
 10
-8.8804843925999997
 20
-5.5957596996999959
 30
0.0
  0
VERTEX
  5
7203
  8
0
 10
-8.8800941947999998
 20
-5.6049614070999993
 30
0.0
  0
VERTEX
  5
7204
  8
0
 10
-8.8794533289000004
 20
-5.6139807548999912
 30
0.0
  0
VERTEX
  5
7205
  8
0
 10
-8.8785588948999994
 20
-5.6228118957999982
 30
0.0
  0
VERTEX
  5
7206
  8
0
 10
-8.8774137927000005
 20
-5.6314606771999962
 30
0.0
  0
VERTEX
  5
7207
  8
0
 10
-8.8760267223000007
 20
-5.639944641299997
 30
0.0
  0
VERTEX
  5
7208
  8
0
 10
-8.8743947594999995
 20
-5.6482786941999938
 30
0.0
  0
VERTEX
  5
7209
  8
0
 10
-8.8725208283000008
 20
-5.656447929899997
 30
0.0
  0
VERTEX
  5
720A
  8
0
 10
-8.8704224012000008
 20
-5.6644251723999943
 30
0.0
  0
VERTEX
  5
720B
  8
0
 10
-8.8681003753999992
 20
-5.6722012740999972
 30
0.0
  0
VERTEX
  5
720C
  8
0
 10
-8.8655538536999998
 20
-5.6797853826000022
 30
0.0
  0
VERTEX
  5
720D
  8
0
 10
-8.8627976160999982
 20
-5.6871777641999941
 30
0.0
  0
VERTEX
  5
720E
  8
0
 10
-8.8598327447000003
 20
-5.6943767518999939
 30
0.0
  0
VERTEX
  5
720F
  8
0
 10
-8.8566581574000001
 20
-5.7013840126999957
 30
0.0
  0
VERTEX
  5
7210
  8
0
 10
-8.8532853878999997
 20
-5.708204814099993
 30
0.0
  0
VERTEX
  5
7211
  8
0
 10
-8.8497166973999999
 20
-5.7148374797999963
 30
0.0
  0
VERTEX
  5
7212
  8
0
 10
-8.8459498246999981
 20
-5.7212836859999916
 30
0.0
  0
VERTEX
  5
7213
  8
0
 10
-8.8419895200000003
 20
-5.7275537291999958
 30
0.0
  0
VERTEX
  5
7214
  8
0
 10
-8.8378391161999996
 20
-5.7336466788999942
 30
0.0
  0
VERTEX
  5
7215
  8
0
 10
-8.8334952802999993
 20
-5.7395634655999848
 30
0.0
  0
VERTEX
  5
7216
  8
0
 10
-8.8289527648000004
 20
-5.745317177399996
 30
0.0
  0
VERTEX
  5
7217
  8
0
 10
-8.8242135129000001
 20
-5.7509097840999948
 30
0.0
  0
VERTEX
  5
7218
  8
0
 10
-8.8192755813999995
 20
-5.7563393159999938
 30
0.0
  0
VERTEX
  5
7219
  8
0
 10
-8.8141278919000001
 20
-5.7616129522999984
 30
0.0
  0
VERTEX
  5
721A
  8
0
 10
-8.8087700550000001
 20
-5.7667340912999938
 30
0.0
  0
VERTEX
  5
721B
  8
0
 10
-8.8032024600999996
 20
-5.7716993346999947
 30
0.0
  0
VERTEX
  5
721C
  8
0
 10
-8.7974151982999995
 20
-5.7765056665999941
 30
0.0
  0
VERTEX
  5
721D
  8
0
 10
-8.7914070478999982
 20
-5.7811554864999968
 30
0.0
  0
VERTEX
  5
721E
  8
0
 10
-8.7851792305000007
 20
-5.7856463948999908
 30
0.0
  0
VERTEX
  5
721F
  8
0
 10
-8.7787255013000003
 20
-5.7899681767999951
 30
0.0
  0
VERTEX
  5
7220
  8
0
 10
-8.7720440946
 20
-5.7941222353000006
 30
0.0
  0
VERTEX
  5
7221
  8
0
 10
-8.7651367761000003
 20
-5.7981071672999951
 30
0.0
  0
VERTEX
  5
7222
  8
0
 10
-8.7580025980999991
 20
-5.8019085485999957
 30
0.0
  0
VERTEX
  5
7223
  8
0
 10
-8.7506392630000001
 20
-5.8055269277999946
 30
0.0
  0
VERTEX
  5
7224
  8
0
 10
-8.7430490683999995
 20
-5.8089617562999996
 30
0.0
  0
VERTEX
  5
7225
  8
0
 10
-8.7352379595999992
 20
-5.8121969630999848
 30
0.0
  0
VERTEX
  5
7226
  8
0
 10
-8.7272024753000004
 20
-5.8152324628999992
 30
0.0
  0
VERTEX
  5
7227
  8
0
 10
-8.7189460768
 20
-5.818068340999992
 30
0.0
  0
VERTEX
  5
7228
  8
0
 10
-8.7104850931000009
 20
-5.8206887821999942
 30
0.0
  0
VERTEX
  5
7229
  8
0
 10
-8.7018249672000003
 20
-5.8230885148999931
 30
0.0
  0
VERTEX
  5
722A
  8
0
 10
-8.6929602559999992
 20
-5.8252728106999987
 30
0.0
  0
VERTEX
  5
722B
  8
0
 10
-8.6838909595999993
 20
-5.827241669699994
 30
0.0
  0
SEQEND
  5
722C
  8
0
  0
LINE
  5
435
  8
0
 10
-8.8806239186999996
 20
6.1776835801000161
 30
0.0
 11
-8.8806239221999999
 21
-5.5863756328999941
 31
0.0
  0
LINE
  5
437
  8
0
 10
-8.2473758907000008
 20
-0.051726763299996
 30
0.0
 11
-8.2337392328999996
 21
-5.0722885015999921
 31
0.0
  0
LINE
  5
438
  8
0
 10
-8.2473708042999991
 20
0.5777183777999895
 30
0.0
 11
-8.2473758907000008
 21
-0.051726763299996
 31
0.0
  0
LINE
  5
439
  8
0
 10
-8.2471873309999992
 20
1.718137274900001
 30
0.0
 11
-8.2473708042999991
 21
0.5777183777999895
 31
0.0
  0
LINE
  5
43A
  8
0
 10
-8.2412465175000005
 20
5.5616888313000032
 30
0.0
 11
-8.2471873309999992
 21
1.718137274900001
 31
0.0
  0
LINE
  5
43B
  8
0
 10
-9.7116758839999981
 20
-6.7035944971999859
 30
0.0
 11
-9.7116779752000006
 21
-6.7036060490000011
 31
0.0
  0
POLYLINE
  5
43C
  8
0
 66
     1
 10
0.0
 20
0.0
 30
0.0
  0
VERTEX
  5
722D
  8
0
 10
-9.7116742819000006
 20
-6.7036068699999936
 30
0.0
  0
VERTEX
  5
722E
  8
0
 10
-9.3969065465000003
 20
-6.7721079473999941
 30
0.0
  0
VERTEX
  5
722F
  8
0
 10
-9.0773013903000006
 20
-6.8392486516999957
 30
0.0
  0
VERTEX
  5
7230
  8
0
 10
-8.7572117945999999
 20
-6.9040653997999959
 30
0.0
  0
VERTEX
  5
7231
  8
0
 10
-8.4366563394000007
 20
-6.9665544172999949
 30
0.0
  0
VERTEX
  5
7232
  8
0
 10
-8.1156518667000004
 20
-7.0267124103
 30
0.0
  0
VERTEX
  5
7233
  8
0
 10
-7.7942149049999996
 20
-7.0845361849999966
 30
0.0
  0
VERTEX
  5
7234
  8
0
 10
-7.4723614730000012
 20
-7.140022703699997
 30
0.0
  0
VERTEX
  5
7235
  8
0
 10
-7.1501090723000003
 20
-7.1931689197999944
 30
0.0
  0
VERTEX
  5
7236
  8
0
 10
-6.827476464800001
 20
-7.2439716642999983
 30
0.0
  0
VERTEX
  5
7237
  8
0
 10
-6.5044808194999986
 20
-7.2924281151999963
 30
0.0
  0
VERTEX
  5
7238
  8
0
 10
-6.1811391845000001
 20
-7.3385357278000001
 30
0.0
  0
VERTEX
  5
7239
  8
0
 10
-5.8574701527999986
 20
-7.3822918165000004
 30
0.0
  0
VERTEX
  5
723A
  8
0
 10
-5.5334909120000013
 20
-7.4236939807000013
 30
0.0
  0
VERTEX
  5
723B
  8
0
 10
-5.2092184585999997
 20
-7.4627400954999947
 30
0.0
  0
VERTEX
  5
723C
  8
0
 10
-4.8846711067999991
 20
-7.4994279484999993
 30
0.0
  0
VERTEX
  5
723D
  8
0
 10
-4.5598663678999989
 20
-7.5337555088999926
 30
0.0
  0
VERTEX
  5
723E
  8
0
 10
-4.2348210627
 20
-7.5657210760999973
 30
0.0
  0
VERTEX
  5
723F
  8
0
 10
-3.9095524727999988
 20
-7.5953229603999972
 30
0.0
  0
VERTEX
  5
7240
  8
0
 10
-3.5840778298
 20
-7.6225595426000012
 30
0.0
  0
VERTEX
  5
7241
  8
0
 10
-3.258414254299999
 20
-7.6474294608999989
 30
0.0
  0
VERTEX
  5
7242
  8
0
 10
-2.9325788620000002
 20
-7.6699314136999979
 30
0.0
  0
VERTEX
  5
7243
  8
0
 10
-2.6065888482000008
 20
-7.6900641589999941
 30
0.0
  0
VERTEX
  5
7244
  8
0
 10
-2.2804615840000002
 20
-7.7078267052999996
 30
0.0
  0
VERTEX
  5
7245
  8
0
 10
-1.9542144491000011
 20
-7.7232181242999971
 30
0.0
  0
VERTEX
  5
7246
  8
0
 10
-1.6278651987999999
 20
-7.7362375317999934
 30
0.0
  0
VERTEX
  5
7247
  8
0
 10
-1.3014301064999989
 20
-7.746884333899998
 30
0.0
  0
VERTEX
  5
7248
  8
0
 10
-0.9749243277999992
 20
-7.7551580052999958
 30
0.0
  0
VERTEX
  5
7249
  8
0
 10
-0.6483644932000026
 20
-7.7610580292
 30
0.0
  0
VERTEX
  5
724A
  8
0
 10
-0.3217701710000025
 20
-7.7645841275999947
 30
0.0
  0
VERTEX
  5
724B
  8
0
 10
0.0
 20
-7.7657363619999984
 30
0.0
  0
SEQEND
  5
724C
  8
0
  0
POLYLINE
  5
440
  8
0
 66
     1
 10
0.0
 20
0.0
 30
0.0
  0
VERTEX
  5
724D
  8
0
 10
-9.7111163919999992
 20
-6.7010709697999991
 30
0.0
  0
VERTEX
  5
724E
  8
0
 10
-9.7115144640000004
 20
-6.7028849623999909
 30
0.0
  0
VERTEX
  5
724F
  8
0
 10
-9.7116758839999981
 20
-6.7035944971999859
 30
0.0
  0
SEQEND
  5
7250
  8
0
  0
POLYLINE
  5
44A
  8
0
 66
     1
 10
0.0
 20
0.0
 30
0.0
  0
VERTEX
  5
7251
  8
0
 10
-6.648192869999999
 20
4.4927576108000054
 30
0.0
  0
VERTEX
  5
7252
  8
0
 10
-6.6547618899999987
 20
4.4844309529000048
 30
0.0
  0
VERTEX
  5
7253
  8
0
 10
-6.6612994397999996
 20
4.4759666111999996
 30
0.0
  0
VERTEX
  5
7254
  8
0
 10
-6.6677973315000001
 20
4.4673751869
 30
0.0
  0
VERTEX
  5
7255
  8
0
 10
-6.6742474266
 20
4.4586674403999922
 30
0.0
  0
VERTEX
  5
7256
  8
0
 10
-6.6806416469000007
 20
4.4498542774999938
 30
0.0
  0
VERTEX
  5
7257
  8
0
 10
-6.6869719843999986
 20
4.4409467359000061
 30
0.0
  0
VERTEX
  5
7258
  8
0
 10
-6.6932305107000003
 20
4.4319559717000061
 30
0.0
  0
VERTEX
  5
7259
  8
0
 10
-6.6994093873000011
 20
4.4228932454000036
 30
0.0
  0
VERTEX
  5
725A
  8
0
 10
-6.7055008758000012
 20
4.4137699070000016
 30
0.0
  0
VERTEX
  5
725B
  8
0
 10
-6.7114973471000008
 20
4.4045973830000023
 30
0.0
  0
VERTEX
  5
725C
  8
0
 10
-6.7173912906000011
 20
4.395387161499996
 30
0.0
  0
VERTEX
  5
725D
  8
0
 10
-6.7231753247000006
 20
4.3861507777999904
 30
0.0
  0
SEQEND
  5
725E
  8
0
  0
POLYLINE
  5
44D
  8
0
 66
     1
 10
0.0
 20
0.0
 30
0.0
  0
VERTEX
  5
725F
  8
0
 10
0.0
 20
-7.7657363619999984
 30
0.0
  0
VERTEX
  5
7260
  8
0
 10
0.3217701710000007
 20
-7.7645841275999947
 30
0.0
  0
VERTEX
  5
7261
  8
0
 10
0.648364493199999
 20
-7.7610580292
 30
0.0
  0
VERTEX
  5
7262
  8
0
 10
0.9749243278000001
 20
-7.7551580052999958
 30
0.0
  0
VERTEX
  5
7263
  8
0
 10
1.3014301065999989
 20
-7.746884333899998
 30
0.0
  0
VERTEX
  5
7264
  8
0
 10
1.6278651987999999
 20
-7.7362375317999934
 30
0.0
  0
VERTEX
  5
7265
  8
0
 10
1.9542144491
 20
-7.7232181242999971
 30
0.0
  0
VERTEX
  5
7266
  8
0
 10
2.2804615841000011
 20
-7.7078267052999996
 30
0.0
  0
VERTEX
  5
7267
  8
0
 10
2.606588848199999
 20
-7.6900641589999941
 30
0.0
  0
VERTEX
  5
7268
  8
0
 10
2.9325788620999989
 20
-7.6699314136999979
 30
0.0
  0
VERTEX
  5
7269
  8
0
 10
3.2584142543000012
 20
-7.6474294608999989
 30
0.0
  0
VERTEX
  5
726A
  8
0
 10
3.5840778298
 20
-7.6225595426000012
 30
0.0
  0
VERTEX
  5
726B
  8
0
 10
3.9095524728999989
 20
-7.5953229603999972
 30
0.0
  0
VERTEX
  5
726C
  8
0
 10
4.2348210627
 20
-7.5657210760999973
 30
0.0
  0
VERTEX
  5
726D
  8
0
 10
4.5598663678999989
 20
-7.5337555088999926
 30
0.0
  0
VERTEX
  5
726E
  8
0
 10
4.8846711067999999
 20
-7.4994279484999993
 30
0.0
  0
VERTEX
  5
726F
  8
0
 10
5.2092184585999979
 20
-7.4627400954999947
 30
0.0
  0
VERTEX
  5
7270
  8
0
 10
5.5334909121000013
 20
-7.4236939807000013
 30
0.0
  0
VERTEX
  5
7271
  8
0
 10
5.8574701528999986
 20
-7.3822918165000004
 30
0.0
  0
VERTEX
  5
7272
  8
0
 10
6.181139184600001
 20
-7.3385357278000001
 30
0.0
  0
VERTEX
  5
7273
  8
0
 10
6.5044808195000012
 20
-7.2924281151999963
 30
0.0
  0
VERTEX
  5
7274
  8
0
 10
6.8274764649000002
 20
-7.2439716642999983
 30
0.0
  0
VERTEX
  5
7275
  8
0
 10
7.1501090723000011
 20
-7.1931689197999944
 30
0.0
  0
VERTEX
  5
7276
  8
0
 10
7.4723614729999994
 20
-7.140022703699997
 30
0.0
  0
VERTEX
  5
7277
  8
0
 10
7.7942149050999978
 20
-7.0845361849999966
 30
0.0
  0
VERTEX
  5
7278
  8
0
 10
8.1156518668000004
 20
-7.0267124103
 30
0.0
  0
VERTEX
  5
7279
  8
0
 10
8.4366563395000007
 20
-6.9665544172999949
 30
0.0
  0
VERTEX
  5
727A
  8
0
 10
8.7572117946999946
 20
-6.9040653997999959
 30
0.0
  0
VERTEX
  5
727B
  8
0
 10
9.0773013903999988
 20
-6.8392486516999957
 30
0.0
  0
VERTEX
  5
727C
  8
0
 10
9.3969065464999986
 20
-6.7721079473999941
 30
0.0
  0
VERTEX
  5
727D
  8
0
 10
9.7116742820000006
 20
-6.7036068699999936
 30
0.0
  0
SEQEND
  5
727E
  8
0
  0
POLYLINE
  5
450
  8
0
 66
     1
 10
0.0
 20
0.0
 30
0.0
  0
VERTEX
  5
727F
  8
0
 10
-6.997897172400001
 20
-4.367775620499998
 30
0.0
  0
VERTEX
  5
7280
  8
0
 10
-6.9953214861999991
 20
-4.3762582173000046
 30
0.0
  0
VERTEX
  5
7281
  8
0
 10
-6.9925063386000001
 20
-4.3847366651000073
 30
0.0
  0
VERTEX
  5
7282
  8
0
 10
-6.9894567125
 20
-4.3931987363999951
 30
0.0
  0
VERTEX
  5
7283
  8
0
 10
-6.9861776481999991
 20
-4.4016321413999933
 30
0.0
  0
VERTEX
  5
7284
  8
0
 10
-6.9826740719
 20
-4.4100247165999908
 30
0.0
  0
VERTEX
  5
7285
  8
0
 10
-6.9789507752000013
 20
-4.4183644182000057
 30
0.0
  0
VERTEX
  5
7286
  8
0
 10
-6.9750126538000012
 20
-4.4266392223999906
 30
0.0
  0
VERTEX
  5
7287
  8
0
 10
-6.9708647245000002
 20
-4.434836677799999
 30
0.0
  0
VERTEX
  5
7288
  8
0
 10
-6.966512143200001
 20
-4.4429441723000087
 30
0.0
  0
VERTEX
  5
7289
  8
0
 10
-6.9619614812000012
 20
-4.4509499763000022
 30
0.0
  0
VERTEX
  5
728A
  8
0
 10
-6.9572202368000013
 20
-4.4588431524999939
 30
0.0
  0
VERTEX
  5
728B
  8
0
 10
-6.9522960825000011
 20
-4.4666127773999937
 30
0.0
  0
VERTEX
  5
728C
  8
0
 10
-6.9471966343
 20
-4.4742477348999961
 30
0.0
  0
VERTEX
  5
728D
  8
0
 10
-6.9419290834000007
 20
-4.481736831500001
 30
0.0
  0
VERTEX
  5
728E
  8
0
 10
-6.9365004427000008
 20
-4.4890690128000008
 30
0.0
  0
VERTEX
  5
728F
  8
0
 10
-6.9309179015999991
 20
-4.4962332328999963
 30
0.0
  0
VERTEX
  5
7290
  8
0
 10
-6.9251890943000012
 20
-4.5032182207000062
 30
0.0
  0
VERTEX
  5
7291
  8
0
 10
-6.9193225098999998
 20
-4.5100136210999997
 30
0.0
  0
VERTEX
  5
7292
  8
0
 10
-6.9133272823
 20
-4.5166102558999981
 30
0.0
  0
VERTEX
  5
7293
  8
0
 10
-6.9072124787
 20
-4.5229993670000042
 30
0.0
  0
VERTEX
  5
7294
  8
0
 10
-6.9009872773000014
 20
-4.5291722741999996
 30
0.0
  0
VERTEX
  5
7295
  8
0
 10
-6.8946609234
 20
-4.5351201191999939
 30
0.0
  0
VERTEX
  5
7296
  8
0
 10
-6.8882423378999986
 20
-4.5408338349999928
 30
0.0
  0
VERTEX
  5
7297
  8
0
 10
-6.8817402065000008
 20
-4.546304399899995
 30
0.0
  0
VERTEX
  5
7298
  8
0
 10
-6.8751633474
 20
-4.5515228782999984
 30
0.0
  0
VERTEX
  5
7299
  8
0
 10
-6.8685214130000007
 20
-4.5564812278999929
 30
0.0
  0
VERTEX
  5
729A
  8
0
 10
-6.8618247086000004
 20
-4.5611732006999972
 30
0.0
  0
VERTEX
  5
729B
  8
0
 10
-6.8550832902999987
 20
-4.5655928519999938
 30
0.0
  0
VERTEX
  5
729C
  8
0
 10
-6.8483068504000011
 20
-4.5697344309999934
 30
0.0
  0
VERTEX
  5
729D
  8
0
 10
-6.8415051804000004
 20
-4.5735922130999986
 30
0.0
  0
VERTEX
  5
729E
  8
0
 10
-6.8346881115000011
 20
-4.5771603619999928
 30
0.0
  0
VERTEX
  5
729F
  8
0
 10
-6.827865526700001
 20
-4.5804329539999946
 30
0.0
  0
VERTEX
  5
72A0
  8
0
 10
-6.8210472839999996
 20
-4.5834041090999937
 30
0.0
  0
SEQEND
  5
72A1
  8
0
  0
POLYLINE
  5
459
  8
0
 66
     1
 10
0.0
 20
0.0
 30
0.0
  0
VERTEX
  5
72A2
  8
0
 10
-6.998604034431815
 20
-4.3676544047242336
 30
0.0
  0
VERTEX
  5
72A3
  8
0
 10
-7.0529680256000011
 20
-4.084833140699998
 30
0.0
  0
VERTEX
  5
72A4
  8
0
 10
-7.0839824569000003
 20
-3.7934576817000041
 30
0.0
  0
VERTEX
  5
72A5
  8
0
 10
-7.112716991600001
 20
-3.5011322224000021
 30
0.0
  0
VERTEX
  5
72A6
  8
0
 10
-7.1391730033000007
 20
-3.2078437810999949
 30
0.0
  0
VERTEX
  5
72A7
  8
0
 10
-7.1633386764000004
 20
-2.9136602161999932
 30
0.0
  0
VERTEX
  5
72A8
  8
0
 10
-7.1851926755000006
 20
-2.618731847599995
 30
0.0
  0
VERTEX
  5
72A9
  8
0
 10
-7.2047313330000007
 20
-2.3230789340999962
 30
0.0
  0
VERTEX
  5
72AA
  8
0
 10
-7.221950324699999
 20
-2.0267401004999992
 30
0.0
  0
VERTEX
  5
72AB
  8
0
 10
-7.2368330610999996
 20
-1.729895874399993
 30
0.0
  0
VERTEX
  5
72AC
  8
0
 10
-7.2493770905000012
 20
-1.4325593008999951
 30
0.0
  0
VERTEX
  5
72AD
  8
0
 10
-7.2595787633000013
 20
-1.1347788386999931
 30
0.0
  0
VERTEX
  5
72AE
  8
0
 10
-7.2674267734000013
 20
-0.8367899459000086
 30
0.0
  0
VERTEX
  5
72AF
  8
0
 10
-7.2729196184000013
 20
-0.5386480895999953
 30
0.0
  0
VERTEX
  5
72B0
  8
0
 10
-7.2760571386999997
 20
-0.2403608850999959
 30
0.0
  0
VERTEX
  5
72B1
  8
0
 10
-7.2768364146
 20
0.0579071672000069
 30
0.0
  0
VERTEX
  5
72B2
  8
0
 10
-7.2752568312000001
 20
0.3561232686999958
 30
0.0
  0
VERTEX
  5
72B3
  8
0
 10
-7.2713195829000012
 20
0.6542568507000013
 30
0.0
  0
VERTEX
  5
72B4
  8
0
 10
-7.2650290471999996
 20
0.9521468986999934
 30
0.0
  0
VERTEX
  5
72B5
  8
0
 10
-7.2563858847000002
 20
1.249783875400005
 30
0.0
  0
VERTEX
  5
72B6
  8
0
 10
-7.2453921562000012
 20
1.547114596400007
 30
0.0
  0
VERTEX
  5
72B7
  8
0
 10
-7.2320605009000012
 20
1.8439136848
 30
0.0
  0
VERTEX
  5
72B8
  8
0
 10
-7.2163951290000012
 20
2.1401300561999999
 30
0.0
  0
VERTEX
  5
72B9
  8
0
 10
-7.1983987694999989
 20
2.4357540075000008
 30
0.0
  0
VERTEX
  5
72BA
  8
0
 10
-7.178088451599999
 20
2.7306243129000052
 30
0.0
  0
VERTEX
  5
72BB
  8
0
 10
-7.1554687221000011
 20
3.024699747500001
 30
0.0
  0
VERTEX
  5
72BC
  8
0
 10
-7.1305433568999996
 20
3.3179636402000048
 30
0.0
  0
VERTEX
  5
72BD
  8
0
 10
-7.1033331980999987
 20
3.6102945268000042
 30
0.0
  0
VERTEX
  5
72BE
  8
0
 10
-7.0738495473
 20
3.9016346663000041
 30
0.0
  0
VERTEX
  5
72BF
  8
0
 10
-7.0420910250000013
 20
4.1919882548000009
 30
0.0
  0
VERTEX
  5
72C0
  8
0
 10
-7.0080612310000001
 20
4.4813285219999912
 30
0.0
  0
SEQEND
  5
72C1
  8
0
  0
POLYLINE
  5
45A
  8
0
 66
     1
 10
0.0
 20
0.0
 30
0.0
  0
VERTEX
  5
72C2
  8
0
 10
-6.7877282316000001
 20
-4.3076658922999931
 30
0.0
  0
VERTEX
  5
72C3
  8
0
 10
-6.8188000693999991
 20
-4.0218043819000044
 30
0.0
  0
VERTEX
  5
72C4
  8
0
 10
-6.8477918859999987
 20
-3.7350649130000022
 30
0.0
  0
VERTEX
  5
72C5
  8
0
 10
-6.8746874911999987
 20
-3.4474465463000001
 30
0.0
  0
VERTEX
  5
72C6
  8
0
 10
-6.8994689825000011
 20
-3.1588797196999958
 30
0.0
  0
VERTEX
  5
72C7
  8
0
 10
-6.9221192261000004
 20
-2.8694330524000051
 30
0.0
  0
VERTEX
  5
72C8
  8
0
 10
-6.9426276022999991
 20
-2.579310705999994
 30
0.0
  0
VERTEX
  5
72C9
  8
0
 10
-6.960983649300001
 20
-2.2884982850999971
 30
0.0
  0
VERTEX
  5
72CA
  8
0
 10
-6.9771708803000001
 20
-1.997004522900006
 30
0.0
  0
VERTEX
  5
72CB
  8
0
 10
-6.991179893
 20
-1.7050642740999959
 30
0.0
  0
VERTEX
  5
72CC
  8
0
 10
-7.0030047797000012
 20
-1.4126525968000001
 30
0.0
  0
VERTEX
  5
72CD
  8
0
 10
-7.0126326116
 20
-1.1197856797999881
 30
0.0
  0
VERTEX
  5
72CE
  8
0
 10
-7.0200558563999991
 20
-0.8267573852999846
 30
0.0
  0
VERTEX
  5
72CF
  8
0
 10
-7.0252732357000003
 20
-0.5335847955999995
 30
0.0
  0
VERTEX
  5
72D0
  8
0
 10
-7.0282788461000001
 20
-0.2402402518000031
 30
0.0
  0
VERTEX
  5
72D1
  8
0
 10
-7.029070354299999
 20
0.0530506960000068
 30
0.0
  0
VERTEX
  5
72D2
  8
0
 10
-7.0276510333999989
 20
0.3462919613000039
 30
0.0
  0
VERTEX
  5
72D3
  8
0
 10
-7.024020182500001
 20
0.6394906275999972
 30
0.0
  0
VERTEX
  5
72D4
  8
0
 10
-7.0181798398000002
 20
0.9324254920000001
 30
0.0
  0
VERTEX
  5
72D5
  8
0
 10
-7.010138197999999
 20
1.225121130800005
 30
0.0
  0
VERTEX
  5
72D6
  8
0
 10
-6.9998990072999989
 20
1.5175628181999981
 30
0.0
  0
VERTEX
  5
72D7
  8
0
 10
-6.9874693684000011
 20
1.8094684089999971
 30
0.0
  0
VERTEX
  5
72D8
  8
0
 10
-6.9728643881999988
 20
2.1008177884000072
 30
0.0
  0
VERTEX
  5
72D9
  8
0
 10
-6.9560920297999997
 20
2.3916384256000072
 30
0.0
  0
VERTEX
  5
72DA
  8
0
 10
-6.937160261699999
 20
2.6817161596000001
 30
0.0
  0
VERTEX
  5
72DB
  8
0
 10
-6.9160873287999989
 20
2.9710373322000052
 30
0.0
  0
VERTEX
  5
72DC
  8
0
 10
-6.8928852423000002
 20
3.2596193066000012
 30
0.0
  0
VERTEX
  5
72DD
  8
0
 10
-6.867561557100001
 20
3.5472898714999981
 30
0.0
  0
VERTEX
  5
72DE
  8
0
 10
-6.8401326180000011
 20
3.8339901427999972
 30
0.0
  0
VERTEX
  5
72DF
  8
0
 10
-6.8106187258000013
 20
4.1197775073000003
 30
0.0
  0
VERTEX
  5
72E0
  8
0
 10
-6.7790370178000012
 20
4.4046517404000047
 30
0.0
  0
SEQEND
  5
72E1
  8
0
  0
POLYLINE
  5
45B
  8
0
 66
     1
 10
0.0
 20
0.0
 30
0.0
  0
VERTEX
  5
72E2
  8
0
 10
-6.8113545996999987
 20
4.6860441729000044
 30
0.0
  0
VERTEX
  5
72E3
  8
0
 10
-6.8203424819
 20
4.6831368059000047
 30
0.0
  0
VERTEX
  5
72E4
  8
0
 10
-6.8292867620999997
 20
4.6798775893000046
 30
0.0
  0
VERTEX
  5
72E5
  8
0
 10
-6.8381726982000011
 20
4.6762718937000036
 30
0.0
  0
VERTEX
  5
72E6
  8
0
 10
-6.8469856431
 20
4.672325659800002
 30
0.0
  0
VERTEX
  5
72E7
  8
0
 10
-6.855711072800001
 20
4.6680453913000051
 30
0.0
  0
VERTEX
  5
72E8
  8
0
 10
-6.8643346118000013
 20
4.663438144899998
 30
0.0
  0
VERTEX
  5
72E9
  8
0
 10
-6.872842049
 20
4.6585115143999971
 30
0.0
  0
VERTEX
  5
72EA
  8
0
 10
-6.8812193628999987
 20
4.6532736182000027
 30
0.0
  0
VERTEX
  5
72EB
  8
0
 10
-6.8894527495000011
 20
4.6477330898999929
 30
0.0
  0
VERTEX
  5
72EC
  8
0
 10
-6.8975286408000001
 20
4.641899060799993
 30
0.0
  0
VERTEX
  5
72ED
  8
0
 10
-6.9054337270000001
 20
4.635781145400002
 30
0.0
  0
VERTEX
  5
72EE
  8
0
 10
-6.9131549807999999
 20
4.6293894269999987
 30
0.0
  0
VERTEX
  5
72EF
  8
0
 10
-6.920679677799999
 20
4.6227344397999977
 30
0.0
  0
VERTEX
  5
72F0
  8
0
 10
-6.9279954171
 20
4.6158271513000031
 30
0.0
  0
VERTEX
  5
72F1
  8
0
 10
-6.9350901422
 20
4.6086789451000021
 30
0.0
  0
VERTEX
  5
72F2
  8
0
 10
-6.9419521610999988
 20
4.6013016017000012
 30
0.0
  0
VERTEX
  5
72F3
  8
0
 10
-6.9485701649999987
 20
4.5937072794000002
 30
0.0
  0
VERTEX
  5
72F4
  8
0
 10
-6.9549332465999987
 20
4.585908493100006
 30
0.0
  0
VERTEX
  5
72F5
  8
0
 10
-6.9610309195999998
 20
4.5779180956000038
 30
0.0
  0
VERTEX
  5
72F6
  8
0
 10
-6.9668531347
 20
4.5697492553000032
 30
0.0
  0
VERTEX
  5
72F7
  8
0
 10
-6.9723902955000012
 20
4.5614154339000086
 30
0.0
  0
VERTEX
  5
72F8
  8
0
 10
-6.9776332766999998
 20
4.5529303659000027
 30
0.0
  0
VERTEX
  5
72F9
  8
0
 10
-6.982573437400001
 20
4.5443080348999976
 30
0.0
  0
VERTEX
  5
72FA
  8
0
 10
-6.9872026349
 20
4.5355626485000036
 30
0.0
  0
VERTEX
  5
72FB
  8
0
 10
-6.9915132400999989
 20
4.526708619499991
 30
0.0
  0
VERTEX
  5
72FC
  8
0
 10
-6.9954981486000012
 20
4.5177605396000038
 30
0.0
  0
VERTEX
  5
72FD
  8
0
 10
-6.999150790999999
 20
4.5087331538000006
 30
0.0
  0
VERTEX
  5
72FE
  8
0
 10
-7.0024651469000014
 20
4.4996413389000054
 30
0.0
  0
VERTEX
  5
72FF
  8
0
 10
-7.0054357546999997
 20
4.4905000794000003
 30
0.0
  0
VERTEX
  5
7300
  8
0
 10
-7.0080577188999991
 20
4.4813244402999919
 30
0.0
  0
SEQEND
  5
7301
  8
0
  0
POLYLINE
  5
45C
  8
0
 66
     1
 10
0.0
 20
0.0
 30
0.0
  0
VERTEX
  5
7302
  8
0
 10
8.6838909595999993
 20
-5.827241669699994
 30
0.0
  0
VERTEX
  5
7303
  8
0
 10
8.3662805732999992
 20
-5.8901830276999974
 30
0.0
  0
VERTEX
  5
7304
  8
0
 10
8.0482399825000002
 20
-5.9507731280000007
 30
0.0
  0
VERTEX
  5
7305
  8
0
 10
7.7297691870999996
 20
-6.0090119705999987
 30
0.0
  0
VERTEX
  5
7306
  8
0
 10
7.4108469266999988
 20
-6.0649029365999922
 30
0.0
  0
VERTEX
  5
7307
  8
0
 10
7.0914944617000009
 20
-6.118442644899992
 30
0.0
  0
VERTEX
  5
7308
  8
0
 10
6.7717755733999994
 20
-6.169620952199991
 30
0.0
  0
VERTEX
  5
7309
  8
0
 10
6.4516903706999988
 20
-6.2184375006999977
 30
0.0
  0
VERTEX
  5
730A
  8
0
 10
6.1312387446000001
 20
-6.2648926482999983
 30
0.0
  0
VERTEX
  5
730B
  8
0
 10
5.8104841497999997
 20
-6.3089773252999981
 30
0.0
  0
VERTEX
  5
730C
  8
0
 10
5.4894315566000014
 20
-6.3506907036000007
 30
0.0
  0
VERTEX
  5
730D
  8
0
 10
5.1680759945999997
 20
-6.3900336113999918
 30
0.0
  0
VERTEX
  5
730E
  8
0
 10
4.8464660071000001
 20
-6.4269994638999961
 30
0.0
  0
VERTEX
  5
730F
  8
0
 10
4.5246075338999994
 20
-6.4615870507999977
 30
0.0
  0
VERTEX
  5
7310
  8
0
 10
4.2024946351999999
 20
-6.4937975825999947
 30
0.0
  0
VERTEX
  5
7311
  8
0
 10
3.8801580356999992
 20
-6.5236281052999976
 30
0.0
  0
VERTEX
  5
7312
  8
0
 10
3.5575909549000002
 20
-6.5510787956999996
 30
0.0
  0
VERTEX
  5
7313
  8
0
 10
3.2348001733
 20
-6.5761494771999969
 30
0.0
  0
VERTEX
  5
7314
  8
0
 10
2.9118367563999992
 20
-6.5988366660999977
 30
0.0
  0
VERTEX
  5
7315
  8
0
 10
2.5886951039999988
 20
-6.619140514199997
 30
0.0
  0
VERTEX
  5
7316
  8
0
 10
2.2653808162999982
 20
-6.6370608697999947
 30
0.0
  0
VERTEX
  5
7317
  8
0
 10
1.941961760199999
 20
-6.6525937938999951
 30
0.0
  0
VERTEX
  5
7318
  8
0
 10
1.6184377067999991
 20
-6.6657388431999962
 30
0.0
  0
VERTEX
  5
7319
  8
0
 10
1.2948088849999999
 20
-6.6764964608999966
 30
0.0
  0
VERTEX
  5
731A
  8
0
 10
0.9711438481000005
 20
-6.6848640381999971
 30
0.0
  0
VERTEX
  5
731B
  8
0
 10
0.6474654472000001
 20
-6.6908407053999994
 30
0.0
  0
VERTEX
  5
731C
  8
0
 10
0.3237508311999999
 20
-6.6944273322999939
 30
0.0
  0
VERTEX
  5
731D
  8
0
 10
0.0
 20
-6.6956239186999928
 30
0.0
  0
SEQEND
  5
731E
  8
0
  0
POLYLINE
  5
45F
  8
0
 66
     1
 10
0.0
 20
0.0
 30
0.0
  0
VERTEX
  5
731F
  8
0
 10
8.0552558646196495
 20
-5.3114645234373858
 30
0.0
  0
VERTEX
  5
7320
  8
0
 10
7.749561545999998
 20
-5.3625947103999962
 30
0.0
  0
VERTEX
  5
7321
  8
0
 10
7.4545725710999982
 20
-5.4153433219999982
 30
0.0
  0
VERTEX
  5
7322
  8
0
 10
7.1592033834999986
 20
-5.466047966799997
 30
0.0
  0
VERTEX
  5
7323
  8
0
 10
6.8634594126999993
 20
-5.5147074307999944
 30
0.0
  0
VERTEX
  5
7324
  8
0
 10
6.5673628139999991
 20
-5.5613177082999954
 30
0.0
  0
VERTEX
  5
7325
  8
0
 10
6.2709525520999998
 20
-5.6058725832999983
 30
0.0
  0
VERTEX
  5
7326
  8
0
 10
5.9742447841000006
 20
-5.6483696928999967
 30
0.0
  0
VERTEX
  5
7327
  8
0
 10
5.6772511288999983
 20
-5.6888073271999948
 30
0.0
  0
VERTEX
  5
7328
  8
0
 10
5.3800038646999999
 20
-5.727181145399995
 30
0.0
  0
VERTEX
  5
7329
  8
0
 10
5.0825259879000004
 20
-5.7634883837999951
 30
0.0
  0
VERTEX
  5
732A
  8
0
 10
4.7848223632999991
 20
-5.7977285501999978
 30
0.0
  0
VERTEX
  5
732B
  8
0
 10
4.486898083699999
 20
-5.8299009001000002
 30
0.0
  0
VERTEX
  5
732C
  8
0
 10
4.1887703993000001
 20
-5.8600032211999951
 30
0.0
  0
VERTEX
  5
732D
  8
0
 10
3.8904498448
 20
-5.8880341126999971
 30
0.0
  0
VERTEX
  5
732E
  8
0
 10
3.591931451399998
 20
-5.9139942777999996
 30
0.0
  0
VERTEX
  5
732F
  8
0
 10
3.2932236620999999
 20
-5.9378832094999927
 30
0.0
  0
VERTEX
  5
7330
  8
0
 10
2.9943459894000011
 20
-5.9596994746999954
 30
0.0
  0
VERTEX
  5
7331
  8
0
 10
2.6953100638999992
 20
-5.9794422951999939
 30
0.0
  0
VERTEX
  5
7332
  8
0
 10
2.3961213935999992
 20
-5.9971111440999962
 30
0.0
  0
VERTEX
  5
7333
  8
0
 10
2.0968024366
 20
-6.0127044219999908
 30
0.0
  0
VERTEX
  5
7334
  8
0
 10
1.797390272200001
 20
-6.0262201603999941
 30
0.0
  0
VERTEX
  5
7335
  8
0
 10
1.4978988682000001
 20
-6.0376578180999942
 30
0.0
  0
VERTEX
  5
7336
  8
0
 10
1.198342284
 20
-6.0470168411999969
 30
0.0
  0
VERTEX
  5
7337
  8
0
 10
0.8987577694999995
 20
-6.0542961969999922
 30
0.0
  0
VERTEX
  5
7338
  8
0
 10
0.5991670872999997
 20
-6.0594956990999966
 30
0.0
  0
VERTEX
  5
7339
  8
0
 10
0.2995764982000004
 20
-6.062615469299991
 30
0.0
  0
VERTEX
  5
733A
  8
0
 10
0.0
 20
-6.0636554103
 30
0.0
  0
SEQEND
  5
733B
  8
0
  0
POLYLINE
  5
462
  8
0
 66
     1
 10
0.0
 20
0.0
 30
0.0
  0
VERTEX
  5
733C
  8
0
 10
-8.0441565169999993
 20
-5.3078046705999986
 30
0.0
  0
VERTEX
  5
733D
  8
0
 10
-7.7495615459999989
 20
-5.3625947103999962
 30
0.0
  0
VERTEX
  5
733E
  8
0
 10
-7.454572571099999
 20
-5.4153433219999982
 30
0.0
  0
VERTEX
  5
733F
  8
0
 10
-7.1592033835000004
 20
-5.466047966799997
 30
0.0
  0
VERTEX
  5
7340
  8
0
 10
-6.863459412600001
 20
-5.5147074307999944
 30
0.0
  0
VERTEX
  5
7341
  8
0
 10
-6.5673628139999991
 20
-5.5613177082999954
 30
0.0
  0
VERTEX
  5
7342
  8
0
 10
-6.2709525520999998
 20
-5.6058725832999983
 30
0.0
  0
VERTEX
  5
7343
  8
0
 10
-5.9742447839999988
 20
-5.6483696928999967
 30
0.0
  0
VERTEX
  5
7344
  8
0
 10
-5.6772511289000001
 20
-5.6888073271999948
 30
0.0
  0
VERTEX
  5
7345
  8
0
 10
-5.380003864699999
 20
-5.727181145399995
 30
0.0
  0
VERTEX
  5
7346
  8
0
 10
-5.0825259879000004
 20
-5.7634883837999951
 30
0.0
  0
VERTEX
  5
7347
  8
0
 10
-4.7848223632999991
 20
-5.7977285501999978
 30
0.0
  0
VERTEX
  5
7348
  8
0
 10
-4.486898083699999
 20
-5.8299009001000002
 30
0.0
  0
VERTEX
  5
7349
  8
0
 10
-4.1887703992
 20
-5.8600032211999951
 30
0.0
  0
VERTEX
  5
734A
  8
0
 10
-3.8904498446999991
 20
-5.8880341126999971
 30
0.0
  0
VERTEX
  5
734B
  8
0
 10
-3.5919314512999989
 20
-5.9139942777999996
 30
0.0
  0
VERTEX
  5
734C
  8
0
 10
-3.2932236620999991
 20
-5.9378832094999927
 30
0.0
  0
VERTEX
  5
734D
  8
0
 10
-2.9943459893000011
 20
-5.9596994746999954
 30
0.0
  0
VERTEX
  5
734E
  8
0
 10
-2.6953100638
 20
-5.9794422951999939
 30
0.0
  0
VERTEX
  5
734F
  8
0
 10
-2.3961213935000001
 20
-5.9971111440999962
 30
0.0
  0
VERTEX
  5
7350
  8
0
 10
-2.0968024366
 20
-6.0127044219999908
 30
0.0
  0
VERTEX
  5
7351
  8
0
 10
-1.797390272100001
 20
-6.0262201603999941
 30
0.0
  0
VERTEX
  5
7352
  8
0
 10
-1.4978988681000001
 20
-6.0376578180999942
 30
0.0
  0
VERTEX
  5
7353
  8
0
 10
-1.1983422839999991
 20
-6.0470168411999969
 30
0.0
  0
VERTEX
  5
7354
  8
0
 10
-0.8987577695000004
 20
-6.0542961969999922
 30
0.0
  0
VERTEX
  5
7355
  8
0
 10
-0.5991670872999997
 20
-6.0594956990999966
 30
0.0
  0
VERTEX
  5
7356
  8
0
 10
-0.2995764982000022
 20
-6.062615469299991
 30
0.0
  0
VERTEX
  5
7357
  8
0
 10
0.0
 20
-6.0636554103
 30
0.0
  0
SEQEND
  5
7358
  8
0
  0
POLYLINE
  5
464
  8
0
 66
     1
 10
0.0
 20
0.0
 30
0.0
  0
VERTEX
  5
7359
  8
0
 10
-8.6838909595999993
 20
-5.827241669699994
 30
0.0
  0
VERTEX
  5
735A
  8
0
 10
-8.3662805732999992
 20
-5.8901830276999974
 30
0.0
  0
VERTEX
  5
735B
  8
0
 10
-8.0482399824000002
 20
-5.9507731280000007
 30
0.0
  0
VERTEX
  5
735C
  8
0
 10
-7.7297691870000014
 20
-6.0090119705999987
 30
0.0
  0
VERTEX
  5
735D
  8
0
 10
-7.4108469265999988
 20
-6.0649029365999922
 30
0.0
  0
VERTEX
  5
735E
  8
0
 10
-7.0914944616999991
 20
-6.118442644899992
 30
0.0
  0
VERTEX
  5
735F
  8
0
 10
-6.7717755734000011
 20
-6.169620952199991
 30
0.0
  0
VERTEX
  5
7360
  8
0
 10
-6.4516903706000006
 20
-6.2184375006999977
 30
0.0
  0
VERTEX
  5
7361
  8
0
 10
-6.1312387446000001
 20
-6.2648926482999983
 30
0.0
  0
VERTEX
  5
7362
  8
0
 10
-5.8104841496999997
 20
-6.3089773252999981
 30
0.0
  0
VERTEX
  5
7363
  8
0
 10
-5.4894315564999987
 20
-6.3506907036000007
 30
0.0
  0
VERTEX
  5
7364
  8
0
 10
-5.1680759944999997
 20
-6.3900336113999918
 30
0.0
  0
VERTEX
  5
7365
  8
0
 10
-4.8464660071000001
 20
-6.4269994638999961
 30
0.0
  0
VERTEX
  5
7366
  8
0
 10
-4.5246075338000011
 20
-6.4615870507999977
 30
0.0
  0
VERTEX
  5
7367
  8
0
 10
-4.202494635199999
 20
-6.4937975825999947
 30
0.0
  0
VERTEX
  5
7368
  8
0
 10
-3.8801580356000001
 20
-6.5236281052999976
 30
0.0
  0
VERTEX
  5
7369
  8
0
 10
-3.5575909549000011
 20
-6.5510787956999996
 30
0.0
  0
VERTEX
  5
736A
  8
0
 10
-3.2348001732
 20
-6.5761494771999969
 30
0.0
  0
VERTEX
  5
736B
  8
0
 10
-2.9118367564000001
 20
-6.5988366660999977
 30
0.0
  0
VERTEX
  5
736C
  8
0
 10
-2.588695103900001
 20
-6.619140514199997
 30
0.0
  0
VERTEX
  5
736D
  8
0
 10
-2.2653808163
 20
-6.6370608697999947
 30
0.0
  0
VERTEX
  5
736E
  8
0
 10
-1.941961760199999
 20
-6.6525937938999951
 30
0.0
  0
VERTEX
  5
736F
  8
0
 10
-1.6184377068000011
 20
-6.6657388431999962
 30
0.0
  0
VERTEX
  5
7370
  8
0
 10
-1.294808885000001
 20
-6.6764964608999966
 30
0.0
  0
VERTEX
  5
7371
  8
0
 10
-0.9711438481000014
 20
-6.6848640381999971
 30
0.0
  0
VERTEX
  5
7372
  8
0
 10
-0.6474654471000001
 20
-6.6908407053999994
 30
0.0
  0
VERTEX
  5
7373
  8
0
 10
-0.3237508310999999
 20
-6.6944273322999939
 30
0.0
  0
VERTEX
  5
7374
  8
0
 10
0.0
 20
-6.6956239186999928
 30
0.0
  0
SEQEND
  5
7375
  8
0
  0
POLYLINE
  5
468
  8
0
 66
     1
 10
0.0
 20
0.0
 30
0.0
  0
VERTEX
  5
7376
  8
0
 10
0.0
 20
-5.9900632021999982
 30
0.0
  0
VERTEX
  5
7377
  8
0
 10
-0.0140653776999997
 20
-5.9900016333999977
 30
0.0
  0
VERTEX
  5
7378
  8
0
 10
-0.0281290059000003
 20
-5.9898168326999857
 30
0.0
  0
VERTEX
  5
7379
  8
0
 10
-0.042176425600001
 20
-5.989508799999995
 30
0.0
  0
VERTEX
  5
737A
  8
0
 10
-0.0561971794999998
 20
-5.9890769136999964
 30
0.0
  0
VERTEX
  5
737B
  8
0
 10
-0.0701726396000009
 20
-5.9885217953999961
 30
0.0
  0
VERTEX
  5
737C
  8
0
 10
-0.0840762108999993
 20
-5.9878453099999973
 30
0.0
  0
VERTEX
  5
737D
  8
0
 10
-0.0978828417000024
 20
-5.9870477523999952
 30
0.0
  0
VERTEX
  5
737E
  8
0
 10
-0.111589179200001
 20
-5.9861288274999964
 30
0.0
  0
VERTEX
  5
737F
  8
0
 10
-0.1252010004000024
 20
-5.9850895159000004
 30
0.0
  0
VERTEX
  5
7380
  8
0
 10
-0.1387147952000003
 20
-5.983928598599995
 30
0.0
  0
VERTEX
  5
7381
  8
0
 10
-0.1521046474999999
 20
-5.9826472945999987
 30
0.0
  0
VERTEX
  5
7382
  8
0
 10
-0.1653427184999998
 20
-5.9812502406999988
 30
0.0
  0
VERTEX
  5
7383
  8
0
 10
-0.1784057541999999
 20
-5.9797380769999933
 30
0.0
  0
VERTEX
  5
7384
  8
0
 10
-0.1912893909999997
 20
-5.9781101636000002
 30
0.0
  0
VERTEX
  5
7385
  8
0
 10
-0.2039941387000024
 20
-5.9763692169999976
 30
0.0
  0
VERTEX
  5
7386
  8
0
 10
-0.2165121880000029
 20
-5.9745140404999972
 30
0.0
  0
VERTEX
  5
7387
  8
0
 10
-0.2288226647000009
 20
-5.972545830999997
 30
0.0
  0
VERTEX
  5
7388
  8
0
 10
-0.2409062776000024
 20
-5.9704708953999983
 30
0.0
  0
VERTEX
  5
7389
  8
0
 10
-0.2527470001999994
 20
-5.9682892135999941
 30
0.0
  0
VERTEX
  5
738A
  8
0
 10
-0.2643339261999991
 20
-5.9660008057999931
 30
0.0
  0
VERTEX
  5
738B
  8
0
 10
-0.2756558698999996
 20
-5.9636120400999948
 30
0.0
  0
VERTEX
  5
738C
  8
0
 10
-0.2866989824000026
 20
-5.9611227817999932
 30
0.0
  0
VERTEX
  5
738D
  8
0
 10
-0.2974509999000023
 20
-5.9585331654999996
 30
0.0
  0
VERTEX
  5
738E
  8
0
 10
-0.3079029426000019
 20
-5.9558499632999959
 30
0.0
  0
VERTEX
  5
738F
  8
0
 10
-0.318045972500002
 20
-5.9530716271999964
 30
0.0
  0
VERTEX
  5
7390
  8
0
 10
-0.3278631747000009
 20
-5.9501997049999948
 30
0.0
  0
VERTEX
  5
7391
  8
0
 10
-0.3373343516000009
 20
-5.9472456121999917
 30
0.0
  0
VERTEX
  5
7392
  8
0
 10
-0.3464429399999993
 20
-5.9442108417999933
 30
0.0
  0
VERTEX
  5
7393
  8
0
 10
-0.3551839786999995
 20
-5.9410939006999959
 30
0.0
  0
VERTEX
  5
7394
  8
0
 10
-0.3635549582999999
 20
-5.9379017251999988
 30
0.0
  0
VERTEX
  5
7395
  8
0
 10
-0.3715500794000022
 20
-5.934631747199993
 30
0.0
  0
VERTEX
  5
7396
  8
0
 10
-0.3791524125999999
 20
-5.9312865347999937
 30
0.0
  0
VERTEX
  5
7397
  8
0
 10
-0.3863435300999995
 20
-5.9278807284999919
 30
0.0
  0
VERTEX
  5
7398
  8
0
 10
-0.3931105273999993
 20
-5.9244161951000001
 30
0.0
  0
VERTEX
  5
7399
  8
0
 10
-0.3994497523000024
 20
-5.9208910677999986
 30
0.0
  0
VERTEX
  5
739A
  8
0
 10
-0.4053576897000024
 20
-5.9173143867999931
 30
0.0
  0
VERTEX
  5
739B
  8
0
 10
-0.4108299764000023
 20
-5.9136830884999929
 30
0.0
  0
VERTEX
  5
739C
  8
0
 10
-0.4158537806000009
 20
-5.9100002363999939
 30
0.0
  0
VERTEX
  5
739D
  8
0
 10
-0.420414705299999
 20
-5.9062840614999947
 30
0.0
  0
VERTEX
  5
739E
  8
0
 10
-0.4245056889000001
 20
-5.9025364557999964
 30
0.0
  0
VERTEX
  5
739F
  8
0
 10
-0.428125056299999
 20
-5.8987555270999996
 30
0.0
  0
VERTEX
  5
73A0
  8
0
 10
-0.431269286900001
 20
-5.8949538295999977
 30
0.0
  0
VERTEX
  5
73A1
  8
0
 10
-0.4339359038000019
 20
-5.8911297725999949
 30
0.0
  0
VERTEX
  5
73A2
  8
0
 10
-0.4361205858999995
 20
-5.8872849467999941
 30
0.0
  0
VERTEX
  5
73A3
  8
0
 10
-0.4378193031999995
 20
-5.8834366779999954
 30
0.0
  0
VERTEX
  5
73A4
  8
0
 10
-0.4390314555000004
 20
-5.8795907414999951
 30
0.0
  0
VERTEX
  5
73A5
  8
0
 10
-0.4397580720000001
 20
-5.8757413620999941
 30
0.0
  0
VERTEX
  5
73A6
  8
0
 10
-0.4399999999999995
 20
-5.871888539799996
 30
0.0
  0
SEQEND
  5
73A7
  8
0
  0
POLYLINE
  5
469
  8
0
 66
     1
 10
0.0
 20
0.0
 30
0.0
  0
VERTEX
  5
73A8
  8
0
 10
0.0
 20
-5.1959699570999973
 30
0.0
  0
VERTEX
  5
73A9
  8
0
 10
0.2853438402999995
 20
-5.194906098899998
 30
0.0
  0
VERTEX
  5
73AA
  8
0
 10
0.5707100361999995
 20
-5.1917143137999977
 30
0.0
  0
VERTEX
  5
73AB
  8
0
 10
0.8560830465000002
 20
-5.1863944744999984
 30
0.0
  0
VERTEX
  5
73AC
  8
0
 10
1.1414534708999999
 20
-5.1789463063999932
 30
0.0
  0
VERTEX
  5
73AD
  8
0
 10
1.4267995909999991
 20
-5.1693697197999953
 30
0.0
  0
VERTEX
  5
73AE
  8
0
 10
1.7120873613000001
 20
-5.1576652690000051
 30
0.0
  0
VERTEX
  5
73AF
  8
0
 10
1.9973004827
 20
-5.1438332784000016
 30
0.0
  0
VERTEX
  5
73B0
  8
0
 10
2.282424058499998
 20
-5.1278739523000061
 30
0.0
  0
VERTEX
  5
73B1
  8
0
 10
2.5674261123999988
 20
-5.1097884365000041
 30
0.0
  0
VERTEX
  5
73B2
  8
0
 10
2.8522746849999989
 20
-5.0895785929999979
 30
0.0
  0
VERTEX
  5
73B3
  8
0
 10
3.1369705021000001
 20
-5.0672440215999961
 30
0.0
  0
VERTEX
  5
73B4
  8
0
 10
3.421530488799998
 20
-5.0427821038999951
 30
0.0
  0
VERTEX
  5
73B5
  8
0
 10
3.7059398927
 20
-5.0161926998999951
 30
0.0
  0
VERTEX
  5
73B6
  8
0
 10
3.9901820471000011
 20
-4.987476650399997
 30
0.0
  0
VERTEX
  5
73B7
  8
0
 10
4.2742707703999994
 20
-4.9566316050000054
 30
0.0
  0
VERTEX
  5
73B8
  8
0
 10
4.5582050542000001
 20
-4.9236564727999967
 30
0.0
  0
VERTEX
  5
73B9
  8
0
 10
4.8419542826999988
 20
-4.8885534420000019
 30
0.0
  0
VERTEX
  5
73BA
  8
0
 10
5.1254876746000004
 20
-4.8513247673000057
 30
0.0
  0
VERTEX
  5
73BB
  8
0
 10
5.4087912406999994
 20
-4.811971166899994
 30
0.0
  0
VERTEX
  5
73BC
  8
0
 10
5.6918471785999989
 20
-4.7704938865000051
 30
0.0
  0
VERTEX
  5
73BD
  8
0
 10
5.9746189307000002
 20
-4.7268967750000002
 30
0.0
  0
VERTEX
  5
73BE
  8
0
 10
6.2570836870000006
 20
-4.6811822980999969
 30
0.0
  0
VERTEX
  5
73BF
  8
0
 10
6.5392323855000001
 20
-4.6333510205999948
 30
0.0
  0
VERTEX
  5
73C0
  8
0
 10
6.8307346382999992
 20
-4.5860588042000003
 30
0.0
  0
SEQEND
  5
73C1
  8
0
  0
POLYLINE
  5
46A
  8
0
 66
     1
 10
0.0
 20
0.0
 30
0.0
  0
VERTEX
  5
73C2
  8
0
 10
0.0
 20
-4.9856439705999938
 30
0.0
  0
VERTEX
  5
73C3
  8
0
 10
0.2777061338000006
 20
-4.9846152925000089
 30
0.0
  0
VERTEX
  5
73C4
  8
0
 10
0.5554257378000003
 20
-4.9815293331000063
 30
0.0
  0
VERTEX
  5
73C5
  8
0
 10
0.8331476610999999
 20
-4.9763861336999957
 30
0.0
  0
VERTEX
  5
73C6
  8
0
 10
1.110870631499999
 20
-4.9691853649999942
 30
0.0
  0
VERTEX
  5
73C7
  8
0
 10
1.3885735845999989
 20
-4.9599270527999968
 30
0.0
  0
VERTEX
  5
73C8
  8
0
 10
1.666215681799998
 20
-4.9486123195999951
 30
0.0
  0
VERTEX
  5
73C9
  8
0
 10
1.9437856066999999
 20
-4.9352415694000049
 30
0.0
  0
VERTEX
  5
73CA
  8
0
 10
2.221272327499999
 20
-4.9198151045999969
 30
0.0
  0
VERTEX
  5
73CB
  8
0
 10
2.4986354710000001
 20
-4.9023351018000048
 30
0.0
  0
VERTEX
  5
73CC
  8
0
 10
2.7758485046999999
 20
-4.8828035690999982
 30
0.0
  0
VERTEX
  5
73CD
  8
0
 10
3.0529156757999991
 20
-4.8612202721999926
 30
0.0
  0
VERTEX
  5
73CE
  8
0
 10
3.329842757899999
 20
-4.837584180599996
 30
0.0
  0
VERTEX
  5
73CF
  8
0
 10
3.606618158099999
 20
-4.8118957172999961
 30
0.0
  0
VERTEX
  5
73D0
  8
0
 10
3.883231155999999
 20
-4.7841559644999938
 30
0.0
  0
VERTEX
  5
73D1
  8
0
 10
4.1596886871000001
 20
-4.754364025399993
 30
0.0
  0
VERTEX
  5
73D2
  8
0
 10
4.4359931649000011
 20
-4.722519227199995
 30
0.0
  0
VERTEX
  5
73D3
  8
0
 10
4.7121197342000007
 20
-4.6886239133000061
 30
0.0
  0
VERTEX
  5
73D4
  8
0
 10
4.9880343242
 20
-4.6526817072999966
 30
0.0
  0
VERTEX
  5
73D5
  8
0
 10
5.2637289047999998
 20
-4.6146934757000011
 30
0.0
  0
VERTEX
  5
73D6
  8
0
 10
5.539189015299999
 20
-4.574660753599999
 30
0.0
  0
VERTEX
  5
73D7
  8
0
 10
5.8143709504999981
 20
-4.532589302500007
 30
0.0
  0
VERTEX
  5
73D8
  8
0
 10
6.0892526492999997
 20
-4.4884825240000046
 30
0.0
  0
VERTEX
  5
73D9
  8
0
 10
6.3638336709000001
 20
-4.4423406443999971
 30
0.0
  0
VERTEX
  5
73DA
  8
0
 10
6.6381027518999991
 20
-4.3941652836999969
 30
0.0
  0
SEQEND
  5
73DB
  8
0
  0
POLYLINE
  5
46D
  8
0
 66
     1
 10
0.0
 20
0.0
 30
0.0
  0
VERTEX
  5
73DC
  8
0
 10
0.0
 20
-4.9856439705999938
 30
0.0
  0
VERTEX
  5
73DD
  8
0
 10
-0.2777061337000024
 20
-4.9846152925000089
 30
0.0
  0
VERTEX
  5
73DE
  8
0
 10
-0.5554257378000003
 20
-4.9815293331000063
 30
0.0
  0
VERTEX
  5
73DF
  8
0
 10
-0.8331476609999999
 20
-4.9763861336999957
 30
0.0
  0
VERTEX
  5
73E0
  8
0
 10
-1.110870631499999
 20
-4.9691853649999942
 30
0.0
  0
VERTEX
  5
73E1
  8
0
 10
-1.3885735846
 20
-4.9599270527999968
 30
0.0
  0
VERTEX
  5
73E2
  8
0
 10
-1.6662156818000009
 20
-4.9486123195999951
 30
0.0
  0
VERTEX
  5
73E3
  8
0
 10
-1.9437856066000001
 20
-4.9352415694000049
 30
0.0
  0
VERTEX
  5
73E4
  8
0
 10
-2.2212723274999999
 20
-4.9198151045999969
 30
0.0
  0
VERTEX
  5
73E5
  8
0
 10
-2.4986354710000001
 20
-4.9023351018000048
 30
0.0
  0
VERTEX
  5
73E6
  8
0
 10
-2.775848504599999
 20
-4.8828035690999982
 30
0.0
  0
VERTEX
  5
73E7
  8
0
 10
-3.0529156757000009
 20
-4.8612202721999926
 30
0.0
  0
VERTEX
  5
73E8
  8
0
 10
-3.329842757899999
 20
-4.837584180599996
 30
0.0
  0
VERTEX
  5
73E9
  8
0
 10
-3.606618157999999
 20
-4.8118957172999961
 30
0.0
  0
VERTEX
  5
73EA
  8
0
 10
-3.883231155999999
 20
-4.7841559644999938
 30
0.0
  0
VERTEX
  5
73EB
  8
0
 10
-4.1596886870000001
 20
-4.754364025399993
 30
0.0
  0
VERTEX
  5
73EC
  8
0
 10
-4.4359931649000011
 20
-4.722519227199995
 30
0.0
  0
VERTEX
  5
73ED
  8
0
 10
-4.712119734099999
 20
-4.6886239133000061
 30
0.0
  0
VERTEX
  5
73EE
  8
0
 10
-4.9880343242
 20
-4.6526817072999966
 30
0.0
  0
VERTEX
  5
73EF
  8
0
 10
-5.2637289048000024
 20
-4.6146934757000011
 30
0.0
  0
VERTEX
  5
73F0
  8
0
 10
-5.5391890153000007
 20
-4.574660753599999
 30
0.0
  0
VERTEX
  5
73F1
  8
0
 10
-5.8143709504999999
 20
-4.532589302500007
 30
0.0
  0
VERTEX
  5
73F2
  8
0
 10
-6.0892526491999996
 20
-4.4884825240000046
 30
0.0
  0
VERTEX
  5
73F3
  8
0
 10
-6.3638336708000001
 20
-4.4423406443999971
 30
0.0
  0
VERTEX
  5
73F4
  8
0
 10
-6.6381027518999991
 20
-4.3941652836999969
 30
0.0
  0
SEQEND
  5
73F5
  8
0
  0
POLYLINE
  5
46E
  8
0
 66
     1
 10
0.0
 20
0.0
 30
0.0
  0
VERTEX
  5
73F6
  8
0
 10
0.0
 20
-5.7583216291999966
 30
0.0
  0
VERTEX
  5
73F7
  8
0
 10
0.0134284847000004
 20
-5.7583735838000001
 30
0.0
  0
VERTEX
  5
73F8
  8
0
 10
0.026849413299999
 20
-5.7585289999999949
 30
0.0
  0
VERTEX
  5
73F9
  8
0
 10
0.0402502520999999
 20
-5.7587878776999943
 30
0.0
  0
VERTEX
  5
73FA
  8
0
 10
0.0536238386000001
 20
-5.7591508542999961
 30
0.0
  0
VERTEX
  5
73FB
  8
0
 10
0.0669522213999976
 20
-5.7596172924999962
 30
0.0
  0
VERTEX
  5
73FC
  8
0
 10
0.0802068992000003
 20
-5.7601852797999982
 30
0.0
  0
VERTEX
  5
73FD
  8
0
 10
0.0933650755999978
 20
-5.760854565999999
 30
0.0
  0
VERTEX
  5
73FE
  8
0
 10
0.1064254260000013
 20
-5.7616254012999937
 30
0.0
  0
VERTEX
  5
73FF
  8
0
 10
0.1193917187999993
 20
-5.7624966232999952
 30
0.0
  0
VERTEX
  5
7400
  8
0
 10
0.1322612255999971
 20
-5.7634691121999921
 30
0.0
  0
VERTEX
  5
7401
  8
0
 10
0.145012218499998
 20
-5.7645419878000013
 30
0.0
  0
VERTEX
  5
7402
  8
0
 10
0.1576201310999981
 20
-5.7657114467999966
 30
0.0
  0
VERTEX
  5
7403
  8
0
 10
0.1700681823999997
 20
-5.7669773459999973
 30
0.0
  0
VERTEX
  5
7404
  8
0
 10
0.1823505231000002
 20
-5.7683398285999976
 30
0.0
  0
VERTEX
  5
7405
  8
0
 10
0.194459501999999
 20
-5.7697955208999971
 30
0.0
  0
VERTEX
  5
7406
  8
0
 10
0.2063828765999993
 20
-5.7713443412999998
 30
0.0
  0
VERTEX
  5
7407
  8
0
 10
0.2181110172
 20
-5.7729863713999938
 30
0.0
  0
VERTEX
  5
7408
  8
0
 10
0.2296399895000007
 20
-5.7747184811999972
 30
0.0
  0
VERTEX
  5
7409
  8
0
 10
0.2409636011000007
 20
-5.7765416475999984
 30
0.0
  0
VERTEX
  5
740A
  8
0
 10
0.2520663690999996
 20
-5.7784548936999931
 30
0.0
  0
VERTEX
  5
740B
  8
0
 10
0.2629307969999992
 20
-5.7804521597999994
 30
0.0
  0
VERTEX
  5
740C
  8
0
 10
0.2735394643999971
 20
-5.7825320485999958
 30
0.0
  0
VERTEX
  5
740D
  8
0
 10
0.2838908519000007
 20
-5.7846959573999959
 30
0.0
  0
VERTEX
  5
740E
  8
0
 10
0.2939909538999981
 20
-5.7869420175999968
 30
0.0
  0
VERTEX
  5
740F
  8
0
 10
0.3038368144000003
 20
-5.7892720580999963
 30
0.0
  0
VERTEX
  5
7410
  8
0
 10
0.3134106281000015
 20
-5.7916842500999968
 30
0.0
  0
VERTEX
  5
7411
  8
0
 10
0.3226958449000001
 20
-5.7941712382999953
 30
0.0
  0
VERTEX
  5
7412
  8
0
 10
0.3316782812000003
 20
-5.7967317464999999
 30
0.0
  0
VERTEX
  5
7413
  8
0
 10
0.3403547335999999
 20
-5.7993670508999946
 30
0.0
  0
VERTEX
  5
7414
  8
0
 10
0.3487251741000001
 20
-5.8020736252999958
 30
0.0
  0
VERTEX
  5
7415
  8
0
 10
0.3567818368000015
 20
-5.8048520201000002
 30
0.0
  0
VERTEX
  5
7416
  8
0
 10
0.3645141976000001
 20
-5.8077016848999961
 30
0.0
  0
VERTEX
  5
7417
  8
0
 10
0.3719169933999993
 20
-5.8106174429999982
 30
0.0
  0
VERTEX
  5
7418
  8
0
 10
0.3789825571000005
 20
-5.8136000717999963
 30
0.0
  0
VERTEX
  5
7419
  8
0
 10
0.3857007400000007
 20
-5.816648793799998
 30
0.0
  0
VERTEX
  5
741A
  8
0
 10
0.3920625446999999
 20
-5.8197560995999993
 30
0.0
  0
VERTEX
  5
741B
  8
0
 10
0.3980578283999989
 20
-5.822921060299997
 30
0.0
  0
VERTEX
  5
741C
  8
0
 10
0.4036811505999971
 20
-5.8261446047999987
 30
0.0
  0
VERTEX
  5
741D
  8
0
 10
0.4089299692999991
 20
-5.8294220101999983
 30
0.0
  0
VERTEX
  5
741E
  8
0
 10
0.4137996167000005
 20
-5.8327561735999964
 30
0.0
  0
VERTEX
  5
741F
  8
0
 10
0.4182777716999997
 20
-5.836144197799995
 30
0.0
  0
VERTEX
  5
7420
  8
0
 10
0.4223514013000003
 20
-5.8395726686999927
 30
0.0
  0
VERTEX
  5
7421
  8
0
 10
0.4260124937000001
 20
-5.8430395720999959
 30
0.0
  0
VERTEX
  5
7422
  8
0
 10
0.4292586300999997
 20
-5.8465469221999982
 30
0.0
  0
VERTEX
  5
7423
  8
0
 10
0.4320865850000005
 20
-5.8500873468999961
 30
0.0
  0
VERTEX
  5
7424
  8
0
 10
0.4344921075000006
 20
-5.8536628770999988
 30
0.0
  0
VERTEX
  5
7425
  8
0
 10
0.4364686696
 20
-5.857271481799998
 30
0.0
  0
VERTEX
  5
7426
  8
0
 10
0.4380105358000002
 20
-5.860899696899998
 30
0.0
  0
VERTEX
  5
7427
  8
0
 10
0.4391144370999971
 20
-5.864543034199996
 30
0.0
  0
VERTEX
  5
7428
  8
0
 10
0.4397783067999992
 20
-5.8682059817999948
 30
0.0
  0
VERTEX
  5
7429
  8
0
 10
0.4399999999999995
 20
-5.871888539799996
 30
0.0
  0
SEQEND
  5
742A
  8
0
  0
POLYLINE
  5
46F
  8
0
 66
     1
 10
0.0
 20
0.0
 30
0.0
  0
VERTEX
  5
742B
  8
0
 10
0.0
 20
-5.1959699570999973
 30
0.0
  0
VERTEX
  5
742C
  8
0
 10
-0.2853438401999995
 20
-5.194906098899998
 30
0.0
  0
VERTEX
  5
742D
  8
0
 10
-0.5707100360999995
 20
-5.1917143137999977
 30
0.0
  0
VERTEX
  5
742E
  8
0
 10
-0.8560830464000019
 20
-5.1863944744999984
 30
0.0
  0
VERTEX
  5
742F
  8
0
 10
-1.141453470800001
 20
-5.1789463063999932
 30
0.0
  0
VERTEX
  5
7430
  8
0
 10
-1.4267995909999991
 20
-5.1693697197999953
 30
0.0
  0
VERTEX
  5
7431
  8
0
 10
-1.7120873612
 20
-5.1576652690000051
 30
0.0
  0
VERTEX
  5
7432
  8
0
 10
-1.9973004826
 20
-5.1438332784000016
 30
0.0
  0
VERTEX
  5
7433
  8
0
 10
-2.2824240585000011
 20
-5.1278739523000061
 30
0.0
  0
VERTEX
  5
7434
  8
0
 10
-2.5674261122999988
 20
-5.1097884365000041
 30
0.0
  0
VERTEX
  5
7435
  8
0
 10
-2.8522746850000011
 20
-5.0895785929999979
 30
0.0
  0
VERTEX
  5
7436
  8
0
 10
-3.1369705021000001
 20
-5.0672440215999961
 30
0.0
  0
VERTEX
  5
7437
  8
0
 10
-3.4215304887000011
 20
-5.0427821038999951
 30
0.0
  0
VERTEX
  5
7438
  8
0
 10
-3.7059398927
 20
-5.0161926998999951
 30
0.0
  0
VERTEX
  5
7439
  8
0
 10
-3.9901820470000011
 20
-4.987476650399997
 30
0.0
  0
VERTEX
  5
743A
  8
0
 10
-4.2742707703000011
 20
-4.9566316050000054
 30
0.0
  0
VERTEX
  5
743B
  8
0
 10
-4.5582050541000001
 20
-4.9236564727999967
 30
0.0
  0
VERTEX
  5
743C
  8
0
 10
-4.8419542825999997
 20
-4.8885534420000019
 30
0.0
  0
VERTEX
  5
743D
  8
0
 10
-5.1254876746000004
 20
-4.8513247673000057
 30
0.0
  0
VERTEX
  5
743E
  8
0
 10
-5.4087912406000003
 20
-4.811971166899994
 30
0.0
  0
VERTEX
  5
743F
  8
0
 10
-5.6918471785000007
 20
-4.7704938865000051
 30
0.0
  0
VERTEX
  5
7440
  8
0
 10
-5.9746189306000002
 20
-4.7268967750000002
 30
0.0
  0
VERTEX
  5
7441
  8
0
 10
-6.2570836870000006
 20
-4.6811822980999969
 30
0.0
  0
VERTEX
  5
7442
  8
0
 10
-6.5392323854000001
 20
-4.6333510205999948
 30
0.0
  0
VERTEX
  5
7443
  8
0
 10
-6.8210490734000011
 20
-4.5834044070999971
 30
0.0
  0
SEQEND
  5
7444
  8
0
  0
POLYLINE
  5
47F
  8
0
 66
     1
 10
0.0
 20
0.0
 30
0.0
  0
VERTEX
  5
7445
  8
0
 10
-3.455908706899999
 20
-2.3401535331999952
 30
0.0
  0
VERTEX
  5
7446
  8
0
 10
-3.459113588400001
 20
-2.3360328561999921
 30
0.0
  0
VERTEX
  5
7447
  8
0
 10
-3.4622122829000008
 20
-2.3319985377999961
 30
0.0
  0
VERTEX
  5
7448
  8
0
 10
-3.4652044563
 20
-2.3280548211999981
 30
0.0
  0
VERTEX
  5
7449
  8
0
 10
-3.4680858921000008
 20
-2.3242083840999959
 30
0.0
  0
VERTEX
  5
744A
  8
0
 10
-3.4708605910000001
 20
-2.3204602228999951
 30
0.0
  0
SEQEND
  5
744B
  8
0
  0
LINE
  5
480
  8
0
 10
-3.4708605910000001
 20
-2.3204602228999951
 30
0.0
 11
-3.4761276439999991
 21
-2.313247480899995
 31
0.0
  0
LINE
  5
481
  8
0
 10
-3.4761276439999991
 20
-2.313247480899995
 30
0.0
 11
-3.4810275863999989
 21
-2.3064217561999949
 31
0.0
  0
LINE
  5
482
  8
0
 10
-3.4810275863999989
 20
-2.3064217561999949
 30
0.0
 11
-3.485581537799999
 21
-2.2999806466000048
 31
0.0
  0
LINE
  5
483
  8
0
 10
-3.485581537799999
 20
-2.2999806466000048
 30
0.0
 11
-3.4898442705999999
 21
-2.2938679326000009
 31
0.0
  0
LINE
  5
484
  8
0
 10
-3.4898442705999999
 20
-2.2938679326000009
 30
0.0
 11
-3.4938545244000001
 21
-2.2880429645999949
 31
0.0
  0
LINE
  5
485
  8
0
 10
-3.4938545244000001
 20
-2.2880429645999949
 30
0.0
 11
-3.497675308499999
 21
-2.2824216921999958
 31
0.0
  0
LINE
  5
486
  8
0
 10
-3.497675308499999
 20
-2.2824216921999958
 30
0.0
 11
-3.5013695433000001
 21
-2.276913425999993
 31
0.0
  0
LINE
  5
487
  8
0
 10
-3.5013695433000001
 20
-2.276913425999993
 30
0.0
 11
-3.5049803244
 21
-2.2714564773000059
 31
0.0
  0
LINE
  5
488
  8
0
 10
-3.5049803244
 20
-2.2714564773000059
 30
0.0
 11
-3.5085741653999998
 21
-2.2659508123999919
 31
0.0
  0
LINE
  5
489
  8
0
 10
-3.5085741653999998
 20
-2.2659508123999919
 30
0.0
 11
-3.5122162126999998
 21
-2.2602985844999921
 31
0.0
  0
LINE
  5
48A
  8
0
 10
-3.5122162126999998
 20
-2.2602985844999921
 30
0.0
 11
-3.5159431905999989
 21
-2.2544393748999951
 31
0.0
  0
LINE
  5
48B
  8
0
 10
-3.5159431905999989
 20
-2.2544393748999951
 30
0.0
 11
-3.519805827599999
 21
-2.2482893789999991
 31
0.0
  0
LINE
  5
48C
  8
0
 10
-3.519805827599999
 20
-2.2482893789999991
 30
0.0
 11
-3.5238451148000012
 21
-2.2417693994000061
 31
0.0
  0
POLYLINE
  5
48D
  8
0
 66
     1
 10
0.0
 20
0.0
 30
0.0
  0
VERTEX
  5
744C
  8
0
 10
-3.5238451148000012
 20
-2.2417693994000061
 30
0.0
  0
VERTEX
  5
744D
  8
0
 10
-3.5280825637999991
 20
-2.234819949999995
 30
0.0
  0
VERTEX
  5
744E
  8
0
 10
-3.5302944549999991
 20
-2.2311357686000051
 30
0.0
  0
VERTEX
  5
744F
  8
0
 10
-3.5325618554
 20
-2.2273198296999932
 30
0.0
  0
VERTEX
  5
7450
  8
0
 10
-3.5348823489000001
 20
-2.2233727095999991
 30
0.0
  0
SEQEND
  5
7451
  8
0
  0
POLYLINE
  5
49B
  8
0
 66
     1
 10
0.0
 20
0.0
 30
0.0
  0
VERTEX
  5
7452
  8
0
 10
-3.450834866200001
 20
-1.983462592900004
 30
0.0
  0
VERTEX
  5
7453
  8
0
 10
-3.4631774205000001
 20
-1.7182801823999929
 30
0.0
  0
VERTEX
  5
7454
  8
0
 10
-3.4736762181
 20
-1.4532622044999921
 30
0.0
  0
VERTEX
  5
7455
  8
0
 10
-3.4823327426999988
 20
-1.188423291199995
 30
0.0
  0
VERTEX
  5
7456
  8
0
 10
-3.4891485073999999
 20
-0.9238305179999954
 30
0.0
  0
VERTEX
  5
7457
  8
0
 10
-3.494127333899999
 20
-0.6594465295999968
 30
0.0
  0
VERTEX
  5
7458
  8
0
 10
-3.4972715201999991
 20
-0.3951299084000084
 30
0.0
  0
VERTEX
  5
7459
  8
0
 10
-3.4985810391000012
 20
-0.1309137406000005
 30
0.0
  0
VERTEX
  5
745A
  8
0
 10
-3.4980581542000002
 20
0.1332036435999981
 30
0.0
  0
VERTEX
  5
745B
  8
0
 10
-3.4957023906999991
 20
0.3974152835000097
 30
0.0
  0
VERTEX
  5
745C
  8
0
 10
-3.491511538000001
 20
0.6617223088000018
 30
0.0
  0
VERTEX
  5
745D
  8
0
 10
-3.485485839699999
 20
0.926092140200005
 30
0.0
  0
VERTEX
  5
745E
  8
0
 10
-3.4776222463000011
 20
1.190667658199998
 30
0.0
  0
VERTEX
  5
745F
  8
0
 10
-3.467916720399999
 20
1.455486656699996
 30
0.0
  0
VERTEX
  5
7460
  8
0
 10
-3.4563681065999998
 20
1.7204815358000041
 30
0.0
  0
VERTEX
  5
7461
  8
0
 10
-3.4429749834000001
 20
1.9856376402999909
 30
0.0
  0
SEQEND
  5
7462
  8
0
  0
POLYLINE
  5
49C
  8
0
 66
     1
 10
0.0
 20
0.0
 30
0.0
  0
VERTEX
  5
7463
  8
0
 10
-3.5167028884000011
 20
-1.9865892513999981
 30
0.0
  0
VERTEX
  5
7464
  8
0
 10
-3.5279760995
 20
-1.7208890408999971
 30
0.0
  0
VERTEX
  5
7465
  8
0
 10
-3.5375377399000012
 20
-1.4554146462999991
 30
0.0
  0
VERTEX
  5
7466
  8
0
 10
-3.5453968904000011
 20
-1.1901579691999939
 30
0.0
  0
VERTEX
  5
7467
  8
0
 10
-3.5515596233000011
 20
-0.9251420339000021
 30
0.0
  0
VERTEX
  5
7468
  8
0
 10
-3.556035582699999
 20
-0.6603273385999913
 30
0.0
  0
VERTEX
  5
7469
  8
0
 10
-3.5588359327000001
 20
-0.3956108670999967
 30
0.0
  0
VERTEX
  5
746A
  8
0
 10
-3.5599655313
 20
-0.1309995092000094
 30
0.0
  0
VERTEX
  5
746B
  8
0
 10
-3.5594255575
 20
0.1335329293999976
 30
0.0
  0
VERTEX
  5
746C
  8
0
 10
-3.5572154955000008
 20
0.3981400144999938
 30
0.0
  0
VERTEX
  5
746D
  8
0
 10
-3.5533341911000011
 20
0.6628472661000018
 30
0.0
  0
VERTEX
  5
746E
  8
0
 10
-3.5477769156000001
 20
0.9276483414999958
 30
0.0
  0
VERTEX
  5
746F
  8
0
 10
-3.5405316050999991
 20
1.192647832299996
 30
0.0
  0
VERTEX
  5
7470
  8
0
 10
-3.5315883424000001
 20
1.4578855819000009
 30
0.0
  0
VERTEX
  5
7471
  8
0
 10
-3.5209414416999989
 20
1.723337815799993
 30
0.0
  0
VERTEX
  5
7472
  8
0
 10
-3.5085818942999998
 20
1.9890124435000081
 30
0.0
  0
SEQEND
  5
7473
  8
0
  0
LINE
  5
49D
  8
0
 10
-3.455908706899999
 20
-2.3401535331999952
 30
0.0
 11
-3.4561762588999998
 21
-2.3293513257999972
 31
0.0
  0
LINE
  5
49E
  8
0
 10
-3.4561762588999998
 20
-2.3293513257999972
 30
0.0
 11
-3.4565644542000009
 21
-2.3072719445999961
 31
0.0
  0
LINE
  5
49F
  8
0
 10
-3.4565644542000009
 20
-2.3072719445999961
 30
0.0
 11
-3.4568720409000009
 21
-2.2846938972999951
 31
0.0
  0
LINE
  5
4A0
  8
0
 10
-3.4568720409000009
 20
-2.2846938972999951
 30
0.0
 11
-3.4570452982000002
 21
-2.2617313787000048
 31
0.0
  0
LINE
  5
4A1
  8
0
 10
-3.4570452982000002
 20
-2.2617313787000048
 30
0.0
 11
-3.4571470561000011
 21
-2.2385315817999958
 31
0.0
  0
POLYLINE
  5
4A5
  8
0
 66
     1
 10
0.0
 20
0.0
 30
0.0
  0
VERTEX
  5
7474
  8
0
 10
-3.5085818942999998
 20
1.9890124435000081
 30
0.0
  0
VERTEX
  5
7475
  8
0
 10
-3.5078620938
 20
2.01048190489999
 30
0.0
  0
VERTEX
  5
7476
  8
0
 10
-3.5075970377999992
 20
2.031649459
 30
0.0
  0
VERTEX
  5
7477
  8
0
 10
-3.5077863149999988
 20
2.0525224194999998
 30
0.0
  0
VERTEX
  5
7478
  8
0
 10
-3.5084646082000002
 20
2.0731132881000098
 30
0.0
  0
VERTEX
  5
7479
  8
0
 10
-3.5095964460999989
 20
2.0934232743999952
 30
0.0
  0
VERTEX
  5
747A
  8
0
 10
-3.5110764494999991
 20
2.113440541800002
 30
0.0
  0
VERTEX
  5
747B
  8
0
 10
-3.5128969467000002
 20
2.1331645948000002
 30
0.0
  0
VERTEX
  5
747C
  8
0
 10
-3.5150654906000001
 20
2.1526038586000018
 30
0.0
  0
VERTEX
  5
747D
  8
0
 10
-3.5174999311999988
 20
2.171756787900001
 30
0.0
  0
VERTEX
  5
747E
  8
0
 10
-3.5201730344
 20
2.1906238617000038
 30
0.0
  0
VERTEX
  5
747F
  8
0
 10
-3.523112331500001
 20
2.2092087693000049
 30
0.0
  0
VERTEX
  5
7480
  8
0
 10
-3.5263179849000008
 20
2.227513405400003
 30
0.0
  0
SEQEND
  5
7481
  8
0
  0
POLYLINE
  5
4A6
  8
0
 66
     1
 10
0.0
 20
0.0
 30
0.0
  0
VERTEX
  5
7482
  8
0
 10
-3.4429750048000001
 20
1.985637652500003
 30
0.0
  0
VERTEX
  5
7483
  8
0
 10
-3.4411110664
 20
2.008881251400005
 30
0.0
  0
VERTEX
  5
7484
  8
0
 10
-3.439727369599999
 20
2.031789150900003
 30
0.0
  0
VERTEX
  5
7485
  8
0
 10
-3.4388254155000002
 20
2.0543608118999961
 30
0.0
  0
VERTEX
  5
7486
  8
0
 10
-3.4384440684999991
 20
2.0765940368999969
 30
0.0
  0
VERTEX
  5
7487
  8
0
 10
-3.4385471901
 20
2.0984903184000032
 30
0.0
  0
VERTEX
  5
7488
  8
0
 10
-3.439023570899999
 20
2.120054758199998
 30
0.0
  0
VERTEX
  5
7489
  8
0
 10
-3.4398660139999988
 20
2.1412856781999992
 30
0.0
  0
VERTEX
  5
748A
  8
0
 10
-3.4410838036999989
 20
2.1621844823999998
 30
0.0
  0
VERTEX
  5
748B
  8
0
 10
-3.442590234799999
 20
2.1827608831999958
 30
0.0
  0
VERTEX
  5
748C
  8
0
 10
-3.4443569273000012
 20
2.2030180897000089
 30
0.0
  0
VERTEX
  5
748D
  8
0
 10
-3.4464138810999989
 20
2.2229528772999951
 30
0.0
  0
VERTEX
  5
748E
  8
0
 10
-3.4487618347999991
 20
2.242565326899999
 30
0.0
  0
SEQEND
  5
748F
  8
0
  0
POLYLINE
  5
4B0
  8
0
 66
     1
 10
0.0
 20
0.0
 30
0.0
  0
VERTEX
  5
7490
  8
0
 10
-3.4571470292000002
 20
-2.2385315675999991
 30
0.0
  0
VERTEX
  5
7491
  8
0
 10
-3.4547909706000008
 20
-2.2190132498999939
 30
0.0
  0
VERTEX
  5
7492
  8
0
 10
-3.4527212217000001
 20
-2.199181524399989
 30
0.0
  0
VERTEX
  5
7493
  8
0
 10
-3.4509370614999999
 20
-2.1790363231999939
 30
0.0
  0
VERTEX
  5
7494
  8
0
 10
-3.449409457599999
 20
-2.1585806167000068
 30
0.0
  0
VERTEX
  5
7495
  8
0
 10
-3.448165863199999
 20
-2.1378114702999929
 30
0.0
  0
VERTEX
  5
7496
  8
0
 10
-3.4472901644
 20
-2.1167199778999972
 30
0.0
  0
VERTEX
  5
7497
  8
0
 10
-3.446773910600001
 20
-2.0953007139999889
 30
0.0
  0
VERTEX
  5
7498
  8
0
 10
-3.4466235212999998
 20
-2.073559391499991
 30
0.0
  0
VERTEX
  5
7499
  8
0
 10
-3.4469450019000001
 20
-2.0515038089000011
 30
0.0
  0
VERTEX
  5
749A
  8
0
 10
-3.4477728145000008
 20
-2.0291367797999911
 30
0.0
  0
VERTEX
  5
749B
  8
0
 10
-3.4490699180000002
 20
-2.006456202799995
 30
0.0
  0
VERTEX
  5
749C
  8
0
 10
-3.4508348931000001
 20
-1.983462608099998
 30
0.0
  0
SEQEND
  5
749D
  8
0
  0
LINE
  5
4B1
  8
0
 10
-3.0601434895000001
 20
-2.3648548580999948
 30
0.0
 11
-3.0497551453999989
 21
-2.2840734543999939
 31
0.0
  0
POLYLINE
  5
4B2
  8
0
 66
     1
 10
0.0
 20
0.0
 30
0.0
  0
VERTEX
  5
749E
  8
0
 10
-3.5348823617000011
 20
-2.2233727705000059
 30
0.0
  0
VERTEX
  5
749F
  8
0
 10
-3.5316715206999989
 20
-2.2051562211999922
 30
0.0
  0
VERTEX
  5
74A0
  8
0
 10
-3.5287228920000011
 20
-2.1866676339
 30
0.0
  0
VERTEX
  5
74A1
  8
0
 10
-3.526036340200001
 20
-2.167905055500007
 30
0.0
  0
VERTEX
  5
74A2
  8
0
 10
-3.5235852661
 20
-2.1488645185999919
 30
0.0
  0
VERTEX
  5
74A3
  8
0
 10
-3.5213960235000008
 20
-2.1295457255000079
 30
0.0
  0
VERTEX
  5
74A4
  8
0
 10
-3.519548070199999
 20
-2.109950888900002
 30
0.0
  0
VERTEX
  5
74A5
  8
0
 10
-3.5180344492
 20
-2.090067975299994
 30
0.0
  0
VERTEX
  5
74A6
  8
0
 10
-3.5168622768000009
 20
-2.0699011106
 30
0.0
  0
VERTEX
  5
74A7
  8
0
 10
-3.5161325255000002
 20
-2.0494737351000079
 30
0.0
  0
VERTEX
  5
74A8
  8
0
 10
-3.5158792252999991
 20
-2.0287886002000022
 30
0.0
  0
VERTEX
  5
74A9
  8
0
 10
-3.5160692003
 20
-2.0078294871999982
 30
0.0
  0
VERTEX
  5
74AA
  8
0
 10
-3.5167028884000011
 20
-1.9865892513999981
 30
0.0
  0
SEQEND
  5
74AB
  8
0
  0
LINE
  5
4B4
  8
0
 10
-6.7877282316000001
 20
-4.3076658922999931
 30
0.0
 11
-6.7856895352000013
 21
-4.307252558000001
 31
0.0
  0
LINE
  5
4B6
  8
0
 10
-6.7856895352000013
 20
-4.307252558000001
 30
0.0
 11
-6.7835928986000003
 21
-4.3068404129999962
 31
0.0
  0
LINE
  5
4B7
  8
0
 10
-6.7835928986000003
 20
-4.3068404129999962
 30
0.0
 11
-6.7814351644999986
 21
-4.3064288932999943
 31
0.0
  0
LINE
  5
4BA
  8
0
 10
-6.7814351644999986
 20
-4.3064288932999943
 30
0.0
 11
-6.7792045758000006
 21
-4.3060161290999943
 31
0.0
  0
POLYLINE
  5
4BB
  8
0
 66
     1
 10
0.0
 20
0.0
 30
0.0
  0
VERTEX
  5
74AC
  8
0
 10
-6.7519008578999991
 20
-4.3013757538999959
 30
0.0
  0
VERTEX
  5
74AD
  8
0
 10
-6.7505035869999999
 20
-4.3011202509999933
 30
0.0
  0
VERTEX
  5
74AE
  8
0
 10
-6.7491097705999996
 20
-4.300858996099997
 30
0.0
  0
VERTEX
  5
74AF
  8
0
 10
-6.7477187950999991
 20
-4.3005918919999919
 30
0.0
  0
VERTEX
  5
74B0
  8
0
 10
-6.7463341722000001
 20
-4.3003173895999964
 30
0.0
  0
VERTEX
  5
74B1
  8
0
 10
-6.7449552971999998
 20
-4.3000352917000049
 30
0.0
  0
VERTEX
  5
74B2
  8
0
 10
-6.7435827728999991
 20
-4.2997458100999992
 30
0.0
  0
VERTEX
  5
74B3
  8
0
 10
-6.7422219214999997
 20
-4.299448014999995
 30
0.0
  0
VERTEX
  5
74B4
  8
0
 10
-6.7408719806000006
 20
-4.299141315399992
 30
0.0
  0
VERTEX
  5
74B5
  8
0
 10
-6.7395337097000008
 20
-4.2988263234999939
 30
0.0
  0
VERTEX
  5
74B6
  8
0
 10
-6.7382147129999987
 20
-4.2985039209999982
 30
0.0
  0
VERTEX
  5
74B7
  8
0
 10
-6.7369168557999997
 20
-4.2981741668999973
 30
0.0
  0
VERTEX
  5
74B8
  8
0
 10
-6.7356382687999998
 20
-4.2978370300999984
 30
0.0
  0
VERTEX
  5
74B9
  8
0
 10
-6.7343809538999997
 20
-4.2974932609999916
 30
0.0
  0
VERTEX
  5
74BA
  8
0
 10
-6.7331458359000012
 20
-4.2971431309999977
 30
0.0
  0
VERTEX
  5
74BB
  8
0
 10
-6.7319319860000011
 20
-4.2967863956999963
 30
0.0
  0
VERTEX
  5
74BC
  8
0
 10
-6.7307386255999999
 20
-4.2964230315999918
 30
0.0
  0
VERTEX
  5
74BD
  8
0
 10
-6.7295654505
 20
-4.2960529684999917
 30
0.0
  0
VERTEX
  5
74BE
  8
0
 10
-6.7284127612999987
 20
-4.2956763007000021
 30
0.0
  0
VERTEX
  5
74BF
  8
0
 10
-6.7272806857000012
 20
-4.2952932510999977
 30
0.0
  0
VERTEX
  5
74C0
  8
0
 10
-6.7261693008999996
 20
-4.2949038552000038
 30
0.0
  0
VERTEX
  5
74C1
  8
0
 10
-6.725078526299999
 20
-4.2945080998999918
 30
0.0
  0
VERTEX
  5
74C2
  8
0
 10
-6.724008253900001
 20
-4.2941061334999944
 30
0.0
  0
VERTEX
  5
74C3
  8
0
 10
-6.7229584425999986
 20
-4.2936979507000004
 30
0.0
  0
VERTEX
  5
74C4
  8
0
 10
-6.7219291302999986
 20
-4.2932835774000031
 30
0.0
  0
VERTEX
  5
74C5
  8
0
 10
-6.7209203276
 20
-4.2928632079999991
 30
0.0
  0
VERTEX
  5
74C6
  8
0
 10
-6.7199321354999997
 20
-4.2924369009000003
 30
0.0
  0
VERTEX
  5
74C7
  8
0
 10
-6.7189644498999987
 20
-4.2920046164999937
 30
0.0
  0
VERTEX
  5
74C8
  8
0
 10
-6.7180169741000011
 20
-4.2915664013999972
 30
0.0
  0
VERTEX
  5
74C9
  8
0
 10
-6.717089303499999
 20
-4.2911220473
 30
0.0
  0
VERTEX
  5
74CA
  8
0
 10
-6.7161818397999991
 20
-4.2906717793000047
 30
0.0
  0
VERTEX
  5
74CB
  8
0
 10
-6.7152954948000003
 20
-4.2902162937000048
 30
0.0
  0
VERTEX
  5
74CC
  8
0
 10
-6.7144288235999996
 20
-4.2897545741999963
 30
0.0
  0
VERTEX
  5
74CD
  8
0
 10
-6.7135832683999999
 20
-4.2892876521000067
 30
0.0
  0
VERTEX
  5
74CE
  8
0
 10
-6.7127640716999997
 20
-4.2888192944000059
 30
0.0
  0
VERTEX
  5
74CF
  8
0
 10
-6.7119729800999997
 20
-4.2883507611999931
 30
0.0
  0
VERTEX
  5
74D0
  8
0
 10
-6.7112082446000008
 20
-4.2878808053000048
 30
0.0
  0
VERTEX
  5
74D1
  8
0
 10
-6.7104698641000011
 20
-4.2874094328000041
 30
0.0
  0
SEQEND
  5
74D2
  8
0
  0
LINE
  5
4BC
  8
0
 10
-6.7792045758000006
 20
-4.3060161290999943
 30
0.0
 11
-6.7768974199000001
 21
-4.3056009806999986
 31
0.0
  0
POLYLINE
  5
4BD
  8
0
 66
     1
 10
0.0
 20
0.0
 30
0.0
  0
VERTEX
  5
74D3
  8
0
 10
3.0497760887999981
 20
-2.2840700286000049
 30
0.0
  0
VERTEX
  5
74D4
  8
0
 10
3.0821525603999991
 20
-2.2783640065000048
 30
0.0
  0
VERTEX
  5
74D5
  8
0
 10
3.1148237578999991
 20
-2.2730174688000062
 30
0.0
  0
VERTEX
  5
74D6
  8
0
 10
3.1477890193000011
 20
-2.2680321429000041
 30
0.0
  0
VERTEX
  5
74D7
  8
0
 10
3.1810531400999991
 20
-2.263420646499994
 30
0.0
  0
VERTEX
  5
74D8
  8
0
 10
3.2146100753999991
 20
-2.2591736615000002
 30
0.0
  0
VERTEX
  5
74D9
  8
0
 10
3.2484429391999998
 20
-2.2552598457999968
 30
0.0
  0
VERTEX
  5
74DA
  8
0
 10
3.2825466509999979
 20
-2.2516789515999909
 30
0.0
  0
VERTEX
  5
74DB
  8
0
 10
3.316925185799998
 20
-2.2484340180000042
 30
0.0
  0
VERTEX
  5
74DC
  8
0
 10
3.3515752657999989
 20
-2.2454984194000072
 30
0.0
  0
VERTEX
  5
74DD
  8
0
 10
3.3864954621000001
 20
-2.2428640506999988
 30
0.0
  0
VERTEX
  5
74DE
  8
0
 10
3.4216862054999999
 20
-2.2405413917999928
 30
0.0
  0
VERTEX
  5
74DF
  8
0
 10
3.4571470292000011
 20
-2.2385315675999991
 30
0.0
  0
SEQEND
  5
74E0
  8
0
  0
LINE
  5
4BE
  8
0
 10
-6.7546985743999999
 20
-4.3018704333000031
 30
0.0
 11
-6.7519008578999991
 21
-4.3013757538999959
 31
0.0
  0
LINE
  5
4BF
  8
0
 10
-6.7768974199000001
 20
-4.3056009806999986
 30
0.0
 11
-6.7732947965000001
 21
-4.3049728690999984
 31
0.0
  0
LINE
  5
4C0
  8
0
 10
-6.7574860870000011
 20
-4.3023467269999918
 30
0.0
 11
-6.7546985743999999
 21
-4.3018704333000031
 31
0.0
  0
LINE
  5
4C1
  8
0
 10
-6.7732947965000001
 20
-4.3049728690999984
 30
0.0
 11
-6.7695405553999999
 21
-4.3043386126999934
 31
0.0
  0
LINE
  5
4C2
  8
0
 10
-6.7695405553999999
 20
-4.3043386126999934
 30
0.0
 11
-6.7574860870000011
 21
-4.3023467269999918
 31
0.0
  0
POLYLINE
  5
4C3
  8
0
 66
     1
 10
0.0
 20
0.0
 30
0.0
  0
VERTEX
  5
74E1
  8
0
 10
2.8556538044000011
 20
-2.3907977163999941
 30
0.0
  0
VERTEX
  5
74E2
  8
0
 10
3.0915395843000009
 20
-2.3609538144000051
 30
0.0
  0
VERTEX
  5
74E3
  8
0
 10
3.1232075991000001
 20
-2.3574052253999929
 30
0.0
  0
VERTEX
  5
74E4
  8
0
 10
3.1551617153999998
 20
-2.3542071957000061
 30
0.0
  0
VERTEX
  5
74E5
  8
0
 10
3.1874345346000008
 20
-2.351365097700004
 30
0.0
  0
VERTEX
  5
74E6
  8
0
 10
3.2200214180999991
 20
-2.3488696457999931
 30
0.0
  0
VERTEX
  5
74E7
  8
0
 10
3.2528793860999978
 20
-2.3466972162000062
 30
0.0
  0
VERTEX
  5
74E8
  8
0
 10
3.2860151723
 20
-2.3448448366000032
 30
0.0
  0
VERTEX
  5
74E9
  8
0
 10
3.3194465008999989
 20
-2.343312137499999
 30
0.0
  0
VERTEX
  5
74EA
  8
0
 10
3.3531447991999999
 20
-2.3420798796999942
 30
0.0
  0
VERTEX
  5
74EB
  8
0
 10
3.3871074358999991
 20
-2.3411407494999921
 30
0.0
  0
VERTEX
  5
74EC
  8
0
 10
3.4213585787999992
 20
-2.3404991300999991
 30
0.0
  0
VERTEX
  5
74ED
  8
0
 10
3.4559087700000002
 20
-2.3401535321000031
 30
0.0
  0
SEQEND
  5
74EE
  8
0
  0
POLYLINE
  5
4C4
  8
0
 66
     1
 10
0.0
 20
0.0
 30
0.0
  0
VERTEX
  5
74EF
  8
0
 10
0.0
 20
-2.494323248699998
 30
0.0
  0
VERTEX
  5
74F0
  8
0
 10
0.2010971207000001
 20
-2.4933899157999941
 30
0.0
  0
VERTEX
  5
74F1
  8
0
 10
0.402557827299999
 20
-2.4906056095999949
 30
0.0
  0
VERTEX
  5
74F2
  8
0
 10
0.6043722545999996
 20
-2.4859610026000061
 30
0.0
  0
VERTEX
  5
74F3
  8
0
 10
0.8064759590000001
 20
-2.4794452490000012
 30
0.0
  0
VERTEX
  5
74F4
  8
0
 10
1.008912723099999
 20
-2.4710540195999959
 30
0.0
  0
VERTEX
  5
74F5
  8
0
 10
1.2118390509999999
 20
-2.4607848455000001
 30
0.0
  0
VERTEX
  5
74F6
  8
0
 10
1.4153739075999989
 20
-2.4486217128000041
 30
0.0
  0
VERTEX
  5
74F7
  8
0
 10
1.6193877986
 20
-2.4345591659999921
 30
0.0
  0
VERTEX
  5
74F8
  8
0
 10
1.823671628499999
 20
-2.4186139632999959
 30
0.0
  0
VERTEX
  5
74F9
  8
0
 10
2.0283350045000001
 20
-2.4007797544999931
 30
0.0
  0
VERTEX
  5
74FA
  8
0
 10
2.2332668750999991
 20
-2.381059516199997
 30
0.0
  0
VERTEX
  5
74FB
  8
0
 10
2.4379299814999982
 20
-2.3595060470000031
 30
0.0
  0
VERTEX
  5
74FC
  8
0
 10
2.6421453368000001
 20
-2.3361539646999949
 30
0.0
  0
VERTEX
  5
74FD
  8
0
 10
2.846093382999999
 20
-2.3110033601000022
 30
0.0
  0
VERTEX
  5
74FE
  8
0
 10
3.0497767536999989
 20
-2.2840704840000039
 30
0.0
  0
SEQEND
  5
74FF
  8
0
  0
POLYLINE
  5
4C5
  8
0
 66
     1
 10
0.0
 20
0.0
 30
0.0
  0
VERTEX
  5
7500
  8
0
 10
0.0
 20
-2.5630969315000049
 30
0.0
  0
VERTEX
  5
7501
  8
0
 10
0.2016628892999996
 20
-2.5622589542000038
 30
0.0
  0
VERTEX
  5
7502
  8
0
 10
0.4036888498
 20
-2.5597166666999982
 30
0.0
  0
VERTEX
  5
7503
  8
0
 10
0.6060756568999981
 20
-2.5554606240999931
 30
0.0
  0
VERTEX
  5
7504
  8
0
 10
0.8087649316000007
 20
-2.5494901468000029
 30
0.0
  0
VERTEX
  5
7505
  8
0
 10
1.011811319899999
 20
-2.5417869569000038
 30
0.0
  0
VERTEX
  5
7506
  8
0
 10
1.215376884599999
 20
-2.5323103762999959
 30
0.0
  0
VERTEX
  5
7507
  8
0
 10
1.4195674473
 20
-2.521040453499992
 30
0.0
  0
VERTEX
  5
7508
  8
0
 10
1.6242613586000001
 20
-2.507964744000005
 30
0.0
  0
VERTEX
  5
7509
  8
0
 10
1.8292679128
 20
-2.4930540773999961
 30
0.0
  0
VERTEX
  5
750A
  8
0
 10
2.034675088699998
 20
-2.4762885397999952
 30
0.0
  0
VERTEX
  5
750B
  8
0
 10
2.2403650711999989
 20
-2.4576663519999959
 30
0.0
  0
VERTEX
  5
750C
  8
0
 10
2.4458269934999981
 20
-2.4372039571999968
 30
0.0
  0
VERTEX
  5
750D
  8
0
 10
2.6508749944000001
 20
-2.4149154603000009
 30
0.0
  0
VERTEX
  5
750E
  8
0
 10
2.8556538044000011
 20
-2.3907977163999941
 30
0.0
  0
SEQEND
  5
750F
  8
0
  0
POLYLINE
  5
4C6
  8
0
 66
     1
 10
0.0
 20
0.0
 30
0.0
  0
VERTEX
  5
7510
  8
0
 10
0.0
 20
-2.5630969315000049
 30
0.0
  0
VERTEX
  5
7511
  8
0
 10
-0.2016628892000014
 20
-2.5622589542000038
 30
0.0
  0
VERTEX
  5
7512
  8
0
 10
-0.4036888497
 20
-2.5597166666999982
 30
0.0
  0
VERTEX
  5
7513
  8
0
 10
-0.6060756568999999
 20
-2.5554606240999931
 30
0.0
  0
VERTEX
  5
7514
  8
0
 10
-0.808764931499999
 20
-2.5494901468000029
 30
0.0
  0
VERTEX
  5
7515
  8
0
 10
-1.0118113199000009
 20
-2.5417869569000038
 30
0.0
  0
VERTEX
  5
7516
  8
0
 10
-1.2153768844999999
 20
-2.5323103762999959
 30
0.0
  0
VERTEX
  5
7517
  8
0
 10
-1.4195674473
 20
-2.521040453499992
 30
0.0
  0
VERTEX
  5
7518
  8
0
 10
-1.6242613586000001
 20
-2.507964744000005
 30
0.0
  0
VERTEX
  5
7519
  8
0
 10
-1.8292679126999991
 20
-2.4930540773999961
 30
0.0
  0
VERTEX
  5
751A
  8
0
 10
-2.0346750887000011
 20
-2.4762885397999952
 30
0.0
  0
VERTEX
  5
751B
  8
0
 10
-2.2403650711000012
 20
-2.4576663519999959
 30
0.0
  0
VERTEX
  5
751C
  8
0
 10
-2.445826993499999
 20
-2.4372039571999968
 30
0.0
  0
VERTEX
  5
751D
  8
0
 10
-2.6508749943000001
 20
-2.4149154603000009
 30
0.0
  0
VERTEX
  5
751E
  8
0
 10
-2.855653804300001
 20
-2.3907977163999941
 30
0.0
  0
VERTEX
  5
751F
  8
0
 10
-3.0915395843000009
 20
-2.3609538144000051
 30
0.0
  0
SEQEND
  5
7520
  8
0
  0
POLYLINE
  5
4C7
  8
0
 66
     1
 10
0.0
 20
0.0
 30
0.0
  0
VERTEX
  5
7521
  8
0
 10
0.0
 20
-2.494323248699998
 30
0.0
  0
VERTEX
  5
7522
  8
0
 10
-0.2010971206000001
 20
-2.4933899157999941
 30
0.0
  0
VERTEX
  5
7523
  8
0
 10
-0.4025578273000026
 20
-2.4906056095999949
 30
0.0
  0
VERTEX
  5
7524
  8
0
 10
-0.6043722545999996
 20
-2.4859610026000061
 30
0.0
  0
VERTEX
  5
7525
  8
0
 10
-0.8064759589000018
 20
-2.4794452490000012
 30
0.0
  0
VERTEX
  5
7526
  8
0
 10
-1.008912723100001
 20
-2.4710540195999959
 30
0.0
  0
VERTEX
  5
7527
  8
0
 10
-1.2118390509000001
 20
-2.4607848455000001
 30
0.0
  0
VERTEX
  5
7528
  8
0
 10
-1.4153739075000009
 20
-2.4486217128000041
 30
0.0
  0
VERTEX
  5
7529
  8
0
 10
-1.6193877986
 20
-2.4345591659999921
 30
0.0
  0
VERTEX
  5
752A
  8
0
 10
-1.8236716285000001
 20
-2.4186139632999959
 30
0.0
  0
VERTEX
  5
752B
  8
0
 10
-2.0283350045000001
 20
-2.4007797544999931
 30
0.0
  0
VERTEX
  5
752C
  8
0
 10
-2.2332668749999991
 20
-2.381059516199997
 30
0.0
  0
VERTEX
  5
752D
  8
0
 10
-2.4379299813999991
 20
-2.3595060470000031
 30
0.0
  0
VERTEX
  5
752E
  8
0
 10
-2.6421453368000001
 20
-2.3361539646999949
 30
0.0
  0
VERTEX
  5
752F
  8
0
 10
-2.8460933829000008
 20
-2.3110033601000022
 30
0.0
  0
VERTEX
  5
7530
  8
0
 10
-3.0497767536999989
 20
-2.2840704840000039
 30
0.0
  0
SEQEND
  5
7531
  8
0
  0
POLYLINE
  5
4C8
  8
0
 66
     1
 10
0.0
 20
0.0
 30
0.0
  0
VERTEX
  5
7532
  8
0
 10
-3.0915395843000009
 20
-2.3609538144000051
 30
0.0
  0
VERTEX
  5
7533
  8
0
 10
-3.1232075991000001
 20
-2.3574052253999929
 30
0.0
  0
VERTEX
  5
7534
  8
0
 10
-3.1551617153999998
 20
-2.3542071957000061
 30
0.0
  0
VERTEX
  5
7535
  8
0
 10
-3.1874345345000008
 20
-2.351365097700004
 30
0.0
  0
VERTEX
  5
7536
  8
0
 10
-3.2200214181
 20
-2.3488696457999931
 30
0.0
  0
VERTEX
  5
7537
  8
0
 10
-3.2528793861
 20
-2.3466972162000062
 30
0.0
  0
VERTEX
  5
7538
  8
0
 10
-3.2860151721999991
 20
-2.3448448366000032
 30
0.0
  0
VERTEX
  5
7539
  8
0
 10
-3.3194465008999989
 20
-2.343312137499999
 30
0.0
  0
VERTEX
  5
753A
  8
0
 10
-3.353144799099999
 20
-2.3420798796999942
 30
0.0
  0
VERTEX
  5
753B
  8
0
 10
-3.3871074357999991
 20
-2.3411407494999921
 30
0.0
  0
VERTEX
  5
753C
  8
0
 10
-3.4213585787
 20
-2.3404991300999991
 30
0.0
  0
VERTEX
  5
753D
  8
0
 10
-3.4559087698999988
 20
-2.3401535321000031
 30
0.0
  0
SEQEND
  5
753E
  8
0
  0
LINE
  5
4C9
  8
0
 10
6.7708061382999993
 20
-4.3045504753999992
 30
0.0
 11
6.7574860871000002
 21
-4.3023467269999918
 31
0.0
  0
LINE
  5
4CA
  8
0
 10
6.7574860871000002
 20
-4.3023467269999918
 30
0.0
 11
6.7546985743999999
 21
-4.3018704333000031
 31
0.0
  0
LINE
  5
4CB
  8
0
 10
6.7745137909999977
 20
-4.3051829850999956
 30
0.0
 11
6.7708061382999993
 21
-4.3045504753999992
 31
0.0
  0
POLYLINE
  5
4CC
  8
0
 66
     1
 10
0.0
 20
0.0
 30
0.0
  0
VERTEX
  5
753F
  8
0
 10
-3.0497760886999989
 20
-2.2840700286000049
 30
0.0
  0
VERTEX
  5
7540
  8
0
 10
-3.0821525604
 20
-2.2783640065000048
 30
0.0
  0
VERTEX
  5
7541
  8
0
 10
-3.1148237577999991
 20
-2.2730174688000062
 30
0.0
  0
VERTEX
  5
7542
  8
0
 10
-3.1477890192000002
 20
-2.2680321429000041
 30
0.0
  0
VERTEX
  5
7543
  8
0
 10
-3.1810531401
 20
-2.263420646499994
 30
0.0
  0
VERTEX
  5
7544
  8
0
 10
-3.2146100753
 20
-2.2591736615000002
 30
0.0
  0
VERTEX
  5
7545
  8
0
 10
-3.2484429391999998
 20
-2.2552598457999968
 30
0.0
  0
VERTEX
  5
7546
  8
0
 10
-3.2825466510000001
 20
-2.2516789515999909
 30
0.0
  0
VERTEX
  5
7547
  8
0
 10
-3.3169251858000002
 20
-2.2484340180000042
 30
0.0
  0
VERTEX
  5
7548
  8
0
 10
-3.3515752658000011
 20
-2.2454984194000072
 30
0.0
  0
VERTEX
  5
7549
  8
0
 10
-3.3864954621000001
 20
-2.2428640506999988
 30
0.0
  0
VERTEX
  5
754A
  8
0
 10
-3.4216862055000008
 20
-2.2405413917999928
 30
0.0
  0
VERTEX
  5
754B
  8
0
 10
-3.4571470292000002
 20
-2.2385315675999991
 30
0.0
  0
SEQEND
  5
754C
  8
0
  0
POLYLINE
  5
4CD
  8
0
 66
     1
 10
0.0
 20
0.0
 30
0.0
  0
VERTEX
  5
754D
  8
0
 10
6.7546985743999999
 20
-4.3018704333000031
 30
0.0
  0
VERTEX
  5
754E
  8
0
 10
6.7519008579999991
 20
-4.3013757538999959
 30
0.0
  0
VERTEX
  5
754F
  8
0
 10
6.7505035870999999
 20
-4.3011202509999933
 30
0.0
  0
VERTEX
  5
7550
  8
0
 10
6.7491097706999978
 20
-4.300858996099997
 30
0.0
  0
VERTEX
  5
7551
  8
0
 10
6.7477187952
 20
-4.3005918919999919
 30
0.0
  0
VERTEX
  5
7552
  8
0
 10
6.7463341722000001
 20
-4.3003173895999964
 30
0.0
  0
VERTEX
  5
7553
  8
0
 10
6.7449552971999998
 20
-4.3000352917000049
 30
0.0
  0
VERTEX
  5
7554
  8
0
 10
6.7435827729999991
 20
-4.2997458100999992
 30
0.0
  0
VERTEX
  5
7555
  8
0
 10
6.7422219215999997
 20
-4.299448014999995
 30
0.0
  0
VERTEX
  5
7556
  8
0
 10
6.7408719805999988
 20
-4.299141315399992
 30
0.0
  0
VERTEX
  5
7557
  8
0
 10
6.739533709799999
 20
-4.2988263234999939
 30
0.0
  0
VERTEX
  5
7558
  8
0
 10
6.7382147130999988
 20
-4.2985039209999982
 30
0.0
  0
VERTEX
  5
7559
  8
0
 10
6.7369168557999979
 20
-4.2981741668999973
 30
0.0
  0
VERTEX
  5
755A
  8
0
 10
6.7356382688999981
 20
-4.2978370300999984
 30
0.0
  0
VERTEX
  5
755B
  8
0
 10
6.7343809538999979
 20
-4.2974932609999916
 30
0.0
  0
VERTEX
  5
755C
  8
0
 10
6.7331458359999976
 20
-4.2971431309999977
 30
0.0
  0
VERTEX
  5
755D
  8
0
 10
6.7319319860999993
 20
-4.2967863956999963
 30
0.0
  0
VERTEX
  5
755E
  8
0
 10
6.730738625599999
 20
-4.2964230315999918
 30
0.0
  0
VERTEX
  5
755F
  8
0
 10
6.7295654505999991
 20
-4.2960529684999917
 30
0.0
  0
VERTEX
  5
7560
  8
0
 10
6.7284127612999987
 20
-4.2956763007000021
 30
0.0
  0
VERTEX
  5
7561
  8
0
 10
6.7272806858000003
 20
-4.2952932510999977
 30
0.0
  0
VERTEX
  5
7562
  8
0
 10
6.7261693008999979
 20
-4.2949038552000038
 30
0.0
  0
VERTEX
  5
7563
  8
0
 10
6.725078526299999
 20
-4.2945080998999918
 30
0.0
  0
VERTEX
  5
7564
  8
0
 10
6.7240082539999992
 20
-4.2941061334999944
 30
0.0
  0
VERTEX
  5
7565
  8
0
 10
6.7229584426999986
 20
-4.2936979507000004
 30
0.0
  0
VERTEX
  5
7566
  8
0
 10
6.7219291303999986
 20
-4.2932835774000031
 30
0.0
  0
VERTEX
  5
7567
  8
0
 10
6.7209203276
 20
-4.2928632079999991
 30
0.0
  0
VERTEX
  5
7568
  8
0
 10
6.7199321354999997
 20
-4.2924369009000003
 30
0.0
  0
VERTEX
  5
7569
  8
0
 10
6.7189644499999988
 20
-4.2920046164999937
 30
0.0
  0
VERTEX
  5
756A
  8
0
 10
6.7180169741000011
 20
-4.2915664013999972
 30
0.0
  0
VERTEX
  5
756B
  8
0
 10
6.717089303599999
 20
-4.2911220473
 30
0.0
  0
VERTEX
  5
756C
  8
0
 10
6.7161818399
 20
-4.2906717793000047
 30
0.0
  0
VERTEX
  5
756D
  8
0
 10
6.7152954948999994
 20
-4.2902162937000048
 30
0.0
  0
VERTEX
  5
756E
  8
0
 10
6.7144288235999978
 20
-4.2897545741999963
 30
0.0
  0
VERTEX
  5
756F
  8
0
 10
6.7135832683999981
 20
-4.2892876521000067
 30
0.0
  0
VERTEX
  5
7570
  8
0
 10
6.7127640716999997
 20
-4.2888192944000059
 30
0.0
  0
VERTEX
  5
7571
  8
0
 10
6.7119729801999997
 20
-4.2883507611999931
 30
0.0
  0
VERTEX
  5
7572
  8
0
 10
6.711208244699999
 20
-4.2878808053000048
 30
0.0
  0
VERTEX
  5
7573
  8
0
 10
6.7104698642000002
 20
-4.2874094328000041
 30
0.0
  0
SEQEND
  5
7574
  8
0
  0
LINE
  5
4CE
  8
0
 10
6.7780610808999979
 20
-4.3058089421999952
 30
0.0
 11
6.7745137909999977
 21
-4.3051829850999956
 31
0.0
  0
LINE
  5
4CF
  8
0
 10
6.7803288243000006
 20
-4.306222657899994
 30
0.0
 11
6.7780610808999979
 21
-4.3058089421999952
 31
0.0
  0
LINE
  5
4D0
  8
0
 10
6.7825229869000001
 20
-4.3066347915999961
 30
0.0
 11
6.7803288243000006
 21
-4.306222657899994
 31
0.0
  0
LINE
  5
4D1
  8
0
 10
-3.4834692043000008
 20
-2.233583128999995
 30
0.0
 11
-3.4571470561000011
 21
-2.2385315817999958
 31
0.0
  0
LINE
  5
4D2
  8
0
 10
6.7846480633999979
 20
-4.3070462761999968
 30
0.0
 11
6.7825229869000001
 21
-4.3066347915999961
 31
0.0
  0
LINE
  5
4D3
  8
0
 10
-3.5008367133
 20
-2.2302148062999971
 30
0.0
 11
-3.4834692043000008
 21
-2.233583128999995
 31
0.0
  0
LINE
  5
4D4
  8
0
 10
-3.5179983727999988
 20
-2.2268166492999981
 30
0.0
 11
-3.5008367133
 21
-2.2302148062999971
 31
0.0
  0
POLYLINE
  5
4D5
  8
0
 66
     1
 10
0.0
 20
0.0
 30
0.0
  0
VERTEX
  5
7575
  8
0
 10
6.7877282316000001
 20
-4.3076658922999931
 30
0.0
  0
VERTEX
  5
7576
  8
0
 10
6.7867162583000002
 20
-4.3074590945999978
 30
0.0
  0
VERTEX
  5
7577
  8
0
 10
6.7846480633999979
 20
-4.3070462761999968
 30
0.0
  0
SEQEND
  5
7578
  8
0
  0
LINE
  5
4D6
  8
0
 10
-3.5348823489000001
 20
-2.2233727095999991
 30
0.0
 11
-3.5179983727999988
 21
-2.2268166492999981
 31
0.0
  0
LINE
  5
4D8
  8
0
 10
-3.516702884799999
 20
-1.9865892513000101
 30
0.0
 11
-3.450834845100001
 21
-1.983462982600009
 31
0.0
  0
LINE
  5
501
  8
0
 10
6.9703883920000003
 20
4.464165606800008
 30
0.0
 11
6.9542905507999988
 21
4.4563071991000021
 31
0.0
  0
LINE
  5
502
  8
0
 10
6.9542905507999988
 20
4.4563071991000021
 30
0.0
 11
6.9492389144000004
 21
4.4538750655000072
 31
0.0
  0
LINE
  5
503
  8
0
 10
7.0080615201000001
 20
4.4813262546000061
 30
0.0
 11
7.006830332399999
 21
4.4807451834000034
 31
0.0
  0
POLYLINE
  5
504
  8
0
 66
     1
 10
0.0
 20
0.0
 30
0.0
  0
VERTEX
  5
7579
  8
0
 10
6.9492389144000004
 20
4.4538750655000072
 30
0.0
  0
VERTEX
  5
757A
  8
0
 10
6.9440366535999987
 20
4.4514127303999942
 30
0.0
  0
VERTEX
  5
757B
  8
0
 10
6.9413862545000011
 20
4.450178508999997
 30
0.0
  0
VERTEX
  5
757C
  8
0
 10
6.9387069894999991
 20
4.4489459178000033
 30
0.0
  0
VERTEX
  5
757D
  8
0
 10
6.9359983344999998
 20
4.4477142535999974
 30
0.0
  0
VERTEX
  5
757E
  8
0
 10
6.9332650724999993
 20
4.4464898277999998
 30
0.0
  0
VERTEX
  5
757F
  8
0
 10
6.9305087901999993
 20
4.4452734623000012
 30
0.0
  0
VERTEX
  5
7580
  8
0
 10
6.9277292256000003
 20
4.4440644860000091
 30
0.0
  0
VERTEX
  5
7581
  8
0
 10
6.9249286196000011
 20
4.4428669952000064
 30
0.0
  0
VERTEX
  5
7582
  8
0
 10
6.9221083491000002
 20
4.4416816570000028
 30
0.0
  0
VERTEX
  5
7583
  8
0
 10
6.9192684550000001
 20
4.4405079639000027
 30
0.0
  0
VERTEX
  5
7584
  8
0
 10
6.9164092267999999
 20
4.4393482552000094
 30
0.0
  0
VERTEX
  5
7585
  8
0
 10
6.9135317310999991
 20
4.4382030017000034
 30
0.0
  0
VERTEX
  5
7586
  8
0
 10
6.9106362670000001
 20
4.4370718846000008
 30
0.0
  0
VERTEX
  5
7587
  8
0
 10
6.9077219199000002
 20
4.4359560517000034
 30
0.0
  0
VERTEX
  5
7588
  8
0
 10
6.9047894789999891
 20
4.4348558106000047
 30
0.0
  0
VERTEX
  5
7589
  8
0
 10
6.9018394026000003
 20
4.4337709909000154
 30
0.0
  0
VERTEX
  5
758A
  8
0
 10
6.8988701800999994
 20
4.4327020114000026
 30
0.0
  0
VERTEX
  5
758B
  8
0
 10
6.8958823879000004
 20
4.4316490633999939
 30
0.0
  0
VERTEX
  5
758C
  8
0
 10
6.8928765621999988
 20
4.4306120764999974
 30
0.0
  0
VERTEX
  5
758D
  8
0
 10
6.8898510212999984
 20
4.4295910634000029
 30
0.0
  0
VERTEX
  5
758E
  8
0
 10
6.8868061950000001
 20
4.4285861406999976
 30
0.0
  0
VERTEX
  5
758F
  8
0
 10
6.8837426413999987
 20
4.4275972977999913
 30
0.0
  0
VERTEX
  5
7590
  8
0
 10
6.8806587694000001
 20
4.4266243456000041
 30
0.0
  0
VERTEX
  5
7591
  8
0
 10
6.8775549063999977
 20
4.4256673522999961
 30
0.0
  0
VERTEX
  5
7592
  8
0
 10
6.8744316101000003
 20
4.4247263433000006
 30
0.0
  0
VERTEX
  5
7593
  8
0
 10
6.871287550299999
 20
4.4238010550000046
 30
0.0
  0
VERTEX
  5
7594
  8
0
 10
6.868123000499998
 20
4.4228915291999931
 30
0.0
  0
VERTEX
  5
7595
  8
0
 10
6.8649384954999997
 20
4.4219978085000093
 30
0.0
  0
VERTEX
  5
7596
  8
0
 10
6.8617330330000001
 20
4.4211196235999992
 30
0.0
  0
VERTEX
  5
7597
  8
0
 10
6.8585068633999979
 20
4.420257003100005
 30
0.0
  0
VERTEX
  5
7598
  8
0
 10
6.8552604923000011
 20
4.4194099963000042
 30
0.0
  0
VERTEX
  5
7599
  8
0
 10
6.8519932553
 20
4.4185783597000059
 30
0.0
  0
VERTEX
  5
759A
  8
0
 10
6.8487053881999991
 20
4.4177621123999913
 30
0.0
  0
VERTEX
  5
759B
  8
0
 10
6.8453973797999987
 20
4.4169613093000057
 30
0.0
  0
VERTEX
  5
759C
  8
0
 10
6.8420689155999979
 20
4.4161757571000058
 30
0.0
  0
VERTEX
  5
759D
  8
0
 10
6.8387202336999984
 20
4.4154054701000041
 30
0.0
  0
VERTEX
  5
759E
  8
0
 10
6.8353518067000003
 20
4.4146505060000081
 30
0.0
  0
VERTEX
  5
759F
  8
0
 10
6.8319636572000011
 20
4.4139107352999991
 30
0.0
  0
VERTEX
  5
75A0
  8
0
 10
6.8285560547999991
 20
4.4131861739999962
 30
0.0
  0
VERTEX
  5
75A1
  8
0
 10
6.8251294404999987
 20
4.4124768776000058
 30
0.0
  0
VERTEX
  5
75A2
  8
0
 10
6.8216840904999989
 20
4.4117827756000088
 30
0.0
  0
VERTEX
  5
75A3
  8
0
 10
6.8182202594000003
 20
4.4111038773000004
 30
0.0
  0
VERTEX
  5
75A4
  8
0
 10
6.8147384109999978
 20
4.410440245700002
 30
0.0
  0
VERTEX
  5
75A5
  8
0
 10
6.8112391402999988
 20
4.4097918917000021
 30
0.0
  0
VERTEX
  5
75A6
  8
0
 10
6.807722834899999
 20
4.4091588439999958
 30
0.0
  0
VERTEX
  5
75A7
  8
0
 10
6.8041898425999987
 20
4.4085411480000039
 30
0.0
  0
VERTEX
  5
75A8
  8
0
 10
6.8006407056999993
 20
4.4079388399999919
 30
0.0
  0
VERTEX
  5
75A9
  8
0
 10
6.7970755342000011
 20
4.4073519035000066
 30
0.0
  0
VERTEX
  5
75AA
  8
0
 10
6.793494963899998
 20
4.406780430000004
 30
0.0
  0
VERTEX
  5
75AB
  8
0
 10
6.7899003411999992
 20
4.4062246209000051
 30
0.0
  0
VERTEX
  5
75AC
  8
0
 10
6.786292378199998
 20
4.4056845700000054
 30
0.0
  0
VERTEX
  5
75AD
  8
0
 10
6.7826711401999988
 20
4.4051602620000017
 30
0.0
  0
VERTEX
  5
75AE
  8
0
 10
6.7790370154000001
 20
4.4046517361999937
 30
0.0
  0
SEQEND
  5
75AF
  8
0
  0
POLYLINE
  5
505
  8
0
 66
     1
 10
0.0
 20
0.0
 30
0.0
  0
VERTEX
  5
75B0
  8
0
 10
6.9799007107999991
 20
4.4686802455000034
 30
0.0
  0
VERTEX
  5
75B1
  8
0
 10
6.9781266051999991
 20
4.4678582243000093
 30
0.0
  0
VERTEX
  5
75B2
  8
0
 10
6.9762898778999993
 20
4.466995925500008
 30
0.0
  0
VERTEX
  5
75B3
  8
0
 10
6.9743896883999978
 20
4.4660929655000032
 30
0.0
  0
VERTEX
  5
75B4
  8
0
 10
6.9703883920000003
 20
4.464165606800008
 30
0.0
  0
SEQEND
  5
75B5
  8
0
  0
LINE
  5
506
  8
0
 10
7.006830332399999
 20
4.4807451834000034
 30
0.0
 11
7.0044028951000001
 21
4.4796194751000078
 31
0.0
  0
LINE
  5
507
  8
0
 10
7.0044028951000001
 20
4.4796194751000078
 30
0.0
 11
7.0020441880999993
 21
4.4785473759000141
 31
0.0
  0
LINE
  5
508
  8
0
 10
6.9826248411999989
 20
4.4699187395000024
 30
0.0
 11
6.9799007107999991
 21
4.4686802455000034
 31
0.0
  0
LINE
  5
509
  8
0
 10
6.9867319626000004
 20
4.471757268700002
 30
0.0
 11
6.9826248411999989
 21
4.4699187395000024
 31
0.0
  0
LINE
  5
50A
  8
0
 10
7.0020441880999993
 20
4.4785473759000141
 30
0.0
 11
6.9986043980999986
 21
4.4770085755000153
 31
0.0
  0
POLYLINE
  5
50B
  8
0
 66
     1
 10
0.0
 20
0.0
 30
0.0
  0
VERTEX
  5
75B6
  8
0
 10
6.9986043980999986
 20
4.4770085755000153
 30
0.0
  0
VERTEX
  5
75B7
  8
0
 10
6.9930838630999981
 20
4.4745680110000086
 30
0.0
  0
VERTEX
  5
75B8
  8
0
 10
6.9867319626000004
 20
4.471757268700002
 30
0.0
  0
SEQEND
  5
75B9
  8
0
  0
POLYLINE
  5
528
  8
0
 66
     1
 10
0.0
 20
0.0
 30
0.0
  0
VERTEX
  5
75BA
  8
0
 10
-6.7990622400999987
 20
4.680995121899997
 30
0.0
  0
VERTEX
  5
75BB
  8
0
 10
-6.7980791829999996
 20
4.6801051000000049
 30
0.0
  0
VERTEX
  5
75BC
  8
0
 10
-6.7970522640999986
 20
4.6791913116000003
 30
0.0
  0
VERTEX
  5
75BD
  8
0
 10
-6.7959814096999986
 20
4.6782532371000007
 30
0.0
  0
VERTEX
  5
75BE
  8
0
 10
-6.7948664196000008
 20
4.6772899043000029
 30
0.0
  0
VERTEX
  5
75BF
  8
0
 10
-6.7937073446999987
 20
4.6763012261000014
 30
0.0
  0
VERTEX
  5
75C0
  8
0
 10
-6.7925044995000006
 20
4.6752880851000072
 30
0.0
  0
VERTEX
  5
75C1
  8
0
 10
-6.791254102299999
 20
4.674247540500005
 30
0.0
  0
VERTEX
  5
75C2
  8
0
 10
-6.7899597954000006
 20
4.6731815357000031
 30
0.0
  0
VERTEX
  5
75C3
  8
0
 10
-6.7886331201000001
 20
4.6720989040000021
 30
0.0
  0
VERTEX
  5
75C4
  8
0
 10
-6.7872729333999997
 20
4.6709998080000039
 30
0.0
  0
VERTEX
  5
75C5
  8
0
 10
-6.7844707484000004
 20
4.6687621198000002
 30
0.0
  0
SEQEND
  5
75C6
  8
0
  0
POLYLINE
  5
529
  8
0
 66
     1
 10
0.0
 20
0.0
 30
0.0
  0
VERTEX
  5
75C7
  8
0
 10
-6.7198474160000004
 20
4.6183758047000154
 30
0.0
  0
VERTEX
  5
75C8
  8
0
 10
-6.7185881431000007
 20
4.6172193614999983
 30
0.0
  0
VERTEX
  5
75C9
  8
0
 10
-6.7172981602000013
 20
4.6159889443000059
 30
0.0
  0
VERTEX
  5
75CA
  8
0
 10
-6.7159772974000012
 20
4.6146833698999989
 30
0.0
  0
VERTEX
  5
75CB
  8
0
 10
-6.7146254283000006
 20
4.6133033616000034
 30
0.0
  0
VERTEX
  5
75CC
  8
0
 10
-6.7132423227000011
 20
4.6118457139000091
 30
0.0
  0
VERTEX
  5
75CD
  8
0
 10
-6.7118276284
 20
4.6103031692000007
 30
0.0
  0
VERTEX
  5
75CE
  8
0
 10
-6.7103804046000013
 20
4.608673064499988
 30
0.0
  0
VERTEX
  5
75CF
  8
0
 10
-6.7089011549999986
 20
4.6069550297000026
 30
0.0
  0
VERTEX
  5
75D0
  8
0
 10
-6.7073916593999998
 20
4.6051450158000051
 30
0.0
  0
VERTEX
  5
75D1
  8
0
 10
-6.7058505274
 20
4.603239035600005
 30
0.0
  0
VERTEX
  5
75D2
  8
0
 10
-6.7042786549000013
 20
4.6012376563000066
 30
0.0
  0
VERTEX
  5
75D3
  8
0
 10
-6.7026812521999988
 20
4.5991436697000054
 30
0.0
  0
VERTEX
  5
75D4
  8
0
 10
-6.7010573325999987
 20
4.5969532335999972
 30
0.0
  0
VERTEX
  5
75D5
  8
0
 10
-6.6994073904000011
 20
4.5946667987000041
 30
0.0
  0
VERTEX
  5
75D6
  8
0
 10
-6.6977389112000001
 20
4.5922939694999911
 30
0.0
  0
VERTEX
  5
75D7
  8
0
 10
-6.6960507592000003
 20
4.5898307643000029
 30
0.0
  0
VERTEX
  5
75D8
  8
0
 10
-6.694343645
 20
4.5872782522000071
 30
0.0
  0
VERTEX
  5
75D9
  8
0
 10
-6.692627936800001
 20
4.5846544018999964
 30
0.0
  0
VERTEX
  5
75DA
  8
0
 10
-6.6909010796000006
 20
4.5819539409000072
 30
0.0
  0
VERTEX
  5
75DB
  8
0
 10
-6.689165344900001
 20
4.5791802193000057
 30
0.0
  0
VERTEX
  5
75DC
  8
0
 10
-6.6874385385000004
 20
4.5763655138000061
 30
0.0
  0
VERTEX
  5
75DD
  8
0
 10
-6.6857228244999991
 20
4.5735144364999982
 30
0.0
  0
VERTEX
  5
75DE
  8
0
 10
-6.6840160325999998
 20
4.5706223811000006
 30
0.0
  0
VERTEX
  5
75DF
  8
0
 10
-6.6823296628999991
 20
4.5677091563000038
 30
0.0
  0
VERTEX
  5
75E0
  8
0
 10
-6.6806676114999997
 20
4.5647818774000006
 30
0.0
  0
VERTEX
  5
75E1
  8
0
 10
-6.6790261238999991
 20
4.5618344647000049
 30
0.0
  0
VERTEX
  5
75E2
  8
0
 10
-6.6774052937000006
 20
4.5588674220999934
 30
0.0
  0
VERTEX
  5
75E3
  8
0
 10
-6.6758053447999997
 20
4.5558815131999992
 30
0.0
  0
VERTEX
  5
75E4
  8
0
 10
-6.6742261780999987
 20
4.5528768971000062
 30
0.0
  0
VERTEX
  5
75E5
  8
0
 10
-6.672667399799999
 20
4.5498531508000042
 30
0.0
  0
VERTEX
  5
75E6
  8
0
 10
-6.6711288936999997
 20
4.5468103681000036
 30
0.0
  0
VERTEX
  5
75E7
  8
0
 10
-6.6696108924000006
 20
4.5437493214000071
 30
0.0
  0
VERTEX
  5
75E8
  8
0
 10
-6.6681135220999996
 20
4.540670587900002
 30
0.0
  0
VERTEX
  5
75E9
  8
0
 10
-6.6666369645000003
 20
4.537574853599998
 30
0.0
  0
VERTEX
  5
75EA
  8
0
 10
-6.665181154499999
 20
4.5344623030000051
 30
0.0
  0
VERTEX
  5
75EB
  8
0
 10
-6.6637458465999986
 20
4.5313327493999997
 30
0.0
  0
VERTEX
  5
75EC
  8
0
 10
-6.6623309326000006
 20
4.5281862321000039
 30
0.0
  0
VERTEX
  5
75ED
  8
0
 10
-6.6609366313000011
 20
4.5250235427999916
 30
0.0
  0
VERTEX
  5
75EE
  8
0
 10
-6.6595631869000007
 20
4.5218456193999961
 30
0.0
  0
VERTEX
  5
75EF
  8
0
 10
-6.6582111540999991
 20
4.5186541209000017
 30
0.0
  0
VERTEX
  5
75F0
  8
0
 10
-6.6568800922000007
 20
4.515448244099999
 30
0.0
  0
VERTEX
  5
75F1
  8
0
 10
-6.6555687453000001
 20
4.5122251902999926
 30
0.0
  0
VERTEX
  5
75F2
  8
0
 10
-6.6542738558999988
 20
4.5089763760000059
 30
0.0
  0
VERTEX
  5
75F3
  8
0
 10
-6.6529987649000013
 20
4.5057110344
 30
0.0
  0
VERTEX
  5
75F4
  8
0
 10
-6.6517521570999998
 20
4.5024533832999998
 30
0.0
  0
VERTEX
  5
75F5
  8
0
 10
-6.650537013300001
 20
4.4992121035000059
 30
0.0
  0
VERTEX
  5
75F6
  8
0
 10
-6.6493505541000006
 20
4.4959799586000031
 30
0.0
  0
VERTEX
  5
75F7
  8
0
 10
-6.6481928708999991
 20
4.4927576074000006
 30
0.0
  0
SEQEND
  5
75F8
  8
0
  0
LINE
  5
53A
  8
0
 10
-0.1067707824999999
 20
-7.2138531360999991
 30
0.0
 11
-0.1067707824999999
 21
-7.0523947011999928
 31
0.0
  0
LINE
  5
544
  8
0
 10
0.1067707824999999
 20
-7.2138531360999991
 30
0.0
 11
0.1067707824999999
 21
-7.0523947011999928
 31
0.0
  0
POLYLINE
  5
545
  8
0
 66
     1
 10
0.0
 20
0.0
 30
0.0
  0
VERTEX
  5
75F9
  8
0
 10
-0.4399999999999995
 20
-5.871888539799996
 30
0.0
  0
VERTEX
  5
75FA
  8
0
 10
-0.4397782646000011
 20
-5.8682056029999989
 30
0.0
  0
VERTEX
  5
75FB
  8
0
 10
-0.4391140294000025
 20
-5.8645413228999947
 30
0.0
  0
VERTEX
  5
75FC
  8
0
 10
-0.4380090821000025
 20
-5.8608956997999959
 30
0.0
  0
VERTEX
  5
75FD
  8
0
 10
-0.4364650423000001
 20
-5.8572640331999963
 30
0.0
  0
VERTEX
  5
75FE
  8
0
 10
-0.4344848757000026
 20
-5.8536510233999968
 30
0.0
  0
VERTEX
  5
75FF
  8
0
 10
-0.4320743905000022
 20
-5.850070771299996
 30
0.0
  0
VERTEX
  5
7600
  8
0
 10
-0.4292401051999999
 20
-5.846525451399998
 30
0.0
  0
VERTEX
  5
7601
  8
0
 10
-0.425986054700001
 20
-5.8430128891999971
 30
0.0
  0
VERTEX
  5
7602
  8
0
 10
-0.4223154896000026
 20
-5.8395406626999948
 30
0.0
  0
VERTEX
  5
7603
  8
0
 10
-0.4182306151000024
 20
-5.8361066569000002
 30
0.0
  0
VERTEX
  5
7604
  8
0
 10
-0.4137394921999995
 20
-5.8327129866999954
 30
0.0
  0
VERTEX
  5
7605
  8
0
 10
-0.4088557992999995
 20
-5.8293735752999956
 30
0.0
  0
VERTEX
  5
7606
  8
0
 10
-0.4035920769000026
 20
-5.8260914055000006
 30
0.0
  0
VERTEX
  5
7607
  8
0
 10
-0.3979530097000019
 20
-5.8228634943999964
 30
0.0
  0
VERTEX
  5
7608
  8
0
 10
-0.3919417452000022
 20
-5.8196948165999984
 30
0.0
  0
VERTEX
  5
7609
  8
0
 10
-0.3855641715000022
 20
-5.8165845752999976
 30
0.0
  0
VERTEX
  5
760A
  8
0
 10
-0.3788304044000021
 20
-5.813533567099995
 30
0.0
  0
VERTEX
  5
760B
  8
0
 10
-0.3717493857000029
 20
-5.8105491570999979
 30
0.0
  0
VERTEX
  5
760C
  8
0
 10
-0.3643312183000003
 20
-5.8076320546999858
 30
0.0
  0
VERTEX
  5
760D
  8
0
 10
-0.3565838900999996
 20
-5.8047815502999986
 30
0.0
  0
VERTEX
  5
760E
  8
0
 10
-0.3485131591999995
 20
-5.8020028803000008
 30
0.0
  0
VERTEX
  5
760F
  8
0
 10
-0.3401300279000026
 20
-5.7992966934999961
 30
0.0
  0
VERTEX
  5
7610
  8
0
 10
-0.3314421542999995
 20
-5.796662340999994
 30
0.0
  0
VERTEX
  5
7611
  8
0
 10
-0.3224491593999996
 20
-5.7941031133999976
 30
0.0
  0
VERTEX
  5
7612
  8
0
 10
-0.3131540546
 20
-5.7916176588999937
 30
0.0
  0
VERTEX
  5
7613
  8
0
 10
-0.3035713935000022
 20
-5.7892073292999982
 30
0.0
  0
VERTEX
  5
7614
  8
0
 10
-0.2937181229999997
 20
-5.7868794701999979
 30
0.0
  0
VERTEX
  5
7615
  8
0
 10
-0.2836122004000003
 20
-5.784635928899994
 30
0.0
  0
VERTEX
  5
7616
  8
0
 10
-0.2732566418999998
 20
-5.7824748579999996
 30
0.0
  0
VERTEX
  5
7617
  8
0
 10
-0.2626457439000003
 20
-5.7803980611000014
 30
0.0
  0
VERTEX
  5
7618
  8
0
 10
-0.2517814063999992
 20
-5.7784041915999964
 30
0.0
  0
VERTEX
  5
7619
  8
0
 10
-0.2406808749000024
 20
-5.7764945961
 30
0.0
  0
VERTEX
  5
761A
  8
0
 10
-0.2293610643000026
 20
-5.7746751166999948
 30
0.0
  0
VERTEX
  5
761B
  8
0
 10
-0.2178368420000023
 20
-5.7729466419999929
 30
0.0
  0
VERTEX
  5
761C
  8
0
 10
-0.2061150568999999
 20
-5.771308283499998
 30
0.0
  0
VERTEX
  5
761D
  8
0
 10
-0.1942009862000002
 20
-5.7697632182999916
 30
0.0
  0
VERTEX
  5
761E
  8
0
 10
-0.1821055301999994
 20
-5.7683114995999949
 30
0.0
  0
VERTEX
  5
761F
  8
0
 10
-0.1698398298000026
 20
-5.7669530741999964
 30
0.0
  0
VERTEX
  5
7620
  8
0
 10
-0.1574092753000009
 20
-5.7656909590999978
 30
0.0
  0
VERTEX
  5
7621
  8
0
 10
-0.1448188940000019
 20
-5.7645249014999962
 30
0.0
  0
VERTEX
  5
7622
  8
0
 10
-0.1320861760999996
 20
-5.7634551542999972
 30
0.0
  0
VERTEX
  5
7623
  8
0
 10
-0.1192356291000003
 20
-5.7624854927999962
 30
0.0
  0
VERTEX
  5
7624
  8
0
 10
-0.1062891225999998
 20
-5.7616167994999961
 30
0.0
  0
VERTEX
  5
7625
  8
0
 10
-0.093249139400001
 20
-5.7608481918999948
 30
0.0
  0
VERTEX
  5
7626
  8
0
 10
-0.0801112562000022
 20
-5.7601807984000004
 30
0.0
  0
VERTEX
  5
7627
  8
0
 10
-0.0668772566000016
 20
-5.759614349499997
 30
0.0
  0
VERTEX
  5
7628
  8
0
 10
-0.0535693531000003
 20
-5.7591491146999942
 30
0.0
  0
VERTEX
  5
7629
  8
0
 10
-0.0402137924999995
 20
-5.758787031499998
 30
0.0
  0
VERTEX
  5
762A
  8
0
 10
-0.0268277167999997
 20
-5.7585287457999916
 30
0.0
  0
VERTEX
  5
762B
  8
0
 10
-0.0134189564999989
 20
-5.7583736116999944
 30
0.0
  0
VERTEX
  5
762C
  8
0
 10
0.0
 20
-5.7583216291999966
 30
0.0
  0
SEQEND
  5
762D
  8
0
  0
LINE
  5
554
  8
0
 10
4.0424946533999977
 20
2.5765518794000002
 30
0.0
 11
3.5263179848999999
 21
2.227513405400003
 31
0.0
  0
LINE
  5
555
  8
0
 10
4.6984502095999998
 20
3.019733794399996
 30
0.0
 11
4.0424946533999977
 21
2.5765518794000002
 31
0.0
  0
LINE
  5
556
  8
0
 10
5.4768312582999981
 20
3.5452325716000028
 30
0.0
 11
4.6984502095999998
 21
3.019733794399996
 31
0.0
  0
LINE
  5
557
  8
0
 10
6.7231753246999988
 20
4.3861507777999904
 30
0.0
 11
5.4768312582999981
 21
3.5452325716000028
 31
0.0
  0
LINE
  5
559
  8
0
 10
6.6481928661999978
 20
4.4927576082000007
 30
0.0
 11
5.7482132718000001
 21
3.8872539143999978
 31
0.0
  0
LINE
  5
55A
  8
0
 10
5.7482132718000001
 20
3.8872539143999978
 30
0.0
 11
4.6900913380000002
 21
3.1757797013000011
 31
0.0
  0
LINE
  5
55B
  8
0
 10
4.6900913380000002
 20
3.1757797013000011
 30
0.0
 11
4.1502718503999994
 21
2.8130830078000031
 31
0.0
  0
LINE
  5
55C
  8
0
 10
4.1502718503999994
 20
2.8130830078000031
 30
0.0
 11
3.7630153638999988
 21
2.553094709799999
 31
0.0
  0
LINE
  5
55D
  8
0
 10
3.7630153638999988
 20
2.553094709799999
 30
0.0
 11
3.4470188301999989
 21
2.341093063199998
 31
0.0
  0
LINE
  5
55E
  8
0
 10
-3.7248193660000011
 20
-2.3471640932999942
 30
0.0
 11
-3.5348823617000011
 21
-2.2233727705000059
 31
0.0
  0
LINE
  5
55F
  8
0
 10
-4.8754297414999996
 20
-3.095857589699996
 30
0.0
 11
-3.7248193660000011
 21
-2.3471640932999942
 31
0.0
  0
LINE
  5
560
  8
0
 10
-5.216058878400001
 20
-3.317201714599995
 30
0.0
 11
-4.8754297414999996
 21
-3.095857589699996
 31
0.0
  0
LINE
  5
561
  8
0
 10
-5.4970879215000013
 20
-3.4997492240000052
 30
0.0
 11
-5.216058878400001
 21
-3.317201714599995
 31
0.0
  0
LINE
  5
562
  8
0
 10
-6.7104698641000011
 20
-4.2874094328000041
 30
0.0
 11
-5.4970879215000013
 21
-3.4997492240000052
 31
0.0
  0
LINE
  5
563
  8
0
 10
-6.6381027518999991
 20
-4.3941652836999969
 30
0.0
 11
-5.9140991835000003
 21
-3.9261761599999971
 31
0.0
  0
LINE
  5
564
  8
0
 10
-5.9140991835000003
 20
-3.9261761599999971
 30
0.0
 11
-5.1416887913
 21
-3.4271878520999972
 31
0.0
  0
LINE
  5
565
  8
0
 10
-5.1416887913
 20
-3.4271878520999972
 30
0.0
 11
-4.8004317764999991
 21
-3.2068625024999942
 31
0.0
  0
LINE
  5
566
  8
0
 10
-4.8004317764999991
 20
-3.2068625024999942
 30
0.0
 11
-4.601656822899999
 21
-3.078575010399994
 31
0.0
  0
LINE
  5
567
  8
0
 10
-4.601656822899999
 20
-3.078575010399994
 30
0.0
 11
-4.1299105690999989
 21
-2.7742860878000002
 31
0.0
  0
LINE
  5
568
  8
0
 10
-4.1299105690999989
 20
-2.7742860878000002
 30
0.0
 11
-3.8429472887
 21
-2.5893605812999989
 31
0.0
  0
LINE
  5
569
  8
0
 10
-3.8429472887
 20
-2.5893605812999989
 30
0.0
 11
-3.6468842993999999
 21
-2.4630905248999961
 31
0.0
  0
LINE
  5
56A
  8
0
 10
-3.6468842993999999
 20
-2.4630905248999961
 30
0.0
 11
-3.4559087698999988
 21
-2.3401535321000031
 31
0.0
  0
POLYLINE
  5
56B
  8
0
 66
     1
 10
0.0
 20
0.0
 30
0.0
  0
VERTEX
  5
762E
  8
0
 10
6.8113545995000013
 20
4.6860441727999884
 30
0.0
  0
VERTEX
  5
762F
  8
0
 10
6.8108316934999991
 20
4.6857101661000007
 30
0.0
  0
VERTEX
  5
7630
  8
0
 10
6.810311358199999
 20
4.6853904982000003
 30
0.0
  0
VERTEX
  5
7631
  8
0
 10
6.8097935948000003
 20
4.6850851695999998
 30
0.0
  0
VERTEX
  5
7632
  8
0
 10
6.809278847199999
 20
4.684795099300004
 30
0.0
  0
VERTEX
  5
7633
  8
0
 10
6.8087666728999992
 20
4.6845193692000029
 30
0.0
  0
VERTEX
  5
7634
  8
0
 10
6.8082557435999984
 20
4.6842552240999922
 30
0.0
  0
VERTEX
  5
7635
  8
0
 10
6.8077459268
 20
4.6840023973999996
 30
0.0
  0
VERTEX
  5
7636
  8
0
 10
6.807237355799999
 20
4.683761156000009
 30
0.0
  0
VERTEX
  5
7637
  8
0
 10
6.8067291004000001
 20
4.6835295452000087
 30
0.0
  0
VERTEX
  5
7638
  8
0
 10
6.8062210144000002
 20
4.6833073658000037
 30
0.0
  0
VERTEX
  5
7639
  8
0
 10
6.8057132445000006
 20
4.6830948170000042
 30
0.0
  0
VERTEX
  5
763A
  8
0
 10
6.8052052996999999
 20
4.6828905416000017
 30
0.0
  0
VERTEX
  5
763B
  8
0
 10
6.8046971866000003
 20
4.6826944471000038
 30
0.0
  0
VERTEX
  5
763C
  8
0
 10
6.8041888985999988
 20
4.6825066258000021
 30
0.0
  0
VERTEX
  5
763D
  8
0
 10
6.8036799255999991
 20
4.6823259976000031
 30
0.0
  0
VERTEX
  5
763E
  8
0
 10
6.8031701555000001
 20
4.6821524552000042
 30
0.0
  0
VERTEX
  5
763F
  8
0
 10
6.8026597002999987
 20
4.6819861056000098
 30
0.0
  0
VERTEX
  5
7640
  8
0
 10
6.8021483846999997
 20
4.6818261900000024
 30
0.0
  0
VERTEX
  5
7641
  8
0
 10
6.8016361447999989
 20
4.6816726462999929
 30
0.0
  0
VERTEX
  5
7642
  8
0
 10
6.8011230442999997
 20
4.6815255360999961
 30
0.0
  0
VERTEX
  5
7643
  8
0
 10
6.8006090997999999
 20
4.681384285900001
 30
0.0
  0
VERTEX
  5
7644
  8
0
 10
6.8000943167000001
 20
4.6812487040999917
 30
0.0
  0
VERTEX
  5
7645
  8
0
 10
6.7995786890999996
 20
4.6811189817000018
 30
0.0
  0
VERTEX
  5
7646
  8
0
 10
6.7990622168000012
 20
4.6809951183000029
 30
0.0
  0
SEQEND
  5
7647
  8
0
  0
POLYLINE
  5
59B
  8
0
 66
     1
 10
0.0
 20
0.0
 30
0.0
  0
VERTEX
  5
7648
  8
0
 10
4.0393149930999988
 20
-2.715897209499992
 30
0.0
  0
VERTEX
  5
7649
  8
0
 10
3.943061258599998
 20
-2.6538785691999962
 30
0.0
  0
VERTEX
  5
764A
  8
0
 10
3.4559087700000002
 20
-2.3401535321000031
 30
0.0
  0
SEQEND
  5
764B
  8
0
  0
LINE
  5
59C
  8
0
 10
4.9795548101999989
 20
-3.3224976087999991
 30
0.0
 11
4.0393149930999988
 21
-2.715897209499992
 31
0.0
  0
LINE
  5
59D
  8
0
 10
5.2889756078999994
 20
-3.5223082298000028
 30
0.0
 11
4.9795548101999989
 21
-3.3224976087999991
 31
0.0
  0
LINE
  5
59E
  8
0
 10
5.4231767930999988
 20
-3.6089906337999968
 30
0.0
 11
5.2889756078999994
 21
-3.5223082298000028
 31
0.0
  0
LINE
  5
59F
  8
0
 10
6.6381027518999991
 20
-4.3941652836999969
 30
0.0
 11
5.4231767930999988
 21
-3.6089906337999968
 31
0.0
  0
LINE
  5
5A0
  8
0
 10
-3.964403067200001
 20
2.6882887843000058
 30
0.0
 11
-3.4470188302000002
 21
2.341093063199998
 31
0.0
  0
LINE
  5
5A1
  8
0
 10
-4.236472126699999
 20
2.8709913061000019
 30
0.0
 11
-3.964403067200001
 21
2.6882887843000058
 31
0.0
  0
LINE
  5
5A2
  8
0
 10
-5.486244372299999
 20
3.7110556308000038
 30
0.0
 11
-4.236472126699999
 21
2.8709913061000019
 31
0.0
  0
LINE
  5
5A3
  8
0
 10
-6.6481928660999996
 20
4.4927576082000007
 30
0.0
 11
-5.486244372299999
 21
3.7110556308000038
 31
0.0
  0
LINE
  5
5A4
  8
0
 10
-6.7231753245999988
 20
4.3861507777999904
 30
0.0
 11
-5.6810227351
 21
3.6830381959000031
 31
0.0
  0
LINE
  5
5A5
  8
0
 10
-5.6810227351
 20
3.6830381959000031
 30
0.0
 11
-4.897292243599999
 21
3.154007473700005
 31
0.0
  0
LINE
  5
5A6
  8
0
 10
-4.897292243599999
 20
3.154007473700005
 30
0.0
 11
-4.2280858052000001
 21
2.7019984891999931
 31
0.0
  0
POLYLINE
  5
5A7
  8
0
 66
     1
 10
0.0
 20
0.0
 30
0.0
  0
VERTEX
  5
764C
  8
0
 10
-4.2280858052000001
 20
2.7019984891999931
 30
0.0
  0
VERTEX
  5
764D
  8
0
 10
-3.8413229430999989
 20
2.440564531100001
 30
0.0
  0
VERTEX
  5
764E
  8
0
 10
-3.7383755847999991
 20
2.3709177418000058
 30
0.0
  0
VERTEX
  5
764F
  8
0
 10
-3.5263179849000008
 20
2.227513405400003
 30
0.0
  0
SEQEND
  5
7650
  8
0
  0
LINE
  5
5B4
  8
0
 10
-6.774329301099999
 20
4.6608706411999909
 30
0.0
 11
-6.7415583363999998
 21
4.6359858523999904
 31
0.0
  0
LINE
  5
5B5
  8
0
 10
-6.7415583363999998
 20
4.6359858523999904
 30
0.0
 11
-6.7374925510999999
 21
4.6328631407000032
 31
0.0
  0
LINE
  5
5B6
  8
0
 10
-6.7787007815999987
 20
4.6642416264000062
 30
0.0
 11
-6.774329301099999
 21
4.6608706411999909
 31
0.0
  0
LINE
  5
5B7
  8
0
 10
-6.7374925510999999
 20
4.6328631407000032
 30
0.0
 11
-6.7345866386000006
 21
4.6306076205000082
 31
0.0
  0
LINE
  5
5B8
  8
0
 10
-6.7816035719000007
 20
4.6665042802000078
 30
0.0
 11
-6.7787007815999987
 21
4.6642416264000062
 31
0.0
  0
LINE
  5
5B9
  8
0
 10
-6.7345866386000006
 20
4.6306076205000082
 30
0.0
 11
-6.7327119029000011
 21
4.6291372077000039
 31
0.0
  0
LINE
  5
5BA
  8
0
 10
-6.7844707484000004
 20
4.6687621198000002
 30
0.0
 11
-6.7816035719000007
 21
4.6665042802000078
 31
0.0
  0
LINE
  5
5BB
  8
0
 10
-6.7327119029000011
 20
4.6291372077000039
 30
0.0
 11
-6.7308832145000004
 21
4.6276875579000034
 31
0.0
  0
LINE
  5
5BC
  8
0
 10
-6.7308832145000004
 20
4.6276875579000034
 30
0.0
 11
-6.7290963997999986
 21
4.626252459799999
 31
0.0
  0
LINE
  5
5BD
  8
0
 10
-6.7290963997999986
 20
4.626252459799999
 30
0.0
 11
-6.7273486362000012
 21
4.6248279074000029
 31
0.0
  0
POLYLINE
  5
5BE
  8
0
 66
     1
 10
0.0
 20
0.0
 30
0.0
  0
VERTEX
  5
7651
  8
0
 10
-6.7273486362000012
 20
4.6248279074000029
 30
0.0
  0
VERTEX
  5
7652
  8
0
 10
-6.7256355548000011
 20
4.6234072014000063
 30
0.0
  0
VERTEX
  5
7653
  8
0
 10
-6.7247903156999991
 20
4.622695964400001
 30
0.0
  0
VERTEX
  5
7654
  8
0
 10
-6.7239520421999996
 20
4.6219832708000013
 30
0.0
  0
VERTEX
  5
7655
  8
0
 10
-6.7231207547
 20
4.6212692565999944
 30
0.0
  0
VERTEX
  5
7656
  8
0
 10
-6.7222948118000012
 20
4.6205517169999899
 30
0.0
  0
VERTEX
  5
7657
  8
0
 10
-6.7214736655999987
 20
4.6198299139000047
 30
0.0
  0
VERTEX
  5
7658
  8
0
 10
-6.7206578665000007
 20
4.619104605400004
 30
0.0
  0
VERTEX
  5
7659
  8
0
 10
-6.7198474160000004
 20
4.6183758047000154
 30
0.0
  0
SEQEND
  5
765A
  8
0
  0
POLYLINE
  5
5C0
  8
0
 66
     1
 10
0.0
 20
0.0
 30
0.0
  0
VERTEX
  5
765B
  8
0
 10
0.4399999999999995
 20
-5.871888539799996
 30
0.0
  0
VERTEX
  5
765C
  8
0
 10
0.4397590259999991
 20
-5.8757337492999957
 30
0.0
  0
VERTEX
  5
765D
  8
0
 10
0.4390349764000004
 20
-5.8795767227999951
 30
0.0
  0
VERTEX
  5
765E
  8
0
 10
0.4378265589999995
 20
-5.8834174601999862
 30
0.0
  0
VERTEX
  5
765F
  8
0
 10
0.4361322097000003
 20
-5.8872619103999986
 30
0.0
  0
VERTEX
  5
7660
  8
0
 10
0.4339521239999993
 20
-5.8911041244999964
 30
0.0
  0
VERTEX
  5
7661
  8
0
 10
0.4312902776000005
 20
-5.8949262562999962
 30
0.0
  0
VERTEX
  5
7662
  8
0
 10
0.4281508610000007
 20
-5.8987265886999927
 30
0.0
  0
VERTEX
  5
7663
  8
0
 10
0.4245360190999996
 20
-5.902506838699999
 30
0.0
  0
VERTEX
  5
7664
  8
0
 10
0.4204491600000005
 20
-5.906254310999997
 30
0.0
  0
VERTEX
  5
7665
  8
0
 10
0.4158915836000006
 20
-5.9099710339999936
 30
0.0
  0
VERTEX
  5
7666
  8
0
 10
0.4108703000000009
 20
-5.9136549794000004
 30
0.0
  0
VERTEX
  5
7667
  8
0
 10
0.4054003251000005
 20
-5.9172873663999956
 30
0.0
  0
VERTEX
  5
7668
  8
0
 10
0.3994947562999993
 20
-5.9208649666999937
 30
0.0
  0
VERTEX
  5
7669
  8
0
 10
0.3931577454999999
 20
-5.9243910087999998
 30
0.0
  0
VERTEX
  5
766A
  8
0
 10
0.3863929296999995
 20
-5.9278563967000011
 30
0.0
  0
VERTEX
  5
766B
  8
0
 10
0.3792040723000003
 20
-5.9312629592999917
 30
0.0
  0
VERTEX
  5
766C
  8
0
 10
0.3716040305000003
 20
-5.9346088678999962
 30
0.0
  0
VERTEX
  5
766D
  8
0
 10
0.3636111158999995
 20
-5.9378795407999974
 30
0.0
  0
VERTEX
  5
766E
  8
0
 10
0.3552421800999994
 20
-5.941072440100001
 30
0.0
  0
VERTEX
  5
766F
  8
0
 10
0.3465031035999999
 20
-5.944190103799996
 30
0.0
  0
VERTEX
  5
7670
  8
0
 10
0.3373965088999995
 20
-5.9472255642999983
 30
0.0
  0
VERTEX
  5
7671
  8
0
 10
0.327927644799999
 20
-5.9501802417999983
 30
0.0
  0
VERTEX
  5
7672
  8
0
 10
0.3181128398999995
 20
-5.9530527160999958
 30
0.0
  0
VERTEX
  5
7673
  8
0
 10
0.3079715570000001
 20
-5.9558317590999934
 30
0.0
  0
VERTEX
  5
7674
  8
0
 10
0.2975199732
 20
-5.9585159890999932
 30
0.0
  0
VERTEX
  5
7675
  8
0
 10
0.2867675142999992
 20
-5.9611067877999977
 30
0.0
  0
VERTEX
  5
7676
  8
0
 10
0.275724457199999
 20
-5.9635970728999856
 30
0.0
  0
VERTEX
  5
7677
  8
0
 10
0.2644040092000015
 20
-5.9659865206999987
 30
0.0
  0
VERTEX
  5
7678
  8
0
 10
0.2528192362000006
 20
-5.9682754547999997
 30
0.0
  0
VERTEX
  5
7679
  8
0
 10
0.2409800447000006
 20
-5.9704577634999927
 30
0.0
  0
VERTEX
  5
767A
  8
0
 10
0.2288963995
 20
-5.9725335830999953
 30
0.0
  0
VERTEX
  5
767B
  8
0
 10
0.2165851614999994
 20
-5.9745027771999943
 30
0.0
  0
VERTEX
  5
767C
  8
0
 10
0.2040670000000002
 20
-5.9763588251000002
 30
0.0
  0
VERTEX
  5
767D
  8
0
 10
0.1913637376999997
 20
-5.9781004003999954
 30
0.0
  0
VERTEX
  5
767E
  8
0
 10
0.1784823495999994
 20
-5.9797288294999973
 30
0.0
  0
VERTEX
  5
767F
  8
0
 10
0.1654210415000001
 20
-5.9812415703999937
 30
0.0
  0
VERTEX
  5
7680
  8
0
 10
0.1521838772000006
 20
-5.9826393259999966
 30
0.0
  0
VERTEX
  5
7681
  8
0
 10
0.1387943625000005
 20
-5.9839213934999966
 30
0.0
  0
VERTEX
  5
7682
  8
0
 10
0.1252798095999985
 20
-5.9850831220999998
 30
0.0
  0
VERTEX
  5
7683
  8
0
 10
0.1116659064000007
 20
-5.9861233168999979
 30
0.0
  0
VERTEX
  5
7684
  8
0
 10
0.0979563429999999
 20
-5.9870431728999938
 30
0.0
  0
VERTEX
  5
7685
  8
0
 10
0.084145422899999
 20
-5.9878416238999961
 30
0.0
  0
VERTEX
  5
7686
  8
0
 10
0.0702373110999997
 20
-5.9885189622999979
 30
0.0
  0
VERTEX
  5
7687
  8
0
 10
0.0562562511000007
 20
-5.9890748956999991
 30
0.0
  0
VERTEX
  5
7688
  8
0
 10
0.0422264660000007
 20
-5.9895074806999977
 30
0.0
  0
VERTEX
  5
7689
  8
0
 10
0.0281657820999985
 20
-5.9898160695999962
 30
0.0
  0
VERTEX
  5
768A
  8
0
 10
0.0140854617000006
 20
-5.9900013100999976
 30
0.0
  0
VERTEX
  5
768B
  8
0
 10
0.0
 20
-5.9900632021999982
 30
0.0
  0
SEQEND
  5
768C
  8
0
  0
POLYLINE
  5
5C1
  8
0
 66
     1
 10
0.0
 20
0.0
 30
0.0
  0
VERTEX
  5
768D
  8
0
 10
6.7256355549000002
 20
4.6234072014000063
 30
0.0
  0
VERTEX
  5
768E
  8
0
 10
6.7247903156999991
 20
4.622695964400001
 30
0.0
  0
VERTEX
  5
768F
  8
0
 10
6.7239520421999996
 20
4.6219832708000013
 30
0.0
  0
VERTEX
  5
7690
  8
0
 10
6.7231207548
 20
4.6212692565999944
 30
0.0
  0
VERTEX
  5
7691
  8
0
 10
6.7222948118000012
 20
4.6205517169999899
 30
0.0
  0
VERTEX
  5
7692
  8
0
 10
6.7214736656999987
 20
4.6198299139000047
 30
0.0
  0
VERTEX
  5
7693
  8
0
 10
6.7206578666000008
 20
4.619104605400004
 30
0.0
  0
VERTEX
  5
7694
  8
0
 10
6.7198474160999977
 20
4.6183758047000154
 30
0.0
  0
SEQEND
  5
7695
  8
0
  0
LINE
  5
5C2
  8
0
 10
6.7273486362999977
 20
4.6248279074000029
 30
0.0
 11
6.7256355549000002
 21
4.6234072014000063
 31
0.0
  0
LINE
  5
5C3
  8
0
 10
6.7290963997999986
 20
4.626252459799999
 30
0.0
 11
6.7273486362999977
 21
4.6248279074000029
 31
0.0
  0
LINE
  5
5C4
  8
0
 10
6.7886331201000001
 20
4.6720989040000021
 30
0.0
 11
6.7858804147000011
 21
4.669884291599991
 31
0.0
  0
LINE
  5
5C5
  8
0
 10
6.7308832146000004
 20
4.6276875579000034
 30
0.0
 11
6.7290963997999986
 21
4.626252459799999
 31
0.0
  0
LINE
  5
5C6
  8
0
 10
6.7327119029000002
 20
4.6291372077000039
 30
0.0
 11
6.7308832146000004
 21
4.6276875579000034
 31
0.0
  0
LINE
  5
5C7
  8
0
 10
6.7858804147000011
 20
4.669884291599991
 30
0.0
 11
6.7830456316000003
 21
4.6676358430000056
 31
0.0
  0
LINE
  5
5C8
  8
0
 10
6.7345866386999989
 20
4.6306076205000082
 30
0.0
 11
6.7327119029000002
 21
4.6291372077000039
 31
0.0
  0
LINE
  5
5C9
  8
0
 10
6.7830456316000003
 20
4.6676358430000056
 30
0.0
 11
6.7801550865999998
 21
4.6653723980000024
 31
0.0
  0
LINE
  5
5CA
  8
0
 10
6.737492551199999
 20
4.6328631407000032
 30
0.0
 11
6.7345866386999989
 21
4.6306076205000082
 31
0.0
  0
LINE
  5
5CB
  8
0
 10
6.7801550865999998
 20
4.6653723980000024
 30
0.0
 11
6.7757828133999993
 21
4.6619880768000073
 31
0.0
  0
LINE
  5
5CC
  8
0
 10
6.741558336499998
 20
4.6359858523999904
 30
0.0
 11
6.737492551199999
 21
4.6328631407000032
 31
0.0
  0
LINE
  5
5CD
  8
0
 10
6.7757828133999993
 20
4.6619880768000073
 30
0.0
 11
6.7700090524999998
 21
4.6575681039000036
 31
0.0
  0
POLYLINE
  5
5CE
  8
0
 66
     1
 10
0.0
 20
0.0
 30
0.0
  0
VERTEX
  5
7696
  8
0
 10
6.7552672976999988
 20
4.6463939107999996
 30
0.0
  0
VERTEX
  5
7697
  8
0
 10
6.752812345499998
 20
4.6445362056999988
 30
0.0
  0
VERTEX
  5
7698
  8
0
 10
6.741558336499998
 20
4.6359858523999904
 30
0.0
  0
SEQEND
  5
7699
  8
0
  0
LINE
  5
5CF
  8
0
 10
6.7700090524999998
 20
4.6575681039000036
 30
0.0
 11
6.7552672976999988
 21
4.6463939107999996
 31
0.0
  0
POLYLINE
  5
5FE
  8
0
 66
     1
 10
0.0
 20
0.0
 30
0.0
  0
VERTEX
  5
769A
  8
0
 10
-6.8113545994999987
 20
4.6860441727999884
 30
0.0
  0
VERTEX
  5
769B
  8
0
 10
-6.8108316933999999
 20
4.6857101661000007
 30
0.0
  0
VERTEX
  5
769C
  8
0
 10
-6.810311358199999
 20
4.6853904982000003
 30
0.0
  0
VERTEX
  5
769D
  8
0
 10
-6.8097935948000003
 20
4.6850851695999998
 30
0.0
  0
VERTEX
  5
769E
  8
0
 10
-6.8092788471000008
 20
4.684795099300004
 30
0.0
  0
VERTEX
  5
769F
  8
0
 10
-6.8087666729
 20
4.6845193692000029
 30
0.0
  0
VERTEX
  5
76A0
  8
0
 10
-6.8082557436000011
 20
4.6842552240999922
 30
0.0
  0
VERTEX
  5
76A1
  8
0
 10
-6.8077459268
 20
4.6840023973999996
 30
0.0
  0
VERTEX
  5
76A2
  8
0
 10
-6.8072373558000008
 20
4.683761156000009
 30
0.0
  0
VERTEX
  5
76A3
  8
0
 10
-6.806729100400001
 20
4.6835295452000087
 30
0.0
  0
VERTEX
  5
76A4
  8
0
 10
-6.806221014400001
 20
4.6833073658000037
 30
0.0
  0
VERTEX
  5
76A5
  8
0
 10
-6.8057132444000006
 20
4.6830948170000042
 30
0.0
  0
VERTEX
  5
76A6
  8
0
 10
-6.8052052995999999
 20
4.6828905416000017
 30
0.0
  0
VERTEX
  5
76A7
  8
0
 10
-6.8046971865000012
 20
4.6826944471000038
 30
0.0
  0
VERTEX
  5
76A8
  8
0
 10
-6.8041888985999988
 20
4.6825066258000021
 30
0.0
  0
VERTEX
  5
76A9
  8
0
 10
-6.8036799255
 20
4.6823259976000031
 30
0.0
  0
VERTEX
  5
76AA
  8
0
 10
-6.803170155500001
 20
4.6821524552000042
 30
0.0
  0
VERTEX
  5
76AB
  8
0
 10
-6.8026597002000013
 20
4.6819861056000098
 30
0.0
  0
VERTEX
  5
76AC
  8
0
 10
-6.8021483845999997
 20
4.6818261900000024
 30
0.0
  0
VERTEX
  5
76AD
  8
0
 10
-6.8016361447000007
 20
4.6816726462999929
 30
0.0
  0
VERTEX
  5
76AE
  8
0
 10
-6.8011230442999997
 20
4.6815255360999961
 30
0.0
  0
VERTEX
  5
76AF
  8
0
 10
-6.8006090997999991
 20
4.681384285900001
 30
0.0
  0
VERTEX
  5
76B0
  8
0
 10
-6.8000943166000001
 20
4.6812487040999917
 30
0.0
  0
VERTEX
  5
76B1
  8
0
 10
-6.7995786889999996
 20
4.6811189817000018
 30
0.0
  0
VERTEX
  5
76B2
  8
0
 10
-6.7990622167000003
 20
4.6809951183000029
 30
0.0
  0
SEQEND
  5
76B3
  8
0
  0
LINE
  5
5FF
  8
0
 10
6.7104698642000002
 20
-4.2874094328000041
 30
0.0
 11
5.9286598037999978
 21
-3.7799859489999998
 31
0.0
  0
LINE
  5
600
  8
0
 10
5.9286598037999978
 20
-3.7799859489999998
 30
0.0
 11
5.3630995095000014
 21
-3.4127215976999992
 31
0.0
  0
LINE
  5
601
  8
0
 10
5.3630995095000014
 20
-3.4127215976999992
 30
0.0
 11
5.0542125802999989
 21
-3.2120446202999982
 31
0.0
  0
LINE
  5
602
  8
0
 10
5.0542125802999989
 20
-3.2120446202999982
 30
0.0
 11
4.3760448389999977
 21
-2.7711398803999989
 31
0.0
  0
LINE
  5
603
  8
0
 10
4.3760448389999977
 20
-2.7711398803999989
 30
0.0
 11
4.1161035238999988
 21
-2.6019951915999959
 31
0.0
  0
POLYLINE
  5
604
  8
0
 66
     1
 10
0.0
 20
0.0
 30
0.0
  0
VERTEX
  5
76B4
  8
0
 10
4.1161035238999988
 20
-2.6019951915999959
 30
0.0
  0
VERTEX
  5
76B5
  8
0
 10
3.6293767067
 20
-2.2849597211000008
 30
0.0
  0
VERTEX
  5
76B6
  8
0
 10
3.5348823617000011
 20
-2.2233727705000059
 30
0.0
  0
SEQEND
  5
76B7
  8
0
  0
POLYLINE
  5
617
  8
0
 66
     1
 10
0.0
 20
0.0
 30
0.0
  0
VERTEX
  5
76B8
  8
0
 10
6.7198474160999977
 20
4.6183758047000154
 30
0.0
  0
VERTEX
  5
76B9
  8
0
 10
6.718588143099999
 20
4.6172193614999983
 30
0.0
  0
VERTEX
  5
76BA
  8
0
 10
6.7172981602000004
 20
4.6159889443000059
 30
0.0
  0
VERTEX
  5
76BB
  8
0
 10
6.7159772974000003
 20
4.6146833698999989
 30
0.0
  0
VERTEX
  5
76BC
  8
0
 10
6.7146254283999989
 20
4.6133033616000034
 30
0.0
  0
VERTEX
  5
76BD
  8
0
 10
6.7132423227999993
 20
4.6118457139000091
 30
0.0
  0
VERTEX
  5
76BE
  8
0
 10
6.7118276284
 20
4.6103031692000007
 30
0.0
  0
VERTEX
  5
76BF
  8
0
 10
6.7103804047000004
 20
4.608673064499988
 30
0.0
  0
VERTEX
  5
76C0
  8
0
 10
6.7089011549999986
 20
4.6069550297000026
 30
0.0
  0
VERTEX
  5
76C1
  8
0
 10
6.7073916594999998
 20
4.6051450158000051
 30
0.0
  0
VERTEX
  5
76C2
  8
0
 10
6.7058505274
 20
4.603239035600005
 30
0.0
  0
VERTEX
  5
76C3
  8
0
 10
6.7042786548999986
 20
4.6012376563000066
 30
0.0
  0
VERTEX
  5
76C4
  8
0
 10
6.7026812522999988
 20
4.5991436697000054
 30
0.0
  0
VERTEX
  5
76C5
  8
0
 10
6.7010573325999987
 20
4.5969532335999972
 30
0.0
  0
VERTEX
  5
76C6
  8
0
 10
6.6994073904999993
 20
4.5946667987000041
 30
0.0
  0
VERTEX
  5
76C7
  8
0
 10
6.6977389111999983
 20
4.5922939694999911
 30
0.0
  0
VERTEX
  5
76C8
  8
0
 10
6.6960507592000003
 20
4.5898307643000029
 30
0.0
  0
VERTEX
  5
76C9
  8
0
 10
6.694343645
 20
4.5872782522000071
 30
0.0
  0
VERTEX
  5
76CA
  8
0
 10
6.692627936900001
 20
4.5846544018999964
 30
0.0
  0
VERTEX
  5
76CB
  8
0
 10
6.6909010796999988
 20
4.5819539409000072
 30
0.0
  0
VERTEX
  5
76CC
  8
0
 10
6.689165345000001
 20
4.5791802193000057
 30
0.0
  0
VERTEX
  5
76CD
  8
0
 10
6.6874385385999977
 20
4.5763655138000061
 30
0.0
  0
VERTEX
  5
76CE
  8
0
 10
6.6857228246
 20
4.5735144364999982
 30
0.0
  0
VERTEX
  5
76CF
  8
0
 10
6.6840160325999998
 20
4.5706223811000006
 30
0.0
  0
VERTEX
  5
76D0
  8
0
 10
6.6823296628999991
 20
4.5677091563000038
 30
0.0
  0
VERTEX
  5
76D1
  8
0
 10
6.6806676115999997
 20
4.5647818774000006
 30
0.0
  0
VERTEX
  5
76D2
  8
0
 10
6.6790261239999982
 20
4.5618344647000049
 30
0.0
  0
VERTEX
  5
76D3
  8
0
 10
6.6774052936999988
 20
4.5588674220999934
 30
0.0
  0
VERTEX
  5
76D4
  8
0
 10
6.6758053447999997
 20
4.5558815131999992
 30
0.0
  0
VERTEX
  5
76D5
  8
0
 10
6.6742261780999987
 20
4.5528768971000062
 30
0.0
  0
VERTEX
  5
76D6
  8
0
 10
6.672667399799999
 20
4.5498531508000042
 30
0.0
  0
VERTEX
  5
76D7
  8
0
 10
6.671128893799998
 20
4.5468103681000036
 30
0.0
  0
VERTEX
  5
76D8
  8
0
 10
6.6696108924999988
 20
4.5437493214000071
 30
0.0
  0
VERTEX
  5
76D9
  8
0
 10
6.6681135220999996
 20
4.540670587900002
 30
0.0
  0
VERTEX
  5
76DA
  8
0
 10
6.6666369645000003
 20
4.537574853599998
 30
0.0
  0
VERTEX
  5
76DB
  8
0
 10
6.6651811545999999
 20
4.5344623030000051
 30
0.0
  0
VERTEX
  5
76DC
  8
0
 10
6.6637458467000013
 20
4.5313327493999997
 30
0.0
  0
VERTEX
  5
76DD
  8
0
 10
6.6623309326999989
 20
4.5281862321000039
 30
0.0
  0
VERTEX
  5
76DE
  8
0
 10
6.6609366313999976
 20
4.5250235427999916
 30
0.0
  0
VERTEX
  5
76DF
  8
0
 10
6.6595631869000007
 20
4.5218456193999961
 30
0.0
  0
VERTEX
  5
76E0
  8
0
 10
6.6582111542000009
 20
4.5186541209000017
 30
0.0
  0
VERTEX
  5
76E1
  8
0
 10
6.6568800922999989
 20
4.515448244099999
 30
0.0
  0
VERTEX
  5
76E2
  8
0
 10
6.6555687454000001
 20
4.5122251902999926
 30
0.0
  0
VERTEX
  5
76E3
  8
0
 10
6.6542738559999988
 20
4.5089763760000059
 30
0.0
  0
VERTEX
  5
76E4
  8
0
 10
6.6529987648999986
 20
4.5057110344
 30
0.0
  0
VERTEX
  5
76E5
  8
0
 10
6.6517521570999998
 20
4.5024533832999998
 30
0.0
  0
VERTEX
  5
76E6
  8
0
 10
6.6505370133999993
 20
4.4992121035000059
 30
0.0
  0
VERTEX
  5
76E7
  8
0
 10
6.6493505542000007
 20
4.4959799586000031
 30
0.0
  0
VERTEX
  5
76E8
  8
0
 10
6.6481928709999991
 20
4.4927576074000006
 30
0.0
  0
SEQEND
  5
76E9
  8
0
  0
POLYLINE
  5
618
  8
0
 66
     1
 10
0.0
 20
0.0
 30
0.0
  0
VERTEX
  5
76EA
  8
0
 10
6.7990622400999987
 20
4.680995121899997
 30
0.0
  0
VERTEX
  5
76EB
  8
0
 10
6.7980791830999996
 20
4.6801051000000049
 30
0.0
  0
VERTEX
  5
76EC
  8
0
 10
6.7970522641000013
 20
4.6791913116000003
 30
0.0
  0
VERTEX
  5
76ED
  8
0
 10
6.7959814097999987
 20
4.6782532371000007
 30
0.0
  0
VERTEX
  5
76EE
  8
0
 10
6.794866419699999
 20
4.6772899043000029
 30
0.0
  0
VERTEX
  5
76EF
  8
0
 10
6.7937073447999987
 20
4.6763012261000014
 30
0.0
  0
VERTEX
  5
76F0
  8
0
 10
6.7925044995000006
 20
4.6752880851000072
 30
0.0
  0
VERTEX
  5
76F1
  8
0
 10
6.791254102399999
 20
4.674247540500005
 30
0.0
  0
VERTEX
  5
76F2
  8
0
 10
6.7899597954999988
 20
4.6731815357000031
 30
0.0
  0
VERTEX
  5
76F3
  8
0
 10
6.7886331201000001
 20
4.6720989040000021
 30
0.0
  0
SEQEND
  5
76F4
  8
0
  0
LINE
  5
637
  8
0
 10
-7.000884965
 20
4.478026161599991
 30
0.0
 11
-6.984667246399999
 21
4.4708358277000073
 31
0.0
  0
LINE
  5
638
  8
0
 10
-6.984667246399999
 20
4.4708358277000073
 30
0.0
 11
-6.9816137331999988
 21
4.4694621631000038
 31
0.0
  0
LINE
  5
639
  8
0
 10
-7.0032144897999986
 20
4.4790769785000029
 30
0.0
 11
-7.000884965
 21
4.478026161599991
 31
0.0
  0
POLYLINE
  5
63A
  8
0
 66
     1
 10
0.0
 20
0.0
 30
0.0
  0
VERTEX
  5
76F5
  8
0
 10
-6.9816137331999988
 20
4.4694621631000038
 30
0.0
  0
VERTEX
  5
76F6
  8
0
 10
-6.9799007106999991
 20
4.4686802455000034
 30
0.0
  0
VERTEX
  5
76F7
  8
0
 10
-6.978126605099999
 20
4.4678582243000093
 30
0.0
  0
VERTEX
  5
76F8
  8
0
 10
-6.9762898778000011
 20
4.466995925500008
 30
0.0
  0
SEQEND
  5
76F9
  8
0
  0
POLYLINE
  5
63B
  8
0
 66
     1
 10
0.0
 20
0.0
 30
0.0
  0
VERTEX
  5
76FA
  8
0
 10
-6.9440366536000004
 20
4.4514127303999942
 30
0.0
  0
VERTEX
  5
76FB
  8
0
 10
-6.9413862544000002
 20
4.450178508999997
 30
0.0
  0
VERTEX
  5
76FC
  8
0
 10
-6.9387069894999991
 20
4.4489459178000033
 30
0.0
  0
VERTEX
  5
76FD
  8
0
 10
-6.9359983344999989
 20
4.4477142535999974
 30
0.0
  0
VERTEX
  5
76FE
  8
0
 10
-6.9332650725000011
 20
4.4464898277999998
 30
0.0
  0
VERTEX
  5
76FF
  8
0
 10
-6.9305087902000011
 20
4.4452734623000012
 30
0.0
  0
VERTEX
  5
7700
  8
0
 10
-6.9277292256000012
 20
4.4440644860000091
 30
0.0
  0
VERTEX
  5
7701
  8
0
 10
-6.9249286196000011
 20
4.4428669952000064
 30
0.0
  0
VERTEX
  5
7702
  8
0
 10
-6.922108349000001
 20
4.4416816570000028
 30
0.0
  0
VERTEX
  5
7703
  8
0
 10
-6.9192684550000001
 20
4.4405079639000027
 30
0.0
  0
VERTEX
  5
7704
  8
0
 10
-6.916409226799999
 20
4.4393482552000094
 30
0.0
  0
VERTEX
  5
7705
  8
0
 10
-6.9135317309999991
 20
4.4382030017000034
 30
0.0
  0
VERTEX
  5
7706
  8
0
 10
-6.9106362669000001
 20
4.4370718846000008
 30
0.0
  0
VERTEX
  5
7707
  8
0
 10
-6.9077219199000011
 20
4.4359560517000034
 30
0.0
  0
VERTEX
  5
7708
  8
0
 10
-6.9047894789999988
 20
4.4348558106000047
 30
0.0
  0
VERTEX
  5
7709
  8
0
 10
-6.9018394026000003
 20
4.4337709909000154
 30
0.0
  0
VERTEX
  5
770A
  8
0
 10
-6.8988701801000012
 20
4.4327020114000026
 30
0.0
  0
VERTEX
  5
770B
  8
0
 10
-6.8958823879000004
 20
4.4316490633999939
 30
0.0
  0
VERTEX
  5
770C
  8
0
 10
-6.8928765621999988
 20
4.4306120764999974
 30
0.0
  0
VERTEX
  5
770D
  8
0
 10
-6.889851021300001
 20
4.4295910634000029
 30
0.0
  0
VERTEX
  5
770E
  8
0
 10
-6.886806194900001
 20
4.4285861406999976
 30
0.0
  0
VERTEX
  5
770F
  8
0
 10
-6.8837426412999987
 20
4.4275972977999913
 30
0.0
  0
VERTEX
  5
7710
  8
0
 10
-6.8806587694000001
 20
4.4266243456000041
 30
0.0
  0
VERTEX
  5
7711
  8
0
 10
-6.8775549064000003
 20
4.4256673522999961
 30
0.0
  0
VERTEX
  5
7712
  8
0
 10
-6.8744316101000003
 20
4.4247263433000006
 30
0.0
  0
VERTEX
  5
7713
  8
0
 10
-6.871287550299999
 20
4.4238010550000046
 30
0.0
  0
VERTEX
  5
7714
  8
0
 10
-6.8681230004999998
 20
4.4228915291999931
 30
0.0
  0
VERTEX
  5
7715
  8
0
 10
-6.8649384954999997
 20
4.4219978085000093
 30
0.0
  0
VERTEX
  5
7716
  8
0
 10
-6.861733033000001
 20
4.4211196235999992
 30
0.0
  0
VERTEX
  5
7717
  8
0
 10
-6.8585068632999997
 20
4.420257003100005
 30
0.0
  0
VERTEX
  5
7718
  8
0
 10
-6.8552604923000011
 20
4.4194099963000042
 30
0.0
  0
VERTEX
  5
7719
  8
0
 10
-6.8519932552
 20
4.4185783597000059
 30
0.0
  0
VERTEX
  5
771A
  8
0
 10
-6.8487053881999991
 20
4.4177621123999913
 30
0.0
  0
VERTEX
  5
771B
  8
0
 10
-6.8453973796999987
 20
4.4169613093000057
 30
0.0
  0
VERTEX
  5
771C
  8
0
 10
-6.8420689154999996
 20
4.4161757571000058
 30
0.0
  0
VERTEX
  5
771D
  8
0
 10
-6.838720233600001
 20
4.4154054701000041
 30
0.0
  0
VERTEX
  5
771E
  8
0
 10
-6.8353518066000012
 20
4.4146505060000081
 30
0.0
  0
VERTEX
  5
771F
  8
0
 10
-6.8319636572000011
 20
4.4139107352999991
 30
0.0
  0
VERTEX
  5
7720
  8
0
 10
-6.828556054699999
 20
4.4131861739999962
 30
0.0
  0
VERTEX
  5
7721
  8
0
 10
-6.8251294403999987
 20
4.4124768776000058
 30
0.0
  0
VERTEX
  5
7722
  8
0
 10
-6.8216840905000007
 20
4.4117827756000088
 30
0.0
  0
VERTEX
  5
7723
  8
0
 10
-6.8182202593000012
 20
4.4111038773000004
 30
0.0
  0
VERTEX
  5
7724
  8
0
 10
-6.8147384110000004
 20
4.410440245700002
 30
0.0
  0
VERTEX
  5
7725
  8
0
 10
-6.8112391402999988
 20
4.4097918917000021
 30
0.0
  0
VERTEX
  5
7726
  8
0
 10
-6.8077228349000007
 20
4.4091588439999958
 30
0.0
  0
VERTEX
  5
7727
  8
0
 10
-6.8041898424999987
 20
4.4085411480000039
 30
0.0
  0
VERTEX
  5
7728
  8
0
 10
-6.8006407057000011
 20
4.4079388399999919
 30
0.0
  0
VERTEX
  5
7729
  8
0
 10
-6.7970755342000011
 20
4.4073519035000066
 30
0.0
  0
VERTEX
  5
772A
  8
0
 10
-6.7934949637999997
 20
4.406780430000004
 30
0.0
  0
VERTEX
  5
772B
  8
0
 10
-6.7899003411000001
 20
4.4062246209000051
 30
0.0
  0
VERTEX
  5
772C
  8
0
 10
-6.7862923780999997
 20
4.4056845700000054
 30
0.0
  0
VERTEX
  5
772D
  8
0
 10
-6.7826711401000006
 20
4.4051602620000017
 30
0.0
  0
VERTEX
  5
772E
  8
0
 10
-6.779037015400001
 20
4.4046517361999937
 30
0.0
  0
SEQEND
  5
772F
  8
0
  0
POLYLINE
  5
63C
  8
0
 66
     1
 10
0.0
 20
0.0
 30
0.0
  0
VERTEX
  5
7730
  8
0
 10
-7.00806152
 20
4.4813262546000061
 30
0.0
  0
VERTEX
  5
7731
  8
0
 10
-7.0068303324000007
 20
4.4807451834000034
 30
0.0
  0
VERTEX
  5
7732
  8
0
 10
-7.0056099638999987
 20
4.4801761609000081
 30
0.0
  0
VERTEX
  5
7733
  8
0
 10
-7.0032144897999986
 20
4.4790769785000029
 30
0.0
  0
SEQEND
  5
7734
  8
0
  0
LINE
  5
63D
  8
0
 10
-6.9492389144000013
 20
4.4538750655000072
 30
0.0
 11
-6.9440366536000004
 21
4.4514127303999942
 31
0.0
  0
LINE
  5
63E
  8
0
 10
-6.9762898778000011
 20
4.466995925500008
 30
0.0
 11
-6.972423781899999
 21
4.4651493789000076
 31
0.0
  0
LINE
  5
63F
  8
0
 10
-6.9542905508000006
 20
4.4563071991000021
 30
0.0
 11
-6.9492389144000013
 21
4.4538750655000072
 31
0.0
  0
LINE
  5
640
  8
0
 10
-6.972423781899999
 20
4.4651493789000076
 30
0.0
 11
-6.9682765484999996
 21
4.4631382906000061
 31
0.0
  0
LINE
  5
641
  8
0
 10
-6.9682765484999996
 20
4.4631382906000061
 30
0.0
 11
-6.9542905508000006
 21
4.4563071991000021
 31
0.0
  0
POLYLINE
  5
663
  8
0
 66
     1
 10
0.0
 20
0.0
 30
0.0
  0
VERTEX
  5
7735
  8
0
 10
-3.4487618347999991
 20
2.242565326899999
 30
0.0
  0
VERTEX
  5
7736
  8
0
 10
-3.4135873223999988
 20
2.2443500200000051
 30
0.0
  0
VERTEX
  5
7737
  8
0
 10
-3.3786555428999989
 20
2.246460820200006
 30
0.0
  0
VERTEX
  5
7738
  8
0
 10
-3.3439669240000001
 20
2.248896617299998
 30
0.0
  0
VERTEX
  5
7739
  8
0
 10
-3.309520784900001
 20
2.2516460614999971
 30
0.0
  0
VERTEX
  5
773A
  8
0
 10
-3.2753187337999989
 20
2.2547181444000008
 30
0.0
  0
VERTEX
  5
773B
  8
0
 10
-3.241364657600001
 20
2.2581421290999941
 30
0.0
  0
VERTEX
  5
773C
  8
0
 10
-3.2076549417000009
 20
2.261914651400005
 30
0.0
  0
VERTEX
  5
773D
  8
0
 10
-3.1741942532
 20
2.2660362560000058
 30
0.0
  0
VERTEX
  5
773E
  8
0
 10
-3.1409989299999999
 20
2.2705418306000089
 30
0.0
  0
VERTEX
  5
773F
  8
0
 10
-3.1080748231999991
 20
2.2754418415999988
 30
0.0
  0
VERTEX
  5
7740
  8
0
 10
-3.0754172992000002
 20
2.280722430800004
 30
0.0
  0
VERTEX
  5
7741
  8
0
 10
-3.0430270104000008
 20
2.286381812000001
 30
0.0
  0
SEQEND
  5
7742
  8
0
  0
POLYLINE
  5
664
  8
0
 66
     1
 10
0.0
 20
0.0
 30
0.0
  0
VERTEX
  5
7743
  8
0
 10
-3.4470188302000002
 20
2.341093063199998
 30
0.0
  0
VERTEX
  5
7744
  8
0
 10
-3.412760841399999
 20
2.3412724486000012
 30
0.0
  0
VERTEX
  5
7745
  8
0
 10
-3.3787744997000009
 20
2.3417615915000018
 30
0.0
  0
VERTEX
  5
7746
  8
0
 10
-3.3450495066000001
 20
2.3425612989999962
 30
0.0
  0
VERTEX
  5
7747
  8
0
 10
-3.3115618805000002
 20
2.3436650117000042
 30
0.0
  0
VERTEX
  5
7748
  8
0
 10
-3.278314547099999
 20
2.3450808631000082
 30
0.0
  0
VERTEX
  5
7749
  8
0
 10
-3.2453363642999999
 20
2.3468318660000089
 30
0.0
  0
VERTEX
  5
774A
  8
0
 10
-3.2126091017
 20
2.3489174710000071
 30
0.0
  0
VERTEX
  5
774B
  8
0
 10
-3.180126704900001
 20
2.3513401352000041
 30
0.0
  0
VERTEX
  5
774C
  8
0
 10
-3.1479339449000001
 20
2.3541277869999879
 30
0.0
  0
VERTEX
  5
774D
  8
0
 10
-3.1160359176000001
 20
2.3572906318999989
 30
0.0
  0
VERTEX
  5
774E
  8
0
 10
-3.0843993018000009
 20
2.360820876800005
 30
0.0
  0
VERTEX
  5
774F
  8
0
 10
-2.8498164297999988
 20
2.3905715655000028
 30
0.0
  0
SEQEND
  5
7750
  8
0
  0
POLYLINE
  5
665
  8
0
 66
     1
 10
0.0
 20
0.0
 30
0.0
  0
VERTEX
  5
7751
  8
0
 10
3.4470188301999989
 20
2.341093063199998
 30
0.0
  0
VERTEX
  5
7752
  8
0
 10
3.412760841399999
 20
2.3412724486000012
 30
0.0
  0
VERTEX
  5
7753
  8
0
 10
3.3787744997
 20
2.3417615915000018
 30
0.0
  0
VERTEX
  5
7754
  8
0
 10
3.3450495066000001
 20
2.3425612989999962
 30
0.0
  0
VERTEX
  5
7755
  8
0
 10
3.3115618804999989
 20
2.3436650117000042
 30
0.0
  0
VERTEX
  5
7756
  8
0
 10
3.2783145471999999
 20
2.3450808631000082
 30
0.0
  0
VERTEX
  5
7757
  8
0
 10
3.2453363643999991
 20
2.3468318660000089
 30
0.0
  0
VERTEX
  5
7758
  8
0
 10
3.2126091018
 20
2.3489174710000071
 30
0.0
  0
VERTEX
  5
7759
  8
0
 10
3.1801267050000011
 20
2.3513401352000041
 30
0.0
  0
VERTEX
  5
775A
  8
0
 10
3.1479339450000001
 20
2.3541277869999879
 30
0.0
  0
VERTEX
  5
775B
  8
0
 10
3.1160359176999992
 20
2.3572906318999989
 30
0.0
  0
VERTEX
  5
775C
  8
0
 10
3.0843993019000009
 20
2.360820876800005
 30
0.0
  0
SEQEND
  5
775D
  8
0
  0
POLYLINE
  5
666
  8
0
 66
     1
 10
0.0
 20
0.0
 30
0.0
  0
VERTEX
  5
775E
  8
0
 10
3.4487618349
 20
2.242565326899999
 30
0.0
  0
VERTEX
  5
775F
  8
0
 10
3.4135873223999988
 20
2.2443500200000051
 30
0.0
  0
VERTEX
  5
7760
  8
0
 10
3.378655542999998
 20
2.246460820200006
 30
0.0
  0
VERTEX
  5
7761
  8
0
 10
3.343966924100001
 20
2.248896617299998
 30
0.0
  0
VERTEX
  5
7762
  8
0
 10
3.3095207849000001
 20
2.2516460614999971
 30
0.0
  0
VERTEX
  5
7763
  8
0
 10
3.2753187338999981
 20
2.2547181444000008
 30
0.0
  0
VERTEX
  5
7764
  8
0
 10
3.2413646576000001
 20
2.2581421290999941
 30
0.0
  0
VERTEX
  5
7765
  8
0
 10
3.2076549417000009
 20
2.261914651400005
 30
0.0
  0
VERTEX
  5
7766
  8
0
 10
3.1741942532999992
 20
2.2660362560000058
 30
0.0
  0
VERTEX
  5
7767
  8
0
 10
3.1409989299999999
 20
2.2705418306000089
 30
0.0
  0
VERTEX
  5
7768
  8
0
 10
3.1080748232999991
 20
2.2754418415999988
 30
0.0
  0
VERTEX
  5
7769
  8
0
 10
3.0754172992000011
 20
2.280722430800004
 30
0.0
  0
VERTEX
  5
776A
  8
0
 10
3.043027010399999
 20
2.286381812000001
 30
0.0
  0
SEQEND
  5
776B
  8
0
  0
POLYLINE
  5
669
  8
0
 66
     1
 10
0.0
 20
0.0
 30
0.0
  0
VERTEX
  5
776C
  8
0
 10
6.7579000022999987
 20
4.3998263763000054
 30
0.0
  0
VERTEX
  5
776D
  8
0
 10
6.7565116483000001
 20
4.3994889496000047
 30
0.0
  0
VERTEX
  5
776E
  8
0
 10
6.7551195322000002
 20
4.399141285000006
 30
0.0
  0
VERTEX
  5
776F
  8
0
 10
6.753725608099999
 20
4.398784210200005
 30
0.0
  0
VERTEX
  5
7770
  8
0
 10
6.7523448581999981
 20
4.3984184427999997
 30
0.0
  0
VERTEX
  5
7771
  8
0
 10
6.7509791755999986
 20
4.3980435325000036
 30
0.0
  0
VERTEX
  5
7772
  8
0
 10
6.7496266638999991
 20
4.3976599542000008
 30
0.0
  0
VERTEX
  5
7773
  8
0
 10
6.7482966185999986
 20
4.3972698251000031
 30
0.0
  0
VERTEX
  5
7774
  8
0
 10
6.7469921143000011
 20
4.3968737889999971
 30
0.0
  0
VERTEX
  5
7775
  8
0
 10
6.7457100720000014
 20
4.3964712331000078
 30
0.0
  0
VERTEX
  5
7776
  8
0
 10
6.7444505566000004
 20
4.39606239350001
 30
0.0
  0
VERTEX
  5
7777
  8
0
 10
6.7432136914999994
 20
4.395647328199999
 30
0.0
  0
VERTEX
  5
7778
  8
0
 10
6.7419993492000003
 20
4.3952260068999962
 30
0.0
  0
VERTEX
  5
7779
  8
0
 10
6.7408072188999979
 20
4.3947985327999879
 30
0.0
  0
VERTEX
  5
777A
  8
0
 10
6.7396371659999987
 20
4.3943648722000068
 30
0.0
  0
VERTEX
  5
777B
  8
0
 10
6.7384893211999994
 20
4.3939250840000019
 30
0.0
  0
VERTEX
  5
777C
  8
0
 10
6.7373637717000001
 20
4.393479409500002
 30
0.0
  0
VERTEX
  5
777D
  8
0
 10
6.7362606088999977
 20
4.393027897200013
 30
0.0
  0
VERTEX
  5
777E
  8
0
 10
6.7351797377999993
 20
4.3925705217000006
 30
0.0
  0
VERTEX
  5
777F
  8
0
 10
6.7341209650999998
 20
4.3921074122999988
 30
0.0
  0
VERTEX
  5
7780
  8
0
 10
6.7330841710999989
 20
4.3916385230000037
 30
0.0
  0
VERTEX
  5
7781
  8
0
 10
6.7320694723000001
 20
4.3911639206000066
 30
0.0
  0
VERTEX
  5
7782
  8
0
 10
6.7310770297999989
 20
4.3906839035999994
 30
0.0
  0
VERTEX
  5
7783
  8
0
 10
6.7301071941000004
 20
4.390198676099998
 30
0.0
  0
VERTEX
  5
7784
  8
0
 10
6.729159611600001
 20
4.3897080528000032
 30
0.0
  0
VERTEX
  5
7785
  8
0
 10
6.7282333880999987
 20
4.3892117471000063
 30
0.0
  0
VERTEX
  5
7786
  8
0
 10
6.7273262763999986
 20
4.3887083231999986
 30
0.0
  0
VERTEX
  5
7787
  8
0
 10
6.726440520899998
 20
4.388199233299992
 30
0.0
  0
VERTEX
  5
7788
  8
0
 10
6.725581964899999
 20
4.3876885227999898
 30
0.0
  0
VERTEX
  5
7789
  8
0
 10
6.7247525551000003
 20
4.387177545100009
 30
0.0
  0
VERTEX
  5
778A
  8
0
 10
6.7239503422000002
 20
4.3866649612000037
 30
0.0
  0
VERTEX
  5
778B
  8
0
 10
6.7231753246999988
 20
4.3861507777999904
 30
0.0
  0
SEQEND
  5
778C
  8
0
  0
LINE
  5
66A
  8
0
 10
6.7790370179000004
 20
4.4046517404000047
 30
0.0
 11
6.7768881616999996
 21
4.4041386060000027
 31
0.0
  0
LINE
  5
66B
  8
0
 10
6.7606621673999987
 20
4.4004747470000041
 30
0.0
 11
6.7579000022999987
 21
4.3998263763000054
 31
0.0
  0
LINE
  5
66C
  8
0
 10
6.7768881616999996
 20
4.4041386060000027
 30
0.0
 11
6.7746429403999988
 21
4.403615735200006
 31
0.0
  0
LINE
  5
66D
  8
0
 10
6.7633789749000002
 20
4.4010924893000052
 30
0.0
 11
6.7606621673999987
 21
4.4004747470000041
 31
0.0
  0
LINE
  5
66E
  8
0
 10
6.7746429403999988
 20
4.403615735200006
 30
0.0
 11
6.7710937924000003
 21
4.4028107480000074
 31
0.0
  0
LINE
  5
66F
  8
0
 10
6.7710937924000003
 20
4.4028107480000074
 30
0.0
 11
6.7633789749000002
 21
4.4010924893000052
 31
0.0
  0
POLYLINE
  5
674
  8
0
 66
     1
 10
0.0
 20
0.0
 30
0.0
  0
VERTEX
  5
778D
  8
0
 10
-3.0430270253999989
 20
2.2863818192000021
 30
0.0
  0
VERTEX
  5
778E
  8
0
 10
-2.8405787392000001
 20
2.3129239689999959
 30
0.0
  0
VERTEX
  5
778F
  8
0
 10
-2.6377619011000011
 20
2.337730004600004
 30
0.0
  0
VERTEX
  5
7790
  8
0
 10
-2.4345729712999988
 20
2.3607802602000092
 30
0.0
  0
VERTEX
  5
7791
  8
0
 10
-2.230865242200001
 20
2.3820658581999998
 30
0.0
  0
VERTEX
  5
7792
  8
0
 10
-2.0267826949000001
 20
2.4015545955000022
 30
0.0
  0
VERTEX
  5
7793
  8
0
 10
-1.822756897299999
 20
2.4192035852999889
 30
0.0
  0
VERTEX
  5
7794
  8
0
 10
-1.618798114699999
 20
2.4350098964999982
 30
0.0
  0
VERTEX
  5
7795
  8
0
 10
-1.4148929338
 20
2.448963761499996
 30
0.0
  0
VERTEX
  5
7796
  8
0
 10
-1.2114374146999991
 20
2.461035755900006
 30
0.0
  0
VERTEX
  5
7797
  8
0
 10
-1.0086076538000011
 20
2.4712275430000039
 30
0.0
  0
VERTEX
  5
7798
  8
0
 10
-0.8062318119
 20
2.479555805800004
 30
0.0
  0
VERTEX
  5
7799
  8
0
 10
-0.6041890587999994
 20
2.4860231841999929
 30
0.0
  0
VERTEX
  5
779A
  8
0
 10
-0.4024445866999998
 20
2.4906339922999972
 30
0.0
  0
VERTEX
  5
779B
  8
0
 10
-0.201046161399999
 20
2.493397773700003
 30
0.0
  0
VERTEX
  5
779C
  8
0
 10
0.0
 20
2.4943232488000069
 30
0.0
  0
SEQEND
  5
779D
  8
0
  0
POLYLINE
  5
675
  8
0
 66
     1
 10
0.0
 20
0.0
 30
0.0
  0
VERTEX
  5
779E
  8
0
 10
-2.8498164297999988
 20
2.3905715655000028
 30
0.0
  0
VERTEX
  5
779F
  8
0
 10
-2.6462192776000002
 20
2.4146259864000039
 30
0.0
  0
VERTEX
  5
77A0
  8
0
 10
-2.4422406069000009
 20
2.436876067
 30
0.0
  0
VERTEX
  5
77A1
  8
0
 10
-2.237777706200001
 20
2.457319263699993
 30
0.0
  0
VERTEX
  5
77A2
  8
0
 10
-2.0329791841000011
 20
2.4759425221000049
 30
0.0
  0
VERTEX
  5
77A3
  8
0
 10
-1.8282399769
 20
2.4927333539000069
 30
0.0
  0
VERTEX
  5
77A4
  8
0
 10
-1.623583900899999
 20
2.5076935822000048
 30
0.0
  0
VERTEX
  5
77A5
  8
0
 10
-1.419023404599999
 20
2.520829353199999
 30
0.0
  0
VERTEX
  5
77A6
  8
0
 10
-1.2149260550000001
 20
2.5321542021000019
 30
0.0
  0
VERTEX
  5
77A7
  8
0
 10
-1.0114688495999991
 20
2.5416767798999942
 30
0.0
  0
VERTEX
  5
77A8
  8
0
 10
-0.8084983879000002
 20
2.549419248300004
 30
0.0
  0
VERTEX
  5
77A9
  8
0
 10
-0.6058755636999998
 20
2.5554207317000031
 30
0.0
  0
VERTEX
  5
77AA
  8
0
 10
-0.4035559530999997
 20
2.5596989653999951
 30
0.0
  0
VERTEX
  5
77AB
  8
0
 10
-0.2015954107999995
 20
2.5622545880000009
 30
0.0
  0
VERTEX
  5
77AC
  8
0
 10
0.0
 20
2.563096931599993
 30
0.0
  0
SEQEND
  5
77AD
  8
0
  0
POLYLINE
  5
676
  8
0
 66
     1
 10
0.0
 20
0.0
 30
0.0
  0
VERTEX
  5
77AE
  8
0
 10
3.0843993019000009
 20
2.360820876800005
 30
0.0
  0
VERTEX
  5
77AF
  8
0
 10
2.8498164298000002
 20
2.3905715655000028
 30
0.0
  0
VERTEX
  5
77B0
  8
0
 10
2.6462192776000002
 20
2.4146259864000039
 30
0.0
  0
VERTEX
  5
77B1
  8
0
 10
2.4422406069
 20
2.436876067
 30
0.0
  0
VERTEX
  5
77B2
  8
0
 10
2.2377777061999988
 20
2.457319263699993
 30
0.0
  0
VERTEX
  5
77B3
  8
0
 10
2.0329791841999998
 20
2.4759425221000049
 30
0.0
  0
VERTEX
  5
77B4
  8
0
 10
1.8282399768999991
 20
2.4927333539000069
 30
0.0
  0
VERTEX
  5
77B5
  8
0
 10
1.623583900899999
 20
2.5076935822000048
 30
0.0
  0
VERTEX
  5
77B6
  8
0
 10
1.4190234045999981
 20
2.520829353199999
 30
0.0
  0
VERTEX
  5
77B7
  8
0
 10
1.214926055099999
 20
2.5321542021000019
 30
0.0
  0
VERTEX
  5
77B8
  8
0
 10
1.0114688495999991
 20
2.5416767798999942
 30
0.0
  0
VERTEX
  5
77B9
  8
0
 10
0.8084983880000002
 20
2.549419248300004
 30
0.0
  0
VERTEX
  5
77BA
  8
0
 10
0.6058755636999998
 20
2.5554207317000031
 30
0.0
  0
VERTEX
  5
77BB
  8
0
 10
0.4035559531999997
 20
2.5596989653999951
 30
0.0
  0
VERTEX
  5
77BC
  8
0
 10
0.2015954107999995
 20
2.5622545880000009
 30
0.0
  0
VERTEX
  5
77BD
  8
0
 10
0.0
 20
2.563096931599993
 30
0.0
  0
SEQEND
  5
77BE
  8
0
  0
POLYLINE
  5
677
  8
0
 66
     1
 10
0.0
 20
0.0
 30
0.0
  0
VERTEX
  5
77BF
  8
0
 10
3.043027025399998
 20
2.2863818192000021
 30
0.0
  0
VERTEX
  5
77C0
  8
0
 10
2.840578739300001
 20
2.3129239689999959
 30
0.0
  0
VERTEX
  5
77C1
  8
0
 10
2.6377619011999989
 20
2.337730004600004
 30
0.0
  0
VERTEX
  5
77C2
  8
0
 10
2.4345729712999988
 20
2.3607802602000092
 30
0.0
  0
VERTEX
  5
77C3
  8
0
 10
2.2308652423000002
 20
2.3820658581999998
 30
0.0
  0
VERTEX
  5
77C4
  8
0
 10
2.0267826949999992
 20
2.4015545955000022
 30
0.0
  0
VERTEX
  5
77C5
  8
0
 10
1.822756897399999
 20
2.4192035852999889
 30
0.0
  0
VERTEX
  5
77C6
  8
0
 10
1.6187981147999999
 20
2.4350098964999982
 30
0.0
  0
VERTEX
  5
77C7
  8
0
 10
1.4148929338
 20
2.448963761499996
 30
0.0
  0
VERTEX
  5
77C8
  8
0
 10
1.2114374147
 20
2.461035755900006
 30
0.0
  0
VERTEX
  5
77C9
  8
0
 10
1.0086076537999999
 20
2.4712275430000039
 30
0.0
  0
VERTEX
  5
77CA
  8
0
 10
0.8062318120000001
 20
2.479555805800004
 30
0.0
  0
VERTEX
  5
77CB
  8
0
 10
0.6041890587999994
 20
2.4860231841999929
 30
0.0
  0
VERTEX
  5
77CC
  8
0
 10
0.4024445866999998
 20
2.4906339922999972
 30
0.0
  0
VERTEX
  5
77CD
  8
0
 10
0.2010461615000008
 20
2.493397773700003
 30
0.0
  0
VERTEX
  5
77CE
  8
0
 10
0.0
 20
2.4943232488000069
 30
0.0
  0
SEQEND
  5
77CF
  8
0
  0
LINE
  5
67C
  8
0
 10
-6.7723013495000011
 20
4.403082295200007
 30
0.0
 11
-6.7620260358000008
 21
4.4007874395000002
 31
0.0
  0
LINE
  5
67D
  8
0
 10
-6.7757775936999991
 20
4.4038782989999978
 30
0.0
 11
-6.7723013495000011
 21
4.403082295200007
 31
0.0
  0
POLYLINE
  5
67E
  8
0
 66
     1
 10
0.0
 20
0.0
 30
0.0
  0
VERTEX
  5
77D0
  8
0
 10
-6.7620260358000008
 20
4.4007874395000002
 30
0.0
  0
VERTEX
  5
77D1
  8
0
 10
-6.7592865489999996
 20
4.4001543856999978
 30
0.0
  0
VERTEX
  5
77D2
  8
0
 10
-6.7579000021999986
 20
4.3998263763000054
 30
0.0
  0
VERTEX
  5
77D3
  8
0
 10
-6.7565116482000001
 20
4.3994889496000047
 30
0.0
  0
VERTEX
  5
77D4
  8
0
 10
-6.755119532100001
 20
4.399141285000006
 30
0.0
  0
VERTEX
  5
77D5
  8
0
 10
-6.7537256080000008
 20
4.398784210200005
 30
0.0
  0
VERTEX
  5
77D6
  8
0
 10
-6.7523448580999998
 20
4.3984184427999997
 30
0.0
  0
VERTEX
  5
77D7
  8
0
 10
-6.7509791755999986
 20
4.3980435325000036
 30
0.0
  0
VERTEX
  5
77D8
  8
0
 10
-6.7496266638999991
 20
4.3976599542000008
 30
0.0
  0
VERTEX
  5
77D9
  8
0
 10
-6.7482966185999986
 20
4.3972698251000031
 30
0.0
  0
VERTEX
  5
77DA
  8
0
 10
-6.7469921143000011
 20
4.3968737889999971
 30
0.0
  0
VERTEX
  5
77DB
  8
0
 10
-6.7457100719999987
 20
4.3964712331000078
 30
0.0
  0
VERTEX
  5
77DC
  8
0
 10
-6.7444505566000004
 20
4.39606239350001
 30
0.0
  0
VERTEX
  5
77DD
  8
0
 10
-6.7432136915000012
 20
4.395647328199999
 30
0.0
  0
VERTEX
  5
77DE
  8
0
 10
-6.7419993492000003
 20
4.3952260068999962
 30
0.0
  0
VERTEX
  5
77DF
  8
0
 10
-6.7408072188999997
 20
4.3947985327999879
 30
0.0
  0
VERTEX
  5
77E0
  8
0
 10
-6.7396371658999987
 20
4.3943648722000068
 30
0.0
  0
VERTEX
  5
77E1
  8
0
 10
-6.7384893212000012
 20
4.3939250840000019
 30
0.0
  0
VERTEX
  5
77E2
  8
0
 10
-6.7373637716000001
 20
4.393479409500002
 30
0.0
  0
VERTEX
  5
77E3
  8
0
 10
-6.7362606089000003
 20
4.393027897200013
 30
0.0
  0
VERTEX
  5
77E4
  8
0
 10
-6.7351797377000011
 20
4.3925705217000006
 30
0.0
  0
VERTEX
  5
77E5
  8
0
 10
-6.7341209650999998
 20
4.3921074122999988
 30
0.0
  0
VERTEX
  5
77E6
  8
0
 10
-6.7330841710999989
 20
4.3916385230000037
 30
0.0
  0
VERTEX
  5
77E7
  8
0
 10
-6.7320694722000001
 20
4.3911639206000066
 30
0.0
  0
VERTEX
  5
77E8
  8
0
 10
-6.7310770298000007
 20
4.3906839035999994
 30
0.0
  0
VERTEX
  5
77E9
  8
0
 10
-6.7301071940000012
 20
4.390198676099998
 30
0.0
  0
VERTEX
  5
77EA
  8
0
 10
-6.7291596115000001
 20
4.3897080528000032
 30
0.0
  0
VERTEX
  5
77EB
  8
0
 10
-6.7282333880999987
 20
4.3892117471000063
 30
0.0
  0
VERTEX
  5
77EC
  8
0
 10
-6.7273262763999986
 20
4.3887083231999986
 30
0.0
  0
VERTEX
  5
77ED
  8
0
 10
-6.7264405208999998
 20
4.388199233299992
 30
0.0
  0
VERTEX
  5
77EE
  8
0
 10
-6.725581964799999
 20
4.3876885227999898
 30
0.0
  0
VERTEX
  5
77EF
  8
0
 10
-6.7247525551000011
 20
4.387177545100009
 30
0.0
  0
VERTEX
  5
77F0
  8
0
 10
-6.7239503421000011
 20
4.3866649612000037
 30
0.0
  0
VERTEX
  5
77F1
  8
0
 10
-6.7231753245999988
 20
4.3861507777999904
 30
0.0
  0
SEQEND
  5
77F2
  8
0
  0
POLYLINE
  5
67F
  8
0
 66
     1
 10
0.0
 20
0.0
 30
0.0
  0
VERTEX
  5
77F3
  8
0
 10
-6.7790370178000012
 20
4.4046517404000047
 30
0.0
  0
VERTEX
  5
77F4
  8
0
 10
-6.7779746368000007
 20
4.4043964164000036
 30
0.0
  0
VERTEX
  5
77F5
  8
0
 10
-6.7757775936999991
 20
4.4038782989999978
 30
0.0
  0
SEQEND
  5
77F6
  8
0
  0
POLYLINE
  5
680
  8
0
 66
     1
 10
0.0
 20
0.0
 30
0.0
  0
VERTEX
  5
77F7
  8
0
 10
3.5348823617000011
 20
-2.2233727705000059
 30
0.0
  0
VERTEX
  5
77F8
  8
0
 10
3.5316715207999989
 20
-2.2051562211999922
 30
0.0
  0
VERTEX
  5
77F9
  8
0
 10
3.5287228921000011
 20
-2.1866676339
 30
0.0
  0
VERTEX
  5
77FA
  8
0
 10
3.5260363402999988
 20
-2.167905055500007
 30
0.0
  0
VERTEX
  5
77FB
  8
0
 10
3.5235852660999991
 20
-2.1488645185999919
 30
0.0
  0
VERTEX
  5
77FC
  8
0
 10
3.521396023599999
 20
-2.1295457255000079
 30
0.0
  0
VERTEX
  5
77FD
  8
0
 10
3.5195480701999999
 20
-2.109950888900002
 30
0.0
  0
VERTEX
  5
77FE
  8
0
 10
3.5180344492999991
 20
-2.090067975299994
 30
0.0
  0
VERTEX
  5
77FF
  8
0
 10
3.5168622769000009
 20
-2.0699011106
 30
0.0
  0
VERTEX
  5
7800
  8
0
 10
3.5161325254999989
 20
-2.0494737351000079
 30
0.0
  0
VERTEX
  5
7801
  8
0
 10
3.5158792253999991
 20
-2.0287886002000022
 30
0.0
  0
VERTEX
  5
7802
  8
0
 10
3.5160692003
 20
-2.0078294871999982
 30
0.0
  0
VERTEX
  5
7803
  8
0
 10
3.5167028883999989
 20
-1.9865892513999981
 30
0.0
  0
SEQEND
  5
7804
  8
0
  0
POLYLINE
  5
682
  8
0
 66
     1
 10
0.0
 20
0.0
 30
0.0
  0
VERTEX
  5
7805
  8
0
 10
3.4571470292000011
 20
-2.2385315675999991
 30
0.0
  0
VERTEX
  5
7806
  8
0
 10
3.4547909706999991
 20
-2.2190132498999939
 30
0.0
  0
VERTEX
  5
7807
  8
0
 10
3.4527212217000001
 20
-2.199181524399989
 30
0.0
  0
VERTEX
  5
7808
  8
0
 10
3.450937061499999
 20
-2.1790363231999939
 30
0.0
  0
VERTEX
  5
7809
  8
0
 10
3.449409457699999
 20
-2.1585806167000068
 30
0.0
  0
VERTEX
  5
780A
  8
0
 10
3.448165863299999
 20
-2.1378114702999929
 30
0.0
  0
VERTEX
  5
780B
  8
0
 10
3.4472901645
 20
-2.1167199778999972
 30
0.0
  0
VERTEX
  5
780C
  8
0
 10
3.4467739106999988
 20
-2.0953007139999889
 30
0.0
  0
VERTEX
  5
780D
  8
0
 10
3.4466235212999989
 20
-2.073559391499991
 30
0.0
  0
VERTEX
  5
780E
  8
0
 10
3.446945002000001
 20
-2.0515038089000011
 30
0.0
  0
VERTEX
  5
780F
  8
0
 10
3.4477728144999999
 20
-2.0291367797999911
 30
0.0
  0
VERTEX
  5
7810
  8
0
 10
3.4490699179999988
 20
-2.006456202799995
 30
0.0
  0
VERTEX
  5
7811
  8
0
 10
3.4508348930999988
 20
-1.983462608099998
 30
0.0
  0
SEQEND
  5
7812
  8
0
  0
POLYLINE
  5
683
  8
0
 66
     1
 10
0.0
 20
0.0
 30
0.0
  0
VERTEX
  5
7813
  8
0
 10
3.4429750049000001
 20
1.985637652500003
 30
0.0
  0
VERTEX
  5
7814
  8
0
 10
3.4411110664999991
 20
2.008881251400005
 30
0.0
  0
VERTEX
  5
7815
  8
0
 10
3.439727369599999
 20
2.031789150900003
 30
0.0
  0
VERTEX
  5
7816
  8
0
 10
3.4388254155000002
 20
2.0543608118999961
 30
0.0
  0
VERTEX
  5
7817
  8
0
 10
3.4384440684999991
 20
2.0765940368999969
 30
0.0
  0
VERTEX
  5
7818
  8
0
 10
3.4385471900999991
 20
2.0984903184000032
 30
0.0
  0
VERTEX
  5
7819
  8
0
 10
3.439023570999999
 20
2.120054758199998
 30
0.0
  0
VERTEX
  5
781A
  8
0
 10
3.439866014100001
 20
2.1412856781999992
 30
0.0
  0
VERTEX
  5
781B
  8
0
 10
3.4410838036999989
 20
2.1621844823999998
 30
0.0
  0
VERTEX
  5
781C
  8
0
 10
3.4425902347999999
 20
2.1827608831999958
 30
0.0
  0
VERTEX
  5
781D
  8
0
 10
3.4443569273000012
 20
2.2030180897000089
 30
0.0
  0
VERTEX
  5
781E
  8
0
 10
3.4464138811999989
 20
2.2229528772999951
 30
0.0
  0
VERTEX
  5
781F
  8
0
 10
3.4487618349
 20
2.242565326899999
 30
0.0
  0
SEQEND
  5
7820
  8
0
  0
POLYLINE
  5
684
  8
0
 66
     1
 10
0.0
 20
0.0
 30
0.0
  0
VERTEX
  5
7821
  8
0
 10
3.5085818943999998
 20
1.9890124435000081
 30
0.0
  0
VERTEX
  5
7822
  8
0
 10
3.5078620937999978
 20
2.01048190489999
 30
0.0
  0
VERTEX
  5
7823
  8
0
 10
3.5075970378000001
 20
2.031649459
 30
0.0
  0
VERTEX
  5
7824
  8
0
 10
3.5077863150000002
 20
2.0525224194999998
 30
0.0
  0
VERTEX
  5
7825
  8
0
 10
3.5084646081999979
 20
2.0731132881000098
 30
0.0
  0
VERTEX
  5
7826
  8
0
 10
3.5095964460999989
 20
2.0934232743999952
 30
0.0
  0
VERTEX
  5
7827
  8
0
 10
3.5110764496
 20
2.113440541800002
 30
0.0
  0
VERTEX
  5
7828
  8
0
 10
3.5128969467000011
 20
2.1331645948000002
 30
0.0
  0
VERTEX
  5
7829
  8
0
 10
3.5150654905999992
 20
2.1526038586000018
 30
0.0
  0
VERTEX
  5
782A
  8
0
 10
3.5174999312999988
 20
2.171756787900001
 30
0.0
  0
VERTEX
  5
782B
  8
0
 10
3.5201730345
 20
2.1906238617000038
 30
0.0
  0
VERTEX
  5
782C
  8
0
 10
3.5231123314999979
 20
2.2092087693000049
 30
0.0
  0
VERTEX
  5
782D
  8
0
 10
3.5263179848999999
 20
2.227513405400003
 30
0.0
  0
SEQEND
  5
782E
  8
0
  0
POLYLINE
  5
68D
  8
0
 66
     1
 10
0.0
 20
0.0
 30
0.0
  0
VERTEX
  5
782F
  8
0
 10
3.5167028883999989
 20
-1.9865892513999981
 30
0.0
  0
VERTEX
  5
7830
  8
0
 10
3.5279760995
 20
-1.7208890408999971
 30
0.0
  0
VERTEX
  5
7831
  8
0
 10
3.537537739999999
 20
-1.4554146462999991
 30
0.0
  0
VERTEX
  5
7832
  8
0
 10
3.5453968903999988
 20
-1.1901579691999939
 30
0.0
  0
VERTEX
  5
7833
  8
0
 10
3.5515596233999989
 20
-0.9251420339000021
 30
0.0
  0
VERTEX
  5
7834
  8
0
 10
3.556035582799999
 20
-0.6603273385999913
 30
0.0
  0
VERTEX
  5
7835
  8
0
 10
3.5588359326999992
 20
-0.3956108670999967
 30
0.0
  0
VERTEX
  5
7836
  8
0
 10
3.5599655313999992
 20
-0.1309995092000094
 30
0.0
  0
VERTEX
  5
7837
  8
0
 10
3.5594255576
 20
0.1335329293999976
 30
0.0
  0
VERTEX
  5
7838
  8
0
 10
3.5572154955999991
 20
0.3981400144999938
 30
0.0
  0
VERTEX
  5
7839
  8
0
 10
3.5533341910999989
 20
0.6628472661000018
 30
0.0
  0
VERTEX
  5
783A
  8
0
 10
3.5477769157000001
 20
0.9276483414999958
 30
0.0
  0
VERTEX
  5
783B
  8
0
 10
3.5405316050999991
 20
1.192647832299996
 30
0.0
  0
VERTEX
  5
783C
  8
0
 10
3.5315883425000001
 20
1.4578855819000009
 30
0.0
  0
VERTEX
  5
783D
  8
0
 10
3.5209414418000011
 20
1.723337815799993
 30
0.0
  0
VERTEX
  5
783E
  8
0
 10
3.5085818943999998
 20
1.9890124435000081
 30
0.0
  0
SEQEND
  5
783F
  8
0
  0
POLYLINE
  5
68E
  8
0
 66
     1
 10
0.0
 20
0.0
 30
0.0
  0
VERTEX
  5
7840
  8
0
 10
3.4508348661999988
 20
-1.983462592900004
 30
0.0
  0
VERTEX
  5
7841
  8
0
 10
3.4631774205999988
 20
-1.7182801823999929
 30
0.0
  0
VERTEX
  5
7842
  8
0
 10
3.4736762180999992
 20
-1.4532622044999921
 30
0.0
  0
VERTEX
  5
7843
  8
0
 10
3.4823327427000001
 20
-1.188423291199995
 30
0.0
  0
VERTEX
  5
7844
  8
0
 10
3.4891485074999991
 20
-0.9238305179999954
 30
0.0
  0
VERTEX
  5
7845
  8
0
 10
3.4941273339999981
 20
-0.6594465295999968
 30
0.0
  0
VERTEX
  5
7846
  8
0
 10
3.4972715202999991
 20
-0.3951299084000084
 30
0.0
  0
VERTEX
  5
7847
  8
0
 10
3.4985810392000012
 20
-0.1309137406000005
 30
0.0
  0
VERTEX
  5
7848
  8
0
 10
3.4980581543000002
 20
0.1332036435999981
 30
0.0
  0
VERTEX
  5
7849
  8
0
 10
3.4957023906999991
 20
0.3974152835000097
 30
0.0
  0
VERTEX
  5
784A
  8
0
 10
3.4915115380999988
 20
0.6617223088000018
 30
0.0
  0
VERTEX
  5
784B
  8
0
 10
3.4854858397999999
 20
0.926092140200005
 30
0.0
  0
VERTEX
  5
784C
  8
0
 10
3.4776222463999988
 20
1.190667658199998
 30
0.0
  0
VERTEX
  5
784D
  8
0
 10
3.467916720399999
 20
1.455486656699996
 30
0.0
  0
VERTEX
  5
784E
  8
0
 10
3.4563681067000012
 20
1.7204815358000041
 30
0.0
  0
VERTEX
  5
784F
  8
0
 10
3.4429749833999992
 20
1.9856376402999909
 30
0.0
  0
SEQEND
  5
7850
  8
0
  0
POLYLINE
  5
6BE
  8
0
 66
     1
 10
0.0
 20
0.0
 30
0.0
  0
VERTEX
  5
7851
  8
0
 10
-6.8108316933999999
 20
4.6857101661000007
 30
0.0
  0
VERTEX
  5
7852
  8
0
 10
-6.4840068285000001
 20
4.7277339708000019
 30
0.0
  0
VERTEX
  5
7853
  8
0
 10
-6.167853924600001
 20
4.7722630686999921
 30
0.0
  0
VERTEX
  5
7854
  8
0
 10
-5.850624977999999
 20
4.8145776449999991
 30
0.0
  0
VERTEX
  5
7855
  8
0
 10
-5.5323342263000006
 20
4.854675507200013
 30
0.0
  0
VERTEX
  5
7856
  8
0
 10
-5.2130103897999991
 20
4.8925477610999968
 30
0.0
  0
VERTEX
  5
7857
  8
0
 10
-4.8926979247000011
 20
4.928180088800004
 30
0.0
  0
VERTEX
  5
7858
  8
0
 10
-4.571408088700001
 20
4.9615676890999927
 30
0.0
  0
VERTEX
  5
7859
  8
0
 10
-4.2491756818999997
 20
4.9927038813000024
 30
0.0
  0
VERTEX
  5
785A
  8
0
 10
-3.9260826299999989
 20
5.0215735369000001
 30
0.0
  0
VERTEX
  5
785B
  8
0
 10
-3.6021520252000001
 20
5.0481709017000043
 30
0.0
  0
VERTEX
  5
785C
  8
0
 10
-3.2774091922000008
 20
5.0724904242000051
 30
0.0
  0
VERTEX
  5
785D
  8
0
 10
-2.9519410898
 20
5.094520283599997
 30
0.0
  0
VERTEX
  5
785E
  8
0
 10
-2.6257463153999989
 20
5.1142573097000152
 30
0.0
  0
VERTEX
  5
785F
  8
0
 10
-2.2988765857000009
 20
5.1316949401000036
 30
0.0
  0
VERTEX
  5
7860
  8
0
 10
-1.9714997936000001
 20
5.1468203631999989
 30
0.0
  0
VERTEX
  5
7861
  8
0
 10
-1.6436276207000009
 20
5.1596306914999976
 30
0.0
  0
VERTEX
  5
7862
  8
0
 10
-1.315300155700001
 20
5.170121594900003
 30
0.0
  0
VERTEX
  5
7863
  8
0
 10
-0.9867287887999998
 20
5.1782841044999941
 30
0.0
  0
VERTEX
  5
7864
  8
0
 10
-0.658001647499999
 20
5.184115918199999
 30
0.0
  0
VERTEX
  5
7865
  8
0
 10
-0.3290832700999999
 20
5.1876170581000229
 30
0.0
  0
VERTEX
  5
7866
  8
0
 10
0.0
 20
5.1887849554000018
 30
0.0
  0
SEQEND
  5
7867
  8
0
  0
POLYLINE
  5
6BF
  8
0
 66
     1
 10
0.0
 20
0.0
 30
0.0
  0
VERTEX
  5
7868
  8
0
 10
-6.6481928660999996
 20
4.4927576082000007
 30
0.0
  0
VERTEX
  5
7869
  8
0
 10
-6.3398048528000004
 20
4.5366469985999984
 30
0.0
  0
VERTEX
  5
786A
  8
0
 10
-6.0304258978999998
 20
4.5785375238000006
 30
0.0
  0
VERTEX
  5
786B
  8
0
 10
-5.7200542692000003
 20
4.61840889239999
 30
0.0
  0
VERTEX
  5
786C
  8
0
 10
-5.4086567301999997
 20
4.6562348649
 30
0.0
  0
VERTEX
  5
786D
  8
0
 10
-5.0962646023999989
 20
4.6919997118000083
 30
0.0
  0
VERTEX
  5
786E
  8
0
 10
-4.7829683226000013
 20
4.7257005421000002
 30
0.0
  0
VERTEX
  5
786F
  8
0
 10
-4.4687439276000012
 20
4.7573205605000046
 30
0.0
  0
VERTEX
  5
7870
  8
0
 10
-4.153603295199999
 20
4.7868369214000088
 30
0.0
  0
VERTEX
  5
7871
  8
0
 10
-3.8376813877
 20
4.814242375200009
 30
0.0
  0
VERTEX
  5
7872
  8
0
 10
-3.5209595985000011
 20
4.839521475900014
 30
0.0
  0
VERTEX
  5
7873
  8
0
 10
-3.2034359461999991
 20
4.8626540394999997
 30
0.0
  0
VERTEX
  5
7874
  8
0
 10
-2.8852621872000008
 20
4.883632548999997
 30
0.0
  0
VERTEX
  5
7875
  8
0
 10
-2.5663932230000008
 20
4.9024466023999969
 30
0.0
  0
VERTEX
  5
7876
  8
0
 10
-2.246846507299999
 20
4.9190777762000053
 30
0.0
  0
VERTEX
  5
7877
  8
0
 10
-1.9268610378
 20
4.9335158123000014
 30
0.0
  0
VERTEX
  5
7878
  8
0
 10
-1.6064033079000011
 20
4.945753621700006
 30
0.0
  0
VERTEX
  5
7879
  8
0
 10
-1.2854735453999999
 20
4.955777986500002
 30
0.0
  0
VERTEX
  5
787A
  8
0
 10
-0.9643566612
 20
4.963581193399996
 30
0.0
  0
VERTEX
  5
787B
  8
0
 10
-0.6431346255000002
 20
4.9691604477000046
 30
0.0
  0
VERTEX
  5
787C
  8
0
 10
-0.3216884941
 20
4.9725102742000038
 30
0.0
  0
VERTEX
  5
787D
  8
0
 10
0.0
 20
4.973624906800004
 30
0.0
  0
SEQEND
  5
787E
  8
0
  0
POLYLINE
  5
6C5
  8
0
 66
     1
 10
0.0
 20
0.0
 30
0.0
  0
VERTEX
  5
787F
  8
0
 10
6.6481928661999978
 20
4.4927576082000007
 30
0.0
  0
VERTEX
  5
7880
  8
0
 10
6.3398048528000004
 20
4.5366469985999984
 30
0.0
  0
VERTEX
  5
7881
  8
0
 10
6.0304258978999981
 20
4.5785375238000006
 30
0.0
  0
VERTEX
  5
7882
  8
0
 10
5.7200542692000003
 20
4.61840889239999
 30
0.0
  0
VERTEX
  5
7883
  8
0
 10
5.4086567301999997
 20
4.6562348649
 30
0.0
  0
VERTEX
  5
7884
  8
0
 10
5.0962646023999989
 20
4.6919997118000083
 30
0.0
  0
VERTEX
  5
7885
  8
0
 10
4.7829683227000004
 20
4.7257005421000002
 30
0.0
  0
VERTEX
  5
7886
  8
0
 10
4.4687439277000003
 20
4.7573205605000046
 30
0.0
  0
VERTEX
  5
7887
  8
0
 10
4.153603295199999
 20
4.7868369214000088
 30
0.0
  0
VERTEX
  5
7888
  8
0
 10
3.8376813877
 20
4.814242375200009
 30
0.0
  0
VERTEX
  5
7889
  8
0
 10
3.5209595985999989
 20
4.839521475900014
 30
0.0
  0
VERTEX
  5
788A
  8
0
 10
3.2034359461999991
 20
4.8626540394999997
 30
0.0
  0
VERTEX
  5
788B
  8
0
 10
2.8852621872999999
 20
4.883632548999997
 30
0.0
  0
VERTEX
  5
788C
  8
0
 10
2.5663932231
 20
4.9024466023999969
 30
0.0
  0
VERTEX
  5
788D
  8
0
 10
2.2468465073999999
 20
4.9190777762000053
 30
0.0
  0
VERTEX
  5
788E
  8
0
 10
1.9268610378
 20
4.9335158123000014
 30
0.0
  0
VERTEX
  5
788F
  8
0
 10
1.6064033078999991
 20
4.945753621700006
 30
0.0
  0
VERTEX
  5
7890
  8
0
 10
1.2854735454999999
 20
4.955777986500002
 30
0.0
  0
VERTEX
  5
7891
  8
0
 10
0.9643566612
 20
4.963581193399996
 30
0.0
  0
VERTEX
  5
7892
  8
0
 10
0.6431346255000002
 20
4.9691604477000046
 30
0.0
  0
VERTEX
  5
7893
  8
0
 10
0.3216884942
 20
4.9725102742000038
 30
0.0
  0
VERTEX
  5
7894
  8
0
 10
0.0
 20
4.973624906800004
 30
0.0
  0
SEQEND
  5
7895
  8
0
  0
POLYLINE
  5
6C6
  8
0
 66
     1
 10
0.0
 20
0.0
 30
0.0
  0
VERTEX
  5
7896
  8
0
 10
6.7990622168000012
 20
4.6809951183000029
 30
0.0
  0
VERTEX
  5
7897
  8
0
 10
6.4840068285999983
 20
4.7277339708000019
 30
0.0
  0
VERTEX
  5
7898
  8
0
 10
6.167853924700001
 20
4.7722630686999921
 30
0.0
  0
VERTEX
  5
7899
  8
0
 10
5.850624978099999
 20
4.8145776449999991
 30
0.0
  0
VERTEX
  5
789A
  8
0
 10
5.5323342262999988
 20
4.854675507200013
 30
0.0
  0
VERTEX
  5
789B
  8
0
 10
5.2130103898
 20
4.8925477610999968
 30
0.0
  0
VERTEX
  5
789C
  8
0
 10
4.8926979247000002
 20
4.928180088800004
 30
0.0
  0
VERTEX
  5
789D
  8
0
 10
4.5714080887999984
 20
4.9615676890999927
 30
0.0
  0
VERTEX
  5
789E
  8
0
 10
4.2491756818999997
 20
4.9927038813000024
 30
0.0
  0
VERTEX
  5
789F
  8
0
 10
3.9260826300999989
 20
5.0215735369000001
 30
0.0
  0
VERTEX
  5
78A0
  8
0
 10
3.6021520252000001
 20
5.0481709017000043
 30
0.0
  0
VERTEX
  5
78A1
  8
0
 10
3.2774091921999999
 20
5.0724904242000051
 30
0.0
  0
VERTEX
  5
78A2
  8
0
 10
2.9519410899
 20
5.094520283599997
 30
0.0
  0
VERTEX
  5
78A3
  8
0
 10
2.625746315499998
 20
5.1142573097000152
 30
0.0
  0
VERTEX
  5
78A4
  8
0
 10
2.2988765856999982
 20
5.1316949401000036
 30
0.0
  0
VERTEX
  5
78A5
  8
0
 10
1.9714997936999989
 20
5.1468203631999989
 30
0.0
  0
VERTEX
  5
78A6
  8
0
 10
1.6436276207
 20
5.1596306914999976
 30
0.0
  0
VERTEX
  5
78A7
  8
0
 10
1.315300155799999
 20
5.170121594900003
 30
0.0
  0
VERTEX
  5
78A8
  8
0
 10
0.9867287888000007
 20
5.1782841044999941
 30
0.0
  0
VERTEX
  5
78A9
  8
0
 10
0.6580016475999991
 20
5.184115918199999
 30
0.0
  0
VERTEX
  5
78AA
  8
0
 10
0.3290832701999999
 20
5.1876170581000229
 30
0.0
  0
VERTEX
  5
78AB
  8
0
 10
0.0
 20
5.1887849554000018
 30
0.0
  0
SEQEND
  5
78AC
  8
0
  0
POLYLINE
  5
6C7
  8
0
 66
     1
 10
0.0
 20
0.0
 30
0.0
  0
VERTEX
  5
78AD
  8
0
 10
0.0
 20
5.8568429127999897
 30
0.0
  0
VERTEX
  5
78AE
  8
0
 10
-0.8757001245999997
 20
5.8561030477000102
 30
0.0
  0
VERTEX
  5
78AF
  8
0
 10
-1.754043209999999
 20
5.8538751518999979
 30
0.0
  0
VERTEX
  5
78B0
  8
0
 10
-2.635092235400001
 20
5.8501621560000103
 30
0.0
  0
VERTEX
  5
78B1
  8
0
 10
-3.517840775699999
 20
5.8449886675000036
 30
0.0
  0
VERTEX
  5
78B2
  8
0
 10
-4.4034252251000012
 20
5.8383742736000031
 30
0.0
  0
VERTEX
  5
78B3
  8
0
 10
-5.2951216608000014
 20
5.8303131169000011
 30
0.0
  0
VERTEX
  5
78B4
  8
0
 10
-6.1940656774000002
 20
5.8208194255000052
 30
0.0
  0
VERTEX
  5
78B5
  8
0
 10
-7.0992563013999996
 20
5.8099483089000037
 30
0.0
  0
VERTEX
  5
78B6
  8
0
 10
-8.0107658202999996
 20
5.7977546993000066
 30
0.0
  0
SEQEND
  5
78B7
  8
0
  0
POLYLINE
  5
6CB
  8
0
 66
     1
 10
0.0
 20
0.0
 30
0.0
  0
VERTEX
  5
78B8
  8
0
 10
0.0
 20
6.485623918699992
 30
0.0
  0
VERTEX
  5
78B9
  8
0
 10
-0.9598639512
 20
6.4848565287999937
 30
0.0
  0
VERTEX
  5
78BA
  8
0
 10
-1.919718017200001
 20
6.482554539799998
 30
0.0
  0
VERTEX
  5
78BB
  8
0
 10
-2.8795621979000008
 20
6.4787179518000073
 30
0.0
  0
VERTEX
  5
78BC
  8
0
 10
-3.8393972644000001
 20
6.4733467587000026
 30
0.0
  0
VERTEX
  5
78BD
  8
0
 10
-4.799222445599999
 20
6.4664409665000022
 30
0.0
  0
VERTEX
  5
78BE
  8
0
 10
-5.7590354283999998
 20
6.4580005931999969
 30
0.0
  0
VERTEX
  5
78BF
  8
0
 10
-6.7188354416999987
 20
6.4480256448999924
 30
0.0
  0
VERTEX
  5
78C0
  8
0
 10
-7.678623256499999
 20
6.4365161154000026
 30
0.0
  0
VERTEX
  5
78C1
  8
0
 10
-8.6383988728999999
 20
6.4234720047999971
 30
0.0
  0
SEQEND
  5
78C2
  8
0
  0
POLYLINE
  5
6CF
  8
0
 66
     1
 10
0.0
 20
0.0
 30
0.0
  0
VERTEX
  5
78C3
  8
0
 10
0.0
 20
5.8568429127999897
 30
0.0
  0
VERTEX
  5
78C4
  8
0
 10
0.875700124599998
 20
5.8561030477000102
 30
0.0
  0
VERTEX
  5
78C5
  8
0
 10
1.7540432100000001
 20
5.8538751518999979
 30
0.0
  0
VERTEX
  5
78C6
  8
0
 10
2.6350922355000002
 20
5.8501621560000103
 30
0.0
  0
VERTEX
  5
78C7
  8
0
 10
3.517840775799999
 20
5.8449886675000036
 30
0.0
  0
VERTEX
  5
78C8
  8
0
 10
4.4034252251999986
 20
5.8383742736000031
 30
0.0
  0
VERTEX
  5
78C9
  8
0
 10
5.2951216607999987
 20
5.8303131169000011
 30
0.0
  0
VERTEX
  5
78CA
  8
0
 10
6.1940656774999994
 20
5.8208194255000052
 30
0.0
  0
VERTEX
  5
78CB
  8
0
 10
7.0992563014999979
 20
5.8099483089000037
 30
0.0
  0
VERTEX
  5
78CC
  8
0
 10
8.0107658203999996
 20
5.7977546993000066
 30
0.0
  0
SEQEND
  5
78CD
  8
0
  0
POLYLINE
  5
6D1
  8
0
 66
     1
 10
0.0
 20
0.0
 30
0.0
  0
VERTEX
  5
78CE
  8
0
 10
0.0
 20
6.485623918699992
 30
0.0
  0
VERTEX
  5
78CF
  8
0
 10
0.9598639513000009
 20
6.4848565287999937
 30
0.0
  0
VERTEX
  5
78D0
  8
0
 10
1.919718017200001
 20
6.482554539799998
 30
0.0
  0
VERTEX
  5
78D1
  8
0
 10
2.8795621978999999
 20
6.4787179518000073
 30
0.0
  0
VERTEX
  5
78D2
  8
0
 10
3.8393972644000001
 20
6.4733467587000026
 30
0.0
  0
VERTEX
  5
78D3
  8
0
 10
4.799222445699999
 20
6.4664409665000022
 30
0.0
  0
VERTEX
  5
78D4
  8
0
 10
5.759035428399998
 20
6.4580005931999969
 30
0.0
  0
VERTEX
  5
78D5
  8
0
 10
6.7188354417000014
 20
6.4480256448999924
 30
0.0
  0
VERTEX
  5
78D6
  8
0
 10
7.6786232565999981
 20
6.4365161154000026
 30
0.0
  0
VERTEX
  5
78D7
  8
0
 10
8.6383988729999999
 20
6.4234720047999971
 30
0.0
  0
SEQEND
  5
78D8
  8
0
  0
POLYLINE
  5
6D4
  8
0
 66
     1
 10
0.0
 20
0.0
 30
0.0
  0
VERTEX
  5
78D9
  8
0
 10
6.8113545996999987
 20
4.6860441729000044
 30
0.0
  0
VERTEX
  5
78DA
  8
0
 10
6.820342482
 20
4.6831368059000047
 30
0.0
  0
VERTEX
  5
78DB
  8
0
 10
6.8292867620999997
 20
4.6798775893000046
 30
0.0
  0
VERTEX
  5
78DC
  8
0
 10
6.8381726982999993
 20
4.6762718937000036
 30
0.0
  0
VERTEX
  5
78DD
  8
0
 10
6.8469856432
 20
4.672325659800002
 30
0.0
  0
VERTEX
  5
78DE
  8
0
 10
6.8557110729000001
 20
4.6680453913000051
 30
0.0
  0
VERTEX
  5
78DF
  8
0
 10
6.8643346118000004
 20
4.663438144899998
 30
0.0
  0
VERTEX
  5
78E0
  8
0
 10
6.8728420489999991
 20
4.6585115143999971
 30
0.0
  0
VERTEX
  5
78E1
  8
0
 10
6.8812193628999987
 20
4.6532736182000027
 30
0.0
  0
VERTEX
  5
78E2
  8
0
 10
6.8894527496000002
 20
4.6477330898999929
 30
0.0
  0
VERTEX
  5
78E3
  8
0
 10
6.8975286408999992
 20
4.641899060799993
 30
0.0
  0
VERTEX
  5
78E4
  8
0
 10
6.9054337270000001
 20
4.635781145400002
 30
0.0
  0
VERTEX
  5
78E5
  8
0
 10
6.913154980899999
 20
4.6293894269999987
 30
0.0
  0
VERTEX
  5
78E6
  8
0
 10
6.920679677899999
 20
4.6227344397999977
 30
0.0
  0
VERTEX
  5
78E7
  8
0
 10
6.9279954170999991
 20
4.6158271513000031
 30
0.0
  0
VERTEX
  5
78E8
  8
0
 10
6.9350901422999991
 20
4.6086789451000021
 30
0.0
  0
VERTEX
  5
78E9
  8
0
 10
6.9419521611999988
 20
4.6013016017000012
 30
0.0
  0
VERTEX
  5
78EA
  8
0
 10
6.9485701649999987
 20
4.5937072794000002
 30
0.0
  0
VERTEX
  5
78EB
  8
0
 10
6.9549332467000013
 20
4.585908493100006
 30
0.0
  0
VERTEX
  5
78EC
  8
0
 10
6.9610309196999998
 20
4.5779180956000038
 30
0.0
  0
VERTEX
  5
78ED
  8
0
 10
6.9668531347
 20
4.5697492553000032
 30
0.0
  0
VERTEX
  5
78EE
  8
0
 10
6.9723902956000003
 20
4.5614154339000086
 30
0.0
  0
VERTEX
  5
78EF
  8
0
 10
6.9776332766999998
 20
4.5529303659000027
 30
0.0
  0
VERTEX
  5
78F0
  8
0
 10
6.982573437400001
 20
4.5443080348999976
 30
0.0
  0
VERTEX
  5
78F1
  8
0
 10
6.9872026349
 20
4.5355626485000036
 30
0.0
  0
VERTEX
  5
78F2
  8
0
 10
6.9915132400999989
 20
4.526708619499991
 30
0.0
  0
VERTEX
  5
78F3
  8
0
 10
6.9954981486999994
 20
4.5177605396000038
 30
0.0
  0
VERTEX
  5
78F4
  8
0
 10
6.999150791099999
 20
4.5087331538000006
 30
0.0
  0
VERTEX
  5
78F5
  8
0
 10
7.0024651469999997
 20
4.4996413389000054
 30
0.0
  0
VERTEX
  5
78F6
  8
0
 10
7.0054357547999997
 20
4.4905000794000003
 30
0.0
  0
VERTEX
  5
78F7
  8
0
 10
7.0080577188999982
 20
4.4813244402999919
 30
0.0
  0
SEQEND
  5
78F8
  8
0
  0
POLYLINE
  5
6D5
  8
0
 66
     1
 10
0.0
 20
0.0
 30
0.0
  0
VERTEX
  5
78F9
  8
0
 10
6.7877282316000001
 20
-4.3076658922999931
 30
0.0
  0
VERTEX
  5
78FA
  8
0
 10
6.8188000694999991
 20
-4.0218043819000044
 30
0.0
  0
VERTEX
  5
78FB
  8
0
 10
6.8477918859999987
 20
-3.7350649130000022
 30
0.0
  0
VERTEX
  5
78FC
  8
0
 10
6.8746874911999987
 20
-3.4474465463000001
 30
0.0
  0
VERTEX
  5
78FD
  8
0
 10
6.8994689826000002
 20
-3.1588797196999958
 30
0.0
  0
VERTEX
  5
78FE
  8
0
 10
6.9221192261999986
 20
-2.8694330524000051
 30
0.0
  0
VERTEX
  5
78FF
  8
0
 10
6.9426276023999991
 20
-2.579310705999994
 30
0.0
  0
VERTEX
  5
7900
  8
0
 10
6.960983649400001
 20
-2.2884982850999971
 30
0.0
  0
VERTEX
  5
7901
  8
0
 10
6.9771708803999992
 20
-1.997004522900006
 30
0.0
  0
VERTEX
  5
7902
  8
0
 10
6.9911798929999991
 20
-1.7050642740999959
 30
0.0
  0
VERTEX
  5
7903
  8
0
 10
7.0030047797000012
 20
-1.4126525968000001
 30
0.0
  0
VERTEX
  5
7904
  8
0
 10
7.0126326117
 20
-1.1197856797999881
 30
0.0
  0
VERTEX
  5
7905
  8
0
 10
7.0200558564999991
 20
-0.8267573852999846
 30
0.0
  0
VERTEX
  5
7906
  8
0
 10
7.0252732358000003
 20
-0.5335847955999995
 30
0.0
  0
VERTEX
  5
7907
  8
0
 10
7.0282788461999992
 20
-0.2402402518000031
 30
0.0
  0
VERTEX
  5
7908
  8
0
 10
7.0290703543999991
 20
0.0530506960000068
 30
0.0
  0
VERTEX
  5
7909
  8
0
 10
7.0276510333999989
 20
0.3462919613000039
 30
0.0
  0
VERTEX
  5
790A
  8
0
 10
7.0240201825999993
 20
0.6394906275999972
 30
0.0
  0
VERTEX
  5
790B
  8
0
 10
7.0181798398000002
 20
0.9324254920000001
 30
0.0
  0
VERTEX
  5
790C
  8
0
 10
7.010138197999999
 20
1.225121130800005
 30
0.0
  0
VERTEX
  5
790D
  8
0
 10
6.9998990072999989
 20
1.5175628181999981
 30
0.0
  0
VERTEX
  5
790E
  8
0
 10
6.9874693684999993
 20
1.8094684089999971
 30
0.0
  0
VERTEX
  5
790F
  8
0
 10
6.9728643881999988
 20
2.1008177884000072
 30
0.0
  0
VERTEX
  5
7910
  8
0
 10
6.9560920298999998
 20
2.3916384256000072
 30
0.0
  0
VERTEX
  5
7911
  8
0
 10
6.9371602617999999
 20
2.6817161596000001
 30
0.0
  0
VERTEX
  5
7912
  8
0
 10
6.9160873288999971
 20
2.9710373322000052
 30
0.0
  0
VERTEX
  5
7913
  8
0
 10
6.8928852424000002
 20
3.2596193066000012
 30
0.0
  0
VERTEX
  5
7914
  8
0
 10
6.8675615571000002
 20
3.5472898714999981
 30
0.0
  0
VERTEX
  5
7915
  8
0
 10
6.8401326181000002
 20
3.8339901427999972
 30
0.0
  0
VERTEX
  5
7916
  8
0
 10
6.8106187257999986
 20
4.1197775073000003
 30
0.0
  0
VERTEX
  5
7917
  8
0
 10
6.7790370179000004
 20
4.4046517404000047
 30
0.0
  0
SEQEND
  5
7918
  8
0
  0
POLYLINE
  5
6D6
  8
0
 66
     1
 10
0.0
 20
0.0
 30
0.0
  0
VERTEX
  5
7919
  8
0
 10
7.0196774345000001
 20
-4.3752311848999952
 30
0.0
  0
VERTEX
  5
791A
  8
0
 10
7.0529680256000002
 20
-4.084833140699998
 30
0.0
  0
VERTEX
  5
791B
  8
0
 10
7.0839824569000012
 20
-3.7934576817000041
 30
0.0
  0
VERTEX
  5
791C
  8
0
 10
7.1127169915999993
 20
-3.5011322224000021
 30
0.0
  0
VERTEX
  5
791D
  8
0
 10
7.1391730033999989
 20
-3.2078437810999949
 30
0.0
  0
VERTEX
  5
791E
  8
0
 10
7.1633386763999978
 20
-2.9136602161999932
 30
0.0
  0
VERTEX
  5
791F
  8
0
 10
7.1851926755000006
 20
-2.618731847599995
 30
0.0
  0
VERTEX
  5
7920
  8
0
 10
7.2047313330000007
 20
-2.3230789340999962
 30
0.0
  0
VERTEX
  5
7921
  8
0
 10
7.221950324699999
 20
-2.0267401004999992
 30
0.0
  0
VERTEX
  5
7922
  8
0
 10
7.2368330610999996
 20
-1.729895874399993
 30
0.0
  0
VERTEX
  5
7923
  8
0
 10
7.2493770905000012
 20
-1.4325593008999951
 30
0.0
  0
VERTEX
  5
7924
  8
0
 10
7.2595787634000004
 20
-1.1347788386999931
 30
0.0
  0
VERTEX
  5
7925
  8
0
 10
7.2674267734999978
 20
-0.8367899459000086
 30
0.0
  0
VERTEX
  5
7926
  8
0
 10
7.2729196183999987
 20
-0.5386480895999953
 30
0.0
  0
VERTEX
  5
7927
  8
0
 10
7.2760571387999979
 20
-0.2403608850999959
 30
0.0
  0
VERTEX
  5
7928
  8
0
 10
7.2768364145999982
 20
0.0579071672000069
 30
0.0
  0
VERTEX
  5
7929
  8
0
 10
7.2752568312000001
 20
0.3561232686999958
 30
0.0
  0
VERTEX
  5
792A
  8
0
 10
7.2713195830000004
 20
0.6542568507000013
 30
0.0
  0
VERTEX
  5
792B
  8
0
 10
7.2650290472999997
 20
0.9521468986999934
 30
0.0
  0
VERTEX
  5
792C
  8
0
 10
7.256385884700002
 20
1.249783875400005
 30
0.0
  0
VERTEX
  5
792D
  8
0
 10
7.2453921562999994
 20
1.547114596400007
 30
0.0
  0
VERTEX
  5
792E
  8
0
 10
7.2320605008999896
 20
1.8439136848
 30
0.0
  0
VERTEX
  5
792F
  8
0
 10
7.2163951291000004
 20
2.1401300561999999
 30
0.0
  0
VERTEX
  5
7930
  8
0
 10
7.1983987695999998
 20
2.4357540075000008
 30
0.0
  0
VERTEX
  5
7931
  8
0
 10
7.1780884517000016
 20
2.7306243129000052
 30
0.0
  0
VERTEX
  5
7932
  8
0
 10
7.1554687222000011
 20
3.024699747500001
 30
0.0
  0
VERTEX
  5
7933
  8
0
 10
7.1305433569000023
 20
3.3179636402000048
 30
0.0
  0
VERTEX
  5
7934
  8
0
 10
7.1033331981999988
 20
3.6102945268000042
 30
0.0
  0
VERTEX
  5
7935
  8
0
 10
7.0738495473
 20
3.9016346663000041
 30
0.0
  0
VERTEX
  5
7936
  8
0
 10
7.0420910249999986
 20
4.1919882548000009
 30
0.0
  0
VERTEX
  5
7937
  8
0
 10
7.0080612310999992
 20
4.4813285219999912
 30
0.0
  0
SEQEND
  5
7938
  8
0
  0
POLYLINE
  5
6DF
  8
0
 66
     1
 10
0.0
 20
0.0
 30
0.0
  0
VERTEX
  5
7939
  8
0
 10
-8.0107658293000004
 20
5.7977546135999978
 30
0.0
  0
VERTEX
  5
793A
  8
0
 10
-8.0201999523000005
 20
5.7963550504000017
 30
0.0
  0
VERTEX
  5
793B
  8
0
 10
-8.029612599
 20
5.7945766447999949
 30
0.0
  0
VERTEX
  5
793C
  8
0
 10
-8.0389888908000007
 20
5.7924240617000029
 30
0.0
  0
VERTEX
  5
793D
  8
0
 10
-8.0483137830999993
 20
5.7899020147000044
 30
0.0
  0
VERTEX
  5
793E
  8
0
 10
-8.0575725700999996
 20
5.7870151322000041
 30
0.0
  0
VERTEX
  5
793F
  8
0
 10
-8.0667508720000001
 20
5.7837678922000029
 30
0.0
  0
VERTEX
  5
7940
  8
0
 10
-8.0758341034000001
 20
5.7801647730000019
 30
0.0
  0
VERTEX
  5
7941
  8
0
 10
-8.0848070591999992
 20
5.7762104855000009
 30
0.0
  0
VERTEX
  5
7942
  8
0
 10
-8.0936544300000008
 20
5.7719098479000053
 30
0.0
  0
VERTEX
  5
7943
  8
0
 10
-8.1023616221000001
 20
5.767268351700003
 30
0.0
  0
VERTEX
  5
7944
  8
0
 10
-8.1109154136000008
 20
5.7622947046000021
 30
0.0
  0
VERTEX
  5
7945
  8
0
 10
-8.1193025866999982
 20
5.7569986310000081
 30
0.0
  0
VERTEX
  5
7946
  8
0
 10
-8.1275099343000008
 20
5.7513899075000046
 30
0.0
  0
VERTEX
  5
7947
  8
0
 10
-8.1355248494999994
 20
5.7454779160000049
 30
0.0
  0
VERTEX
  5
7948
  8
0
 10
-8.1433349911999997
 20
5.7392717533000024
 30
0.0
  0
VERTEX
  5
7949
  8
0
 10
-8.1509276710999998
 20
5.732780683599997
 30
0.0
  0
VERTEX
  5
794A
  8
0
 10
-8.1582896491000003
 20
5.7260144253999954
 30
0.0
  0
VERTEX
  5
794B
  8
0
 10
-8.1654077332000004
 20
5.7189827202999899
 30
0.0
  0
VERTEX
  5
794C
  8
0
 10
-8.1722695992999999
 20
5.7116957114000044
 30
0.0
  0
VERTEX
  5
794D
  8
0
 10
-8.1788653778999993
 20
5.7041659870000032
 30
0.0
  0
VERTEX
  5
794E
  8
0
 10
-8.1851856082999994
 20
5.6964070072000084
 30
0.0
  0
VERTEX
  5
794F
  8
0
 10
-8.1912208534000008
 20
5.6884322797000024
 30
0.0
  0
VERTEX
  5
7950
  8
0
 10
-8.1969621184000001
 20
5.6802547490999942
 30
0.0
  0
VERTEX
  5
7951
  8
0
 10
-8.2024005692999982
 20
5.6718870068000049
 30
0.0
  0
VERTEX
  5
7952
  8
0
 10
-8.2075270933999995
 20
5.6633419167000048
 30
0.0
  0
VERTEX
  5
7953
  8
0
 10
-8.2123321959000002
 20
5.6546329542000029
 30
0.0
  0
VERTEX
  5
7954
  8
0
 10
-8.2168064336000004
 20
5.645773605100004
 30
0.0
  0
VERTEX
  5
7955
  8
0
 10
-8.2209413697000002
 20
5.6367773452000094
 30
0.0
  0
VERTEX
  5
7956
  8
0
 10
-8.2247317694999982
 20
5.6276589915999997
 30
0.0
  0
VERTEX
  5
7957
  8
0
 10
-8.2281730749000008
 20
5.618434075600006
 30
0.0
  0
VERTEX
  5
7958
  8
0
 10
-8.2312608321000003
 20
5.609118022100005
 30
0.0
  0
VERTEX
  5
7959
  8
0
 10
-8.2339908094999998
 20
5.5997256253000032
 30
0.0
  0
VERTEX
  5
795A
  8
0
 10
-8.2363587729999992
 20
5.5902714691000019
 30
0.0
  0
VERTEX
  5
795B
  8
0
 10
-8.2383603438000002
 20
5.5807704708000037
 30
0.0
  0
VERTEX
  5
795C
  8
0
 10
-8.2399910628999997
 20
5.5712378937000011
 30
0.0
  0
VERTEX
  5
795D
  8
0
 10
-8.2412465175000005
 20
5.5616888313000032
 30
0.0
  0
SEQEND
  5
795E
  8
0
  0
POLYLINE
  5
6E0
  8
0
 66
     1
 10
0.0
 20
0.0
 30
0.0
  0
VERTEX
  5
795F
  8
0
 10
-8.6383988728999999
 20
6.4234720047999971
 30
0.0
  0
VERTEX
  5
7960
  8
0
 10
-8.6500920949999998
 20
6.4230931767000072
 30
0.0
  0
VERTEX
  5
7961
  8
0
 10
-8.6614088905000006
 20
6.422395321099998
 30
0.0
  0
VERTEX
  5
7962
  8
0
 10
-8.6723492593000007
 20
6.4213784380000041
 30
0.0
  0
VERTEX
  5
7963
  8
0
 10
-8.6829200551000003
 20
6.420023029099994
 30
0.0
  0
VERTEX
  5
7964
  8
0
 10
-8.6931144241999991
 20
6.418348592800001
 30
0.0
  0
VERTEX
  5
7965
  8
0
 10
-8.7029118056999994
 20
6.4164136237000022
 30
0.0
  0
VERTEX
  5
7966
  8
0
 10
-8.7122974125999981
 20
6.4142193989000091
 30
0.0
  0
VERTEX
  5
7967
  8
0
 10
-8.7212860319000001
 20
6.411764641400004
 30
0.0
  0
VERTEX
  5
7968
  8
0
 10
-8.7299014634999992
 20
6.409104015500005
 30
0.0
  0
VERTEX
  5
7969
  8
0
 10
-8.7381362782000007
 20
6.4062425132999996
 30
0.0
  0
VERTEX
  5
796A
  8
0
 10
-8.7459979051999994
 20
6.4031751428000021
 30
0.0
  0
VERTEX
  5
796B
  8
0
 10
-8.7535324326000001
 20
6.399941591500002
 30
0.0
  0
VERTEX
  5
796C
  8
0
 10
-8.7607367654000008
 20
6.3965488412000013
 30
0.0
  0
VERTEX
  5
796D
  8
0
 10
-8.7676139986999981
 20
6.392989910200007
 30
0.0
  0
VERTEX
  5
796E
  8
0
 10
-8.7742195050999996
 20
6.3892835402999921
 30
0.0
  0
VERTEX
  5
796F
  8
0
 10
-8.7805547307000005
 20
6.385436305500007
 30
0.0
  0
VERTEX
  5
7970
  8
0
 10
-8.7866182295000002
 20
6.3814416318000076
 30
0.0
  0
VERTEX
  5
7971
  8
0
 10
-8.7924610366000007
 20
6.3772985391000034
 30
0.0
  0
VERTEX
  5
7972
  8
0
 10
-8.7980886302000005
 20
6.3730105718999956
 30
0.0
  0
VERTEX
  5
7973
  8
0
 10
-8.8034955319999995
 20
6.3685741856999982
 30
0.0
  0
VERTEX
  5
7974
  8
0
 10
-8.8087163423000003
 20
6.363977766400005
 30
0.0
  0
VERTEX
  5
7975
  8
0
 10
-8.8137549255999996
 20
6.3592251335999981
 30
0.0
  0
VERTEX
  5
7976
  8
0
 10
-8.8186074173000009
 20
6.3543124677999918
 30
0.0
  0
VERTEX
  5
7977
  8
0
 10
-8.8232968247999999
 20
6.3492166958000018
 30
0.0
  0
VERTEX
  5
7978
  8
0
 10
-8.8278272109000007
 20
6.3439412852999899
 30
0.0
  0
VERTEX
  5
7979
  8
0
 10
-8.8321945127999992
 20
6.3384827686000023
 30
0.0
  0
VERTEX
  5
797A
  8
0
 10
-8.8364095482000007
 20
6.332807670100002
 30
0.0
  0
VERTEX
  5
797B
  8
0
 10
-8.8404754762999982
 20
6.3269220247999982
 30
0.0
  0
VERTEX
  5
797C
  8
0
 10
-8.8443891379000004
 20
6.3208197976000022
 30
0.0
  0
VERTEX
  5
797D
  8
0
 10
-8.8481518743999992
 20
6.3144494074999917
 30
0.0
  0
VERTEX
  5
797E
  8
0
 10
-8.8517700305000009
 20
6.3078134316000032
 30
0.0
  0
VERTEX
  5
797F
  8
0
 10
-8.8552372614999992
 20
6.3009092926000028
 30
0.0
  0
VERTEX
  5
7980
  8
0
 10
-8.8585358734999993
 20
6.2936776785000026
 30
0.0
  0
VERTEX
  5
7981
  8
0
 10
-8.8616733442999998
 20
6.2861159770000006
 30
0.0
  0
VERTEX
  5
7982
  8
0
 10
-8.8646421963000002
 20
6.278226800299989
 30
0.0
  0
VERTEX
  5
7983
  8
0
 10
-8.8674023024000004
 20
6.2699586718999987
 30
0.0
  0
VERTEX
  5
7984
  8
0
 10
-8.8699593236999998
 20
6.2613042924999931
 30
0.0
  0
VERTEX
  5
7985
  8
0
 10
-8.8723075991000009
 20
6.2522709614000069
 30
0.0
  0
VERTEX
  5
7986
  8
0
 10
-8.8743900187999998
 20
6.2428291010000052
 30
0.0
  0
VERTEX
  5
7987
  8
0
 10
-8.8762084138000006
 20
6.2329635219999906
 30
0.0
  0
VERTEX
  5
7988
  8
0
 10
-8.8777609529999992
 20
6.2226894136000013
 30
0.0
  0
VERTEX
  5
7989
  8
0
 10
-8.8789850333999993
 20
6.2120227661999996
 30
0.0
  0
VERTEX
  5
798A
  8
0
 10
-8.8798597872999991
 20
6.2009689098999976
 30
0.0
  0
VERTEX
  5
798B
  8
0
 10
-8.8804060824000004
 20
6.1895225144999912
 30
0.0
  0
VERTEX
  5
798C
  8
0
 10
-8.8806239186999996
 20
6.1776835801000161
 30
0.0
  0
SEQEND
  5
798D
  8
0
  0
POLYLINE
  5
6E3
  8
0
 66
     1
 10
0.0
 20
0.0
 30
0.0
  0
VERTEX
  5
798E
  8
0
 10
8.6383988729999999
 20
6.4234720047999971
 30
0.0
  0
VERTEX
  5
798F
  8
0
 10
8.6500920950999998
 20
6.4230931767000072
 30
0.0
  0
VERTEX
  5
7990
  8
0
 10
8.6614088904999988
 20
6.422395321099998
 30
0.0
  0
VERTEX
  5
7991
  8
0
 10
8.6723492593000024
 20
6.4213784380000041
 30
0.0
  0
VERTEX
  5
7992
  8
0
 10
8.6829200550999985
 20
6.420023029099994
 30
0.0
  0
VERTEX
  5
7993
  8
0
 10
8.6931144241999991
 20
6.418348592800001
 30
0.0
  0
VERTEX
  5
7994
  8
0
 10
8.7029118057000012
 20
6.4164136237000022
 30
0.0
  0
VERTEX
  5
7995
  8
0
 10
8.7122974125999946
 20
6.4142193989000091
 30
0.0
  0
VERTEX
  5
7996
  8
0
 10
8.7212860319000001
 20
6.411764641400004
 30
0.0
  0
VERTEX
  5
7997
  8
0
 10
8.7299014635999974
 20
6.409104015500005
 30
0.0
  0
VERTEX
  5
7998
  8
0
 10
8.7381362781999972
 20
6.4062425132999996
 30
0.0
  0
VERTEX
  5
7999
  8
0
 10
8.7459979053000012
 20
6.4031751428000021
 30
0.0
  0
VERTEX
  5
799A
  8
0
 10
8.7535324326000001
 20
6.399941591500002
 30
0.0
  0
VERTEX
  5
799B
  8
0
 10
8.760736765499999
 20
6.3965488412000013
 30
0.0
  0
VERTEX
  5
799C
  8
0
 10
8.7676139986999981
 20
6.392989910200007
 30
0.0
  0
VERTEX
  5
799D
  8
0
 10
8.7742195052000014
 20
6.3892835402999921
 30
0.0
  0
VERTEX
  5
799E
  8
0
 10
8.7805547307999987
 20
6.385436305500007
 30
0.0
  0
VERTEX
  5
799F
  8
0
 10
8.7866182296000002
 20
6.3814416318000076
 30
0.0
  0
VERTEX
  5
79A0
  8
0
 10
8.7924610366000024
 20
6.3772985391000034
 30
0.0
  0
VERTEX
  5
79A1
  8
0
 10
8.7980886301999988
 20
6.3730105718999956
 30
0.0
  0
VERTEX
  5
79A2
  8
0
 10
8.8034955319999995
 20
6.3685741856999982
 30
0.0
  0
VERTEX
  5
79A3
  8
0
 10
8.8087163424000003
 20
6.363977766400005
 30
0.0
  0
VERTEX
  5
79A4
  8
0
 10
8.8137549256000032
 20
6.3592251335999981
 30
0.0
  0
VERTEX
  5
79A5
  8
0
 10
8.8186074173999991
 20
6.3543124677999918
 30
0.0
  0
VERTEX
  5
79A6
  8
0
 10
8.8232968247999999
 20
6.3492166958000018
 30
0.0
  0
VERTEX
  5
79A7
  8
0
 10
8.8278272109999971
 20
6.3439412852999899
 30
0.0
  0
VERTEX
  5
79A8
  8
0
 10
8.832194512800001
 20
6.3384827686000023
 30
0.0
  0
VERTEX
  5
79A9
  8
0
 10
8.8364095483000007
 20
6.332807670100002
 30
0.0
  0
VERTEX
  5
79AA
  8
0
 10
8.8404754762999982
 20
6.3269220247999982
 30
0.0
  0
VERTEX
  5
79AB
  8
0
 10
8.8443891380000004
 20
6.3208197976000022
 30
0.0
  0
VERTEX
  5
79AC
  8
0
 10
8.8481518743999992
 20
6.3144494074999917
 30
0.0
  0
VERTEX
  5
79AD
  8
0
 10
8.8517700305999991
 20
6.3078134316000032
 30
0.0
  0
VERTEX
  5
79AE
  8
0
 10
8.8552372614999975
 20
6.3009092926000028
 30
0.0
  0
VERTEX
  5
79AF
  8
0
 10
8.8585358734999993
 20
6.2936776785000026
 30
0.0
  0
VERTEX
  5
79B0
  8
0
 10
8.8616733443999998
 20
6.2861159770000006
 30
0.0
  0
VERTEX
  5
79B1
  8
0
 10
8.8646421963000002
 20
6.278226800299989
 30
0.0
  0
VERTEX
  5
79B2
  8
0
 10
8.8674023023999986
 20
6.2699586718999987
 30
0.0
  0
VERTEX
  5
79B3
  8
0
 10
8.8699593237000052
 20
6.2613042924999931
 30
0.0
  0
VERTEX
  5
79B4
  8
0
 10
8.8723075992000027
 20
6.2522709614000069
 30
0.0
  0
VERTEX
  5
79B5
  8
0
 10
8.8743900189000051
 20
6.2428291010000052
 30
0.0
  0
VERTEX
  5
79B6
  8
0
 10
8.8762084138999988
 20
6.2329635219999906
 30
0.0
  0
VERTEX
  5
79B7
  8
0
 10
8.877760953100001
 20
6.2226894136000013
 30
0.0
  0
VERTEX
  5
79B8
  8
0
 10
8.8789850334999976
 20
6.2120227661999996
 30
0.0
  0
VERTEX
  5
79B9
  8
0
 10
8.8798597873999991
 20
6.2009689098999976
 30
0.0
  0
VERTEX
  5
79BA
  8
0
 10
8.8804060824999986
 20
6.1895225144999912
 30
0.0
  0
VERTEX
  5
79BB
  8
0
 10
8.8806239186999996
 20
6.1776835801000161
 30
0.0
  0
SEQEND
  5
79BC
  8
0
  0
POLYLINE
  5
6E4
  8
0
 66
     1
 10
0.0
 20
0.0
 30
0.0
  0
VERTEX
  5
79BD
  8
0
 10
8.0107658294000004
 20
5.7977546135999978
 30
0.0
  0
VERTEX
  5
79BE
  8
0
 10
8.0201999523999987
 20
5.7963550504000017
 30
0.0
  0
VERTEX
  5
79BF
  8
0
 10
8.029612599
 20
5.7945766447999949
 30
0.0
  0
VERTEX
  5
79C0
  8
0
 10
8.0389888909000007
 20
5.7924240617000029
 30
0.0
  0
VERTEX
  5
79C1
  8
0
 10
8.0483137830999993
 20
5.7899020147000044
 30
0.0
  0
VERTEX
  5
79C2
  8
0
 10
8.0575725700999996
 20
5.7870151322000041
 30
0.0
  0
VERTEX
  5
79C3
  8
0
 10
8.0667508720999983
 20
5.7837678922000029
 30
0.0
  0
VERTEX
  5
79C4
  8
0
 10
8.0758341033999983
 20
5.7801647730000019
 30
0.0
  0
VERTEX
  5
79C5
  8
0
 10
8.0848070591999992
 20
5.7762104855000009
 30
0.0
  0
VERTEX
  5
79C6
  8
0
 10
8.0936544300000008
 20
5.7719098479000053
 30
0.0
  0
VERTEX
  5
79C7
  8
0
 10
8.1023616220999983
 20
5.767268351700003
 30
0.0
  0
VERTEX
  5
79C8
  8
0
 10
8.110915413699999
 20
5.7622947046000021
 30
0.0
  0
VERTEX
  5
79C9
  8
0
 10
8.1193025866999982
 20
5.7569986310000081
 30
0.0
  0
VERTEX
  5
79CA
  8
0
 10
8.127509934399999
 20
5.7513899075000046
 30
0.0
  0
VERTEX
  5
79CB
  8
0
 10
8.1355248495999994
 20
5.7454779160000049
 30
0.0
  0
VERTEX
  5
79CC
  8
0
 10
8.1433349912999908
 20
5.7392717533000024
 30
0.0
  0
VERTEX
  5
79CD
  8
0
 10
8.1509276710999998
 20
5.732780683599997
 30
0.0
  0
VERTEX
  5
79CE
  8
0
 10
8.1582896492000003
 20
5.7260144253999954
 30
0.0
  0
VERTEX
  5
79CF
  8
0
 10
8.1654077331999986
 20
5.7189827202999899
 30
0.0
  0
VERTEX
  5
79D0
  8
0
 10
8.1722695993999999
 20
5.7116957114000044
 30
0.0
  0
VERTEX
  5
79D1
  8
0
 10
8.1788653780000011
 20
5.7041659870000032
 30
0.0
  0
VERTEX
  5
79D2
  8
0
 10
8.1851856082999994
 20
5.6964070072000084
 30
0.0
  0
VERTEX
  5
79D3
  8
0
 10
8.1912208534999991
 20
5.6884322797000024
 30
0.0
  0
VERTEX
  5
79D4
  8
0
 10
8.1969621185000001
 20
5.6802547490999942
 30
0.0
  0
VERTEX
  5
79D5
  8
0
 10
8.2024005692999982
 20
5.6718870068000049
 30
0.0
  0
VERTEX
  5
79D6
  8
0
 10
8.2075270934999978
 20
5.6633419167000048
 30
0.0
  0
VERTEX
  5
79D7
  8
0
 10
8.2123321959999984
 20
5.6546329542000029
 30
0.0
  0
VERTEX
  5
79D8
  8
0
 10
8.2168064335999986
 20
5.645773605100004
 30
0.0
  0
VERTEX
  5
79D9
  8
0
 10
8.2209413697000002
 20
5.6367773452000094
 30
0.0
  0
VERTEX
  5
79DA
  8
0
 10
8.2247317695999982
 20
5.6276589915999997
 30
0.0
  0
VERTEX
  5
79DB
  8
0
 10
8.2281730750000008
 20
5.618434075600006
 30
0.0
  0
VERTEX
  5
79DC
  8
0
 10
8.2312608322000003
 20
5.609118022100005
 30
0.0
  0
VERTEX
  5
79DD
  8
0
 10
8.2339908094999998
 20
5.5997256253000032
 30
0.0
  0
VERTEX
  5
79DE
  8
0
 10
8.2363587730999992
 20
5.5902714691000019
 30
0.0
  0
VERTEX
  5
79DF
  8
0
 10
8.2383603438000002
 20
5.5807704708000037
 30
0.0
  0
VERTEX
  5
79E0
  8
0
 10
8.2399910630000015
 20
5.5712378937000011
 30
0.0
  0
VERTEX
  5
79E1
  8
0
 10
8.2412465174999987
 20
5.5616888313000032
 30
0.0
  0
SEQEND
  5
79E2
  8
0
  0
POLYLINE
  5
6E8
  8
0
 66
     1
 10
0.0
 20
0.0
 30
0.0
  0
VERTEX
  5
79E3
  8
0
 10
8.2412459586514011
 20
5.5616930819360704
 30
0.0
  0
VERTEX
  5
79E4
  8
0
 10
8.2463010302000015
 20
4.0311022330000048
 30
0.0
  0
VERTEX
  5
79E5
  8
0
 10
8.2470581908000007
 20
2.1679894011000012
 30
0.0
  0
SEQEND
  5
79E6
  8
0
  0
LINE
  5
6E9
  8
0
 10
8.2470581908000007
 20
2.1679894011000012
 30
0.0
 11
8.2473376579000011
 21
0.9271235405000055
 31
0.0
  0
LINE
  5
6EA
  8
0
 10
8.2473376579000011
 20
0.9271235405000055
 30
0.0
 11
8.2471800939999973
 21
-1.3086145514999921
 31
0.0
  0
LINE
  5
6EB
  8
0
 10
8.2471800939999973
 20
-1.3086145514999921
 30
0.0
 11
8.2466960679999985
 21
-2.694288052399997
 31
0.0
  0
LINE
  5
6EC
  8
0
 10
8.2466960679999985
 20
-2.694288052399997
 30
0.0
 11
8.2456578972999992
 21
-5.0802347975000037
 31
0.0
  0
POLYLINE
  5
6EE
  8
0
 66
     1
 10
0.0
 20
0.0
 30
0.0
  0
VERTEX
  5
79E7
  8
0
 10
7.0196777202999998
 20
-4.3752314142999964
 30
0.0
  0
VERTEX
  5
79E8
  8
0
 10
7.017503639800001
 20
-4.3848242603999941
 30
0.0
  0
VERTEX
  5
79E9
  8
0
 10
7.0149739365999997
 20
-4.3943720305000014
 30
0.0
  0
VERTEX
  5
79EA
  8
0
 10
7.0120927508999991
 20
-4.4038590872999981
 30
0.0
  0
VERTEX
  5
79EB
  8
0
 10
7.0088647991000013
 20
-4.4132698969000037
 30
0.0
  0
VERTEX
  5
79EC
  8
0
 10
7.0052953633000001
 20
-4.4225890409000002
 30
0.0
  0
VERTEX
  5
79ED
  8
0
 10
7.0013902835999993
 20
-4.4318012419999908
 30
0.0
  0
VERTEX
  5
79EE
  8
0
 10
6.9971559529
 20
-4.4408914104000061
 30
0.0
  0
VERTEX
  5
79EF
  8
0
 10
6.9925993042999997
 20
-4.4498446581999991
 30
0.0
  0
VERTEX
  5
79F0
  8
0
 10
6.987727797599999
 20
-4.458646310400006
 30
0.0
  0
VERTEX
  5
79F1
  8
0
 10
6.9825494093999998
 20
-4.4672819503999932
 30
0.0
  0
VERTEX
  5
79F2
  8
0
 10
6.9770726202999986
 20
-4.4757374338999929
 30
0.0
  0
VERTEX
  5
79F3
  8
0
 10
6.9713064000999987
 20
-4.4839989028000033
 30
0.0
  0
VERTEX
  5
79F4
  8
0
 10
6.9652601922999997
 20
-4.4920528253999938
 30
0.0
  0
VERTEX
  5
79F5
  8
0
 10
6.9589438995000013
 20
-4.4998860105000063
 30
0.0
  0
VERTEX
  5
79F6
  8
0
 10
6.9523678694000006
 20
-4.507485621699999
 30
0.0
  0
VERTEX
  5
79F7
  8
0
 10
6.9455428724999999
 20
-4.5148392118999956
 30
0.0
  0
VERTEX
  5
79F8
  8
0
 10
6.9384800880000004
 20
-4.5219347373999952
 30
0.0
  0
VERTEX
  5
79F9
  8
0
 10
6.9311910891000004
 20
-4.5287605722999942
 30
0.0
  0
VERTEX
  5
79FA
  8
0
 10
6.9236878144
 20
-4.5353055373999922
 30
0.0
  0
VERTEX
  5
79FB
  8
0
 10
6.9159825549000011
 20
-4.5415589143000039
 30
0.0
  0
VERTEX
  5
79FC
  8
0
 10
6.9080879395000014
 20
-4.5475104584999917
 30
0.0
  0
VERTEX
  5
79FD
  8
0
 10
6.9000168982999979
 20
-4.5531504232999964
 30
0.0
  0
VERTEX
  5
79FE
  8
0
 10
6.891782652999999
 20
-4.5584695737999956
 30
0.0
  0
VERTEX
  5
79FF
  8
0
 10
6.8833987025999992
 20
-4.5634591989000048
 30
0.0
  0
VERTEX
  5
7A00
  8
0
 10
6.8748787753999991
 20
-4.5681111271999981
 30
0.0
  0
VERTEX
  5
7A01
  8
0
 10
6.8662368299000001
 20
-4.5724177432999928
 30
0.0
  0
VERTEX
  5
7A02
  8
0
 10
6.8574870402999997
 20
-4.5763719986999973
 30
0.0
  0
VERTEX
  5
7A03
  8
0
 10
6.8486437403
 20
-4.5799674195999946
 30
0.0
  0
VERTEX
  5
7A04
  8
0
 10
6.8397214031999978
 20
-4.5831981179999977
 30
0.0
  0
VERTEX
  5
7A05
  8
0
 10
6.8307346382999992
 20
-4.5860588042000003
 30
0.0
  0
SEQEND
  5
7A06
  8
0
  0
POLYLINE
  5
6F1
  8
0
 66
     1
 10
0.0
 20
0.0
 30
0.0
  0
VERTEX
  5
7A07
  8
0
 10
6.6481928699999999
 20
4.4927576108000054
 30
0.0
  0
VERTEX
  5
7A08
  8
0
 10
6.6547618900999987
 20
4.4844309529000048
 30
0.0
  0
VERTEX
  5
7A09
  8
0
 10
6.6612994398999996
 20
4.4759666111999996
 30
0.0
  0
VERTEX
  5
7A0A
  8
0
 10
6.6677973314999992
 20
4.4673751869
 30
0.0
  0
VERTEX
  5
7A0B
  8
0
 10
6.6742474266
 20
4.4586674403999922
 30
0.0
  0
VERTEX
  5
7A0C
  8
0
 10
6.6806416469000007
 20
4.4498542774999938
 30
0.0
  0
VERTEX
  5
7A0D
  8
0
 10
6.6869719844000013
 20
4.4409467359000061
 30
0.0
  0
VERTEX
  5
7A0E
  8
0
 10
6.6932305106999994
 20
4.4319559717000061
 30
0.0
  0
VERTEX
  5
7A0F
  8
0
 10
6.6994093874000011
 20
4.4228932454000036
 30
0.0
  0
VERTEX
  5
7A10
  8
0
 10
6.7055008758999977
 20
4.4137699070000016
 30
0.0
  0
VERTEX
  5
7A11
  8
0
 10
6.711497347099999
 20
4.4045973830000023
 30
0.0
  0
VERTEX
  5
7A12
  8
0
 10
6.7173912907000002
 20
4.395387161499996
 30
0.0
  0
VERTEX
  5
7A13
  8
0
 10
6.7231753246999988
 20
4.3861507777999904
 30
0.0
  0
SEQEND
  5
7A14
  8
0
  0
LINE
  5
700
  8
0
 10
8.8806239186999996
 20
6.1776835801000161
 30
0.0
 11
8.8806239222999999
 21
-5.5863756328999941
 31
0.0
  0
POLYLINE
  5
702
  8
0
 66
     1
 10
0.0
 20
0.0
 30
0.0
  0
VERTEX
  5
7A15
  8
0
 10
8.8806239222999999
 20
-5.5863756328999941
 30
0.0
  0
VERTEX
  5
7A16
  8
0
 10
8.8804843925999997
 20
-5.5957596996999959
 30
0.0
  0
VERTEX
  5
7A17
  8
0
 10
8.8800941948000016
 20
-5.6049614070999993
 30
0.0
  0
VERTEX
  5
7A18
  8
0
 10
8.8794533288999986
 20
-5.6139807548999912
 30
0.0
  0
VERTEX
  5
7A19
  8
0
 10
8.8785588948999994
 20
-5.6228118957999982
 30
0.0
  0
VERTEX
  5
7A1A
  8
0
 10
8.8774137927999988
 20
-5.6314606771999962
 30
0.0
  0
VERTEX
  5
7A1B
  8
0
 10
8.8760267223999971
 20
-5.639944641299997
 30
0.0
  0
VERTEX
  5
7A1C
  8
0
 10
8.8743947594999995
 20
-5.6482786941999938
 30
0.0
  0
VERTEX
  5
7A1D
  8
0
 10
8.872520828399999
 20
-5.656447929899997
 30
0.0
  0
VERTEX
  5
7A1E
  8
0
 10
8.870422401199999
 20
-5.6644251723999943
 30
0.0
  0
VERTEX
  5
7A1F
  8
0
 10
8.8681003754999992
 20
-5.6722012740999972
 30
0.0
  0
VERTEX
  5
7A20
  8
0
 10
8.8655538538000052
 20
-5.6797853826000022
 30
0.0
  0
VERTEX
  5
7A21
  8
0
 10
8.8627976160999982
 20
-5.6871777641999941
 30
0.0
  0
VERTEX
  5
7A22
  8
0
 10
8.8598327447000003
 20
-5.6943767518999939
 30
0.0
  0
VERTEX
  5
7A23
  8
0
 10
8.8566581573999947
 20
-5.7013840126999957
 30
0.0
  0
VERTEX
  5
7A24
  8
0
 10
8.8532853879000051
 20
-5.708204814099993
 30
0.0
  0
VERTEX
  5
7A25
  8
0
 10
8.8497166973999946
 20
-5.7148374797999963
 30
0.0
  0
VERTEX
  5
7A26
  8
0
 10
8.8459498246999981
 20
-5.7212836859999916
 30
0.0
  0
VERTEX
  5
7A27
  8
0
 10
8.8419895201000003
 20
-5.7275537291999958
 30
0.0
  0
VERTEX
  5
7A28
  8
0
 10
8.8378391162000032
 20
-5.7336466788999942
 30
0.0
  0
VERTEX
  5
7A29
  8
0
 10
8.8334952804000011
 20
-5.7395634655999848
 30
0.0
  0
VERTEX
  5
7A2A
  8
0
 10
8.8289527648000004
 20
-5.745317177399996
 30
0.0
  0
VERTEX
  5
7A2B
  8
0
 10
8.8242135130000001
 20
-5.7509097840999948
 30
0.0
  0
VERTEX
  5
7A2C
  8
0
 10
8.8192755813999995
 20
-5.7563393159999938
 30
0.0
  0
VERTEX
  5
7A2D
  8
0
 10
8.8141278919999948
 20
-5.7616129522999984
 30
0.0
  0
VERTEX
  5
7A2E
  8
0
 10
8.8087700550000001
 20
-5.7667340912999938
 30
0.0
  0
VERTEX
  5
7A2F
  8
0
 10
8.8032024602000032
 20
-5.7716993346999947
 30
0.0
  0
VERTEX
  5
7A30
  8
0
 10
8.7974151982999977
 20
-5.7765056665999941
 30
0.0
  0
VERTEX
  5
7A31
  8
0
 10
8.7914070478999946
 20
-5.7811554864999968
 30
0.0
  0
VERTEX
  5
7A32
  8
0
 10
8.7851792304999972
 20
-5.7856463948999908
 30
0.0
  0
VERTEX
  5
7A33
  8
0
 10
8.7787255012999985
 20
-5.7899681767999951
 30
0.0
  0
VERTEX
  5
7A34
  8
0
 10
8.7720440945999947
 20
-5.7941222353000006
 30
0.0
  0
VERTEX
  5
7A35
  8
0
 10
8.7651367761000003
 20
-5.7981071672999951
 30
0.0
  0
VERTEX
  5
7A36
  8
0
 10
8.7580025980999991
 20
-5.8019085485999957
 30
0.0
  0
VERTEX
  5
7A37
  8
0
 10
8.7506392630000001
 20
-5.8055269277999946
 30
0.0
  0
VERTEX
  5
7A38
  8
0
 10
8.7430490684999995
 20
-5.8089617562999996
 30
0.0
  0
VERTEX
  5
7A39
  8
0
 10
8.7352379596999992
 20
-5.8121969630999848
 30
0.0
  0
VERTEX
  5
7A3A
  8
0
 10
8.7272024753999986
 20
-5.8152324628999992
 30
0.0
  0
VERTEX
  5
7A3B
  8
0
 10
8.7189460769
 20
-5.818068340999992
 30
0.0
  0
VERTEX
  5
7A3C
  8
0
 10
8.7104850931999991
 20
-5.8206887821999942
 30
0.0
  0
VERTEX
  5
7A3D
  8
0
 10
8.7018249672000003
 20
-5.8230885148999931
 30
0.0
  0
VERTEX
  5
7A3E
  8
0
 10
8.6929602559999992
 20
-5.8252728106999987
 30
0.0
  0
VERTEX
  5
7A3F
  8
0
 10
8.6838909595999993
 20
-5.827241669699994
 30
0.0
  0
SEQEND
  5
7A40
  8
0
  0
POLYLINE
  5
704
  8
0
 66
     1
 10
0.0
 20
0.0
 30
0.0
  0
VERTEX
  5
7A41
  8
0
 10
8.2456581622000016
 20
-5.0802349907000064
 30
0.0
  0
VERTEX
  5
7A42
  8
0
 10
8.2445839013000004
 20
-5.0896297172999994
 30
0.0
  0
VERTEX
  5
7A43
  8
0
 10
8.2431559503999985
 20
-5.0990095215999949
 30
0.0
  0
VERTEX
  5
7A44
  8
0
 10
8.2413764694000022
 20
-5.1083601875000042
 30
0.0
  0
VERTEX
  5
7A45
  8
0
 10
8.2392481488999998
 20
-5.1176675566999981
 30
0.0
  0
VERTEX
  5
7A46
  8
0
 10
8.2367742114000002
 20
-5.1269175078000009
 30
0.0
  0
VERTEX
  5
7A47
  8
0
 10
8.2339584117999998
 20
-5.1360959785999958
 30
0.0
  0
VERTEX
  5
7A48
  8
0
 10
8.2308050218000002
 20
-5.1451890443999977
 30
0.0
  0
VERTEX
  5
7A49
  8
0
 10
8.2273188184999988
 20
-5.1541829378000008
 30
0.0
  0
VERTEX
  5
7A4A
  8
0
 10
8.2235050861999994
 20
-5.1630640281999973
 30
0.0
  0
VERTEX
  5
7A4B
  8
0
 10
8.2193696052000007
 20
-5.1718188554000051
 30
0.0
  0
VERTEX
  5
7A4C
  8
0
 10
8.214918643699999
 20
-5.1804341507000009
 30
0.0
  0
VERTEX
  5
7A4D
  8
0
 10
8.2101589478999983
 20
-5.1888968572999943
 30
0.0
  0
VERTEX
  5
7A4E
  8
0
 10
8.2050977319000005
 20
-5.1971941490999924
 30
0.0
  0
VERTEX
  5
7A4F
  8
0
 10
8.1997426669000006
 20
-5.2053134509000003
 30
0.0
  0
VERTEX
  5
7A50
  8
0
 10
8.1941018688999971
 20
-5.2132424575999963
 30
0.0
  0
VERTEX
  5
7A51
  8
0
 10
8.188183887600001
 20
-5.220969151999995
 30
0.0
  0
VERTEX
  5
7A52
  8
0
 10
8.1819976925000013
 20
-5.2284818237999948
 30
0.0
  0
VERTEX
  5
7A53
  8
0
 10
8.1755526591999992
 20
-5.2357690872999987
 30
0.0
  0
VERTEX
  5
7A54
  8
0
 10
8.1688585560999982
 20
-5.2428198978999978
 30
0.0
  0
VERTEX
  5
7A55
  8
0
 10
8.1619255288999994
 20
-5.2496235695999971
 30
0.0
  0
VERTEX
  5
7A56
  8
0
 10
8.1547640852000001
 20
-5.2561697912999961
 30
0.0
  0
VERTEX
  5
7A57
  8
0
 10
8.1473850787999993
 20
-5.2624486415999954
 30
0.0
  0
VERTEX
  5
7A58
  8
0
 10
8.1397996936000006
 20
-5.2684506042999919
 30
0.0
  0
VERTEX
  5
7A59
  8
0
 10
8.1320194255999994
 20
-5.274166583399996
 30
0.0
  0
VERTEX
  5
7A5A
  8
0
 10
8.1240560666000015
 20
-5.2795879157999934
 30
0.0
  0
VERTEX
  5
7A5B
  8
0
 10
8.1159216858999983
 20
-5.2847063848999971
 30
0.0
  0
VERTEX
  5
7A5C
  8
0
 10
8.1076286116000027
 20
-5.2895142335999941
 30
0.0
  0
VERTEX
  5
7A5D
  8
0
 10
8.0991894126000012
 20
-5.2940041750999987
 30
0.0
  0
VERTEX
  5
7A5E
  8
0
 10
8.0906168794000024
 20
-5.2981694043999994
 30
0.0
  0
VERTEX
  5
7A5F
  8
0
 10
8.0819240038999993
 20
-5.3020036089999962
 30
0.0
  0
VERTEX
  5
7A60
  8
0
 10
8.0731239608000003
 20
-5.3055009778999951
 30
0.0
  0
VERTEX
  5
7A61
  8
0
 10
8.0642300877000004
 20
-5.3086562100999961
 30
0.0
  0
VERTEX
  5
7A62
  8
0
 10
8.0552558641000012
 20
-5.3114645236000007
 30
0.0
  0
SEQEND
  5
7A63
  8
0
  0
LINE
  5
706
  8
0
 10
9.8057363624000011
 20
-6.5864436330999956
 30
0.0
 11
9.8057363624000011
 21
7.3577400224000007
 31
0.0
  0
ARC
  5
E01
  8
0
 10
0.0
 20
-594.0
 30
0.0
 40
601.55573636230008
 50
89.077248370699976
 51
90.922751629300024
  0
CIRCLE
  5
E04
  8
0
 10
0.0
 20
0.0
 30
0.0
 40
0.875
  0
ARC
  5
E05
  8
0
 10
-9.6857363623000001
 20
7.3577400224000007
 30
0.0
 40
0.12
 50
91.031740464099954
 51
179.89101116369989
  0
ARC
  5
E06
  8
0
 10
-9.6857363623000001
 20
-6.5864436330999956
 30
0.0
 40
0.12
 50
180.08900298309979
 51
257.42796736759999
  0
ARC
  5
E07
  8
0
 10
9.6857363624000001
 20
-6.5864436330999956
 30
0.0
 40
0.12
 50
282.5720326323999
 51
359.91099701690013
  0
ARC
  5
E08
  8
0
 10
9.6857363624000001
 20
7.3577400224000007
 30
0.0
 40
0.12
 50
0.1089888363001355
 51
88.968259535899946
  0
ARC
  5
E09
  8
0
 10
0.0
 20
-7.0523947011999928
 30
0.0
 40
0.1067707825
 50
0.0
 51
180.0
  0
ARC
  5
E0A
  8
0
 10
0.0
 20
-7.2138531360999991
 30
0.0
 40
0.1067707825
 50
180.0
 51
0.0
  0
ATTDEF
  5
5431
  8
0
 62
     7
 10
-0.004570260691013
 20
-0.0050000000000097
 30
0.0
 40
0.001
  1
VITREOUS CHINA
  3

  2
MATERIAL
 70
     8
  0
ATTDEF
  5
5432
  8
0
 62
     7
 10
-0.004570260691013
 20
-0.0033330000000049
 30
0.0
 40
0.001
  1
LAVATORY
  3

  2
PRODUCT
 70
     8
  0
ATTDEF
  5
5433
  8
0
 62
     7
 10
-0.004570260691013
 20
-0.0016670000000047
 30
0.0
 40
0.001
  1
ARCHER
  3

  2
TRADENAME
 70
     8
  0
ATTDEF
  5
5434
  8
0
 62
     7
 10
-0.004570260691013
 20
0.0
 30
0.0
 40
0.001
  1
K-2355
  3

  2
MODELNUMBER
 70
     8
  0
ENDSEC
  0
EOF
