  0
SECTION
  2
HEADER
  9
$ACADVER
  1
AC1009
  9
$INSBASE
 10
0.0
 20
0.0
 30
0.0
  9
$EXTMIN
 10
-7.6608168320058629
 20
-7.5006879715566583
 30
-0.0000000349181948
  9
$EXTMAX
 10
7.6636527746449437
 20
0.0024139279703945
 30
0.0000000814935747
  9
$LIMMIN
 10
0.0
 20
0.0
  9
$LIMMAX
 10
34.0
 20
22.0
  9
$ORTHOMODE
 70
     1
  9
$REGENMODE
 70
     1
  9
$FILLMODE
 70
     1
  9
$QTEXTMODE
 70
     0
  9
$MIRRTEXT
 70
     0
  9
$DRAGMODE
 70
     2
  9
$LTSCALE
 40
1.8700000000000001
  9
$OSMODE
 70
  2727
  9
$ATTMODE
 70
     1
  9
$TEXTSIZE
 40
0.2
  9
$TRACEWID
 40
0.05
  9
$TEXTSTYLE
  7
STANDARD
  9
$CLAYER
  8
0
  9
$CELTYPE
  6
BYLAYER
  9
$CECOLOR
 62
   256
  9
$DIMSCALE
 40
1.0
  9
$DIMASZ
 40
0.1875
  9
$DIMEXO
 40
0.2125
  9
$DIMDLI
 40
1.291999999999998
  9
$DIMRND
 40
0.0
  9
$DIMDLE
 40
0.0
  9
$DIMEXE
 40
0.612
  9
$DIMTP
 40
0.01
  9
$DIMTM
 40
0.01
  9
$DIMTXT
 40
0.15625
  9
$DIMCEN
 40
0.306
  9
$DIMTSZ
 40
0.0
  9
$DIMTOL
 70
     1
  9
$DIMLIM
 70
     0
  9
$DIMTIH
 70
     1
  9
$DIMTOH
 70
     1
  9
$DIMSE1
 70
     0
  9
$DIMSE2
 70
     0
  9
$DIMTAD
 70
     0
  9
$DIMZIN
 70
     0
  9
$DIMBLK
  1
_ARROW_FILLED
  9
$DIMASO
 70
     1
  9
$DIMSHO
 70
     1
  9
$DIMPOST
  1

  9
$DIMAPOST
  1

  9
$DIMALT
 70
     0
  9
$DIMALTD
 70
     2
  9
$DIMALTF
 40
25.399999999999999
  9
$DIMLFAC
 40
1.0
  9
$DIMTOFL
 70
     0
  9
$DIMTVP
 40
0.0
  9
$DIMTIX
 70
     0
  9
$DIMSOXD
 70
     0
  9
$DIMSAH
 70
     0
  9
$DIMBLK1
  1

  9
$DIMBLK2
  1

  9
$DIMSTYLE
  2
STANDARD
  9
$DIMCLRD
 70
     0
  9
$DIMCLRE
 70
     0
  9
$DIMCLRT
 70
     0
  9
$DIMTFAC
 40
1.0
  9
$DIMGAP
 40
0.09
  9
$LUNITS
 70
     2
  9
$LUPREC
 70
     4
  9
$SKETCHINC
 40
0.1
  9
$FILLETRAD
 40
0.0
  9
$AUNITS
 70
     0
  9
$AUPREC
 70
     0
  9
$MENU
  1
.
  9
$ELEVATION
 40
0.0
  9
$PELEVATION
 40
0.0
  9
$THICKNESS
 40
0.0
  9
$LIMCHECK
 70
     0
  9
$BLIPMODE
 70
     0
  9
$CHAMFERA
 40
0.0
  9
$CHAMFERB
 40
0.0
  9
$SKPOLY
 70
     0
  9
$TDCREATE
 40
2454497.501335382
  9
$TDUPDATE
 40
2454497.5278427089
  9
$TDINDWG
 40
0.0260246528
  9
$TDUSRTIMER
 40
0.0260246528
  9
$USRTIMER
 70
     1
  9
$ANGBASE
 50
0.0
  9
$ANGDIR
 70
     0
  9
$PDMODE
 70
     3
  9
$PDSIZE
 40
0.3125
  9
$PLINEWID
 40
0.0
  9
$COORDS
 70
     1
  9
$SPLFRAME
 70
     0
  9
$SPLINETYPE
 70
     6
  9
$SPLINESEGS
 70
     8
  9
$ATTDIA
 70
     0
  9
$ATTREQ
 70
     1
  9
$HANDLING
 70
     1
  9
$HANDSEED
  5
81F7
  9
$SURFTAB1
 70
     6
  9
$SURFTAB2
 70
     6
  9
$SURFTYPE
 70
     6
  9
$SURFU
 70
     6
  9
$SURFV
 70
     6
  9
$UCSNAME
  2

  9
$UCSORG
 10
0.0
 20
0.0
 30
0.0
  9
$UCSXDIR
 10
1.0
 20
0.0
 30
0.0
  9
$UCSYDIR
 10
0.0
 20
1.0
 30
0.0
  9
$PUCSNAME
  2

  9
$PUCSORG
 10
0.0
 20
0.0
 30
0.0
  9
$PUCSXDIR
 10
1.0
 20
0.0
 30
0.0
  9
$PUCSYDIR
 10
0.0
 20
1.0
 30
0.0
  9
$USERI1
 70
     0
  9
$USERI2
 70
     0
  9
$USERI3
 70
     0
  9
$USERI4
 70
     0
  9
$USERI5
 70
     0
  9
$USERR1
 40
0.0
  9
$USERR2
 40
0.0
  9
$USERR3
 40
0.0
  9
$USERR4
 40
0.0
  9
$USERR5
 40
0.0
  9
$WORLDVIEW
 70
     1
  9
$SHADEDGE
 70
     3
  9
$SHADEDIF
 70
    70
  9
$TILEMODE
 70
     1
  9
$MAXACTVP
 70
    64
  9
$PLIMCHECK
 70
     0
  9
$PEXTMIN
 10
1.0000000000000000E+020
 20
1.0000000000000000E+020
 30
1.0000000000000000E+020
  9
$PEXTMAX
 10
-1.0000000000000000E+020
 20
-1.0000000000000000E+020
 30
-1.0000000000000000E+020
  9
$PLIMMIN
 10
0.0
 20
0.0
  9
$PLIMMAX
 10
12.0
 20
9.0
  9
$UNITMODE
 70
     0
  9
$VISRETAIN
 70
     1
  9
$PLINEGEN
 70
     0
  9
$PSLTSCALE
 70
     1
  0
ENDSEC
  0
SECTION
  2
TABLES
  0
TABLE
  2
VPORT
 70
     1
  0
VPORT
  2
*ACTIVE
 70
     0
 10
0.0
 20
0.0
 11
1.0
 21
1.0
 12
3.8930868746779161
 22
0.1106382084344553
 13
0.0
 23
0.0
 14
1.0
 24
1.0
 15
0.0
 25
0.0
 16
0.0
 26
0.0
 36
1.0
 17
0.0
 27
0.0
 37
0.0
 40
37.78478635691858
 41
1.6666666666666661
 42
50.0
 43
0.0
 44
0.0
 50
0.0
 51
0.0
 71
     0
 72
   100
 73
     1
 74
     1
 75
     0
 76
     0
 77
     0
 78
     0
  0
ENDTAB
  0
TABLE
  2
LTYPE
 70
     2
  0
LTYPE
  2
CONTINUOUS
 70
     0
  3
Solid line
 72
    65
 73
     0
 40
0.0
  0
LTYPE
  2
HIDDEN
 70
     0
  3
Hidden __ __ __ __ __ __ __ __ __ __ __ __ __ __
 72
    65
 73
     2
 40
0.375
 49
0.25
 49
-0.125
  0
ENDTAB
  0
TABLE
  2
LAYER
 70
     2
  0
LAYER
  2
0
 70
     0
 62
     7
  6
CONTINUOUS
  0
LAYER
  2
HIDDEN
 70
     0
 62
     7
  6
HIDDEN
  0
ENDTAB
  0
TABLE
  2
STYLE
 70
     2
  0
STYLE
  2
STANDARD
 70
     0
 40
0.0
 41
0.8
 50
0.0
 71
     0
 42
0.2
  3
txt
  4

  0
ENDTAB
  0
TABLE
  2
VIEW
 70
     0
  0
ENDTAB
  0
TABLE
  2
UCS
 70
     0
  0
ENDTAB
  0
TABLE
  2
APPID
 70
     2
  0
APPID
  2
ACAD
 70
     0
  0
APPID
  2
ACAECLAYERSTANDARD
 70
     0
  0
ENDTAB
  0
TABLE
  2
DIMSTYLE
 70
     1
  0
DIMSTYLE
  2
STANDARD
 70
     0
  3

  4

  5

  6

  7

 40
1.0
 41
0.1875
 42
0.0625
 43
0.38
 44
0.18
 45
0.0
 46
0.0
 47
0.01
 48
0.01
140
0.15625
141
0.09
142
0.0
143
25.399999999999999
144
1.0
145
0.0
146
1.0
147
0.09
 71
     1
 72
     0
 73
     1
 74
     1
 75
     0
 76
     0
 77
     0
 78
     4
170
     0
171
     2
172
     0
173
     0
174
     0
175
     0
176
     0
177
     0
178
     0
  0
ENDTAB
  0
ENDSEC
  0
SECTION
  2
BLOCKS
  0
BLOCK
  8
0
  2
$MODEL_SPACE
 70
     0
 10
0.0
 20
0.0
 30
0.0
  3
$MODEL_SPACE
  1

  0
ENDBLK
  5
8045
  8
0
  0
BLOCK
 67
     1
  8
0
  2
$PAPER_SPACE
 70
     0
 10
0.0
 20
0.0
 30
0.0
  3
$PAPER_SPACE
  1

  0
ENDBLK
  5
8041
 67
     1
  8
0
  0
BLOCK
  8
0
  2
_ARROW_FILLED
 70
     0
 10
0.0
 20
0.0
 30
0.0
  3
_ARROW_FILLED
  1

  0
SOLID
  5
390
  8
0
  6
BYBLOCK
 62
     0
 10
0.0
 20
0.0
 30
0.0
 11
-1.0
 21
0.1666666667
 31
0.0
 12
-1.0
 22
-0.1666666667
 32
0.0
 13
-1.0
 23
-0.1666666667
 33
0.0
  0
ENDBLK
  5
391
  8
0
  6
BYBLOCK
 62
     0
  0
ENDSEC
  0
SECTION
  2
ENTITIES
  0
POLYLINE
  5
B2F
  8
HIDDEN
 66
     1
 10
0.0
 20
0.0
 30
0.0
  0
VERTEX
  5
8137
  8
HIDDEN
 10
-7.6516569841500006
 20
-0.3820939697999961
 30
0.0
  0
VERTEX
  5
8138
  8
HIDDEN
 10
-7.6515536883500017
 20
-0.3840941415000003
 30
0.0
  0
VERTEX
  5
8139
  8
HIDDEN
 10
-7.6512479998499989
 20
-0.3872983332000004
 30
0.0
  0
VERTEX
  5
813A
  8
HIDDEN
 10
-7.6507709386500009
 20
-0.3904814274999992
 30
0.0
  0
VERTEX
  5
813B
  8
HIDDEN
 10
-7.6501238892499996
 20
-0.3936342824000007
 30
0.0
  0
VERTEX
  5
813C
  8
HIDDEN
 10
-7.6493087121499981
 20
-0.3967478749000008
 30
0.0
  0
VERTEX
  5
813D
  8
HIDDEN
 10
-7.6483277579499989
 20
-0.3998132466999991
 30
0.0
  0
VERTEX
  5
813E
  8
HIDDEN
 10
-7.6471838538499979
 20
-0.4028215790999994
 30
0.0
  0
VERTEX
  5
813F
  8
HIDDEN
 10
-7.6458802749500023
 20
-0.4057642613999875
 30
0.0
  0
VERTEX
  5
8140
  8
HIDDEN
 10
-7.6444207696499999
 20
-0.4086328252000016
 30
0.0
  0
VERTEX
  5
8141
  8
HIDDEN
 10
-7.6428095349499996
 20
-0.4114190151000017
 30
0.0
  0
VERTEX
  5
8142
  8
HIDDEN
 10
-7.6410511768500022
 20
-0.4141148524000116
 30
0.0
  0
VERTEX
  5
8143
  8
HIDDEN
 10
-7.63915074155
 20
-0.416712579700004
 30
0.0
  0
VERTEX
  5
8144
  8
HIDDEN
 10
-7.6371136933500017
 20
-0.4192047085999988
 30
0.0
  0
VERTEX
  5
8145
  8
HIDDEN
 10
-7.6349458685500009
 20
-0.4215840788000023
 30
0.0
  0
VERTEX
  5
8146
  8
HIDDEN
 10
-7.6326534460500026
 20
-0.4238438781999961
 30
0.0
  0
VERTEX
  5
8147
  8
HIDDEN
 10
-7.6302430576500022
 20
-0.4259775409999876
 30
0.0
  0
VERTEX
  5
8148
  8
HIDDEN
 10
-7.6277217721500001
 20
-0.427978808799999
 30
0.0
  0
VERTEX
  5
8149
  8
HIDDEN
 10
-7.6250968258500107
 20
-0.4298419515999968
 30
0.0
  0
VERTEX
  5
814A
  8
HIDDEN
 10
-7.6223758085500029
 20
-0.4315615948999963
 30
0.0
  0
VERTEX
  5
814B
  8
HIDDEN
 10
-7.6195668077499903
 20
-0.4331326701999956
 30
0.0
  0
VERTEX
  5
814C
  8
HIDDEN
 10
-7.6166779379499898
 20
-0.4345507065999997
 30
0.0
  0
VERTEX
  5
814D
  8
HIDDEN
 10
-7.6137175325499982
 20
-0.4358116789999969
 30
0.0
  0
VERTEX
  5
814E
  8
HIDDEN
 10
-7.6106943855500013
 20
-0.4369119289999972
 30
0.0
  0
VERTEX
  5
814F
  8
HIDDEN
 10
-7.6076172060500014
 20
-0.4378483939999996
 30
0.0
  0
VERTEX
  5
8150
  8
HIDDEN
 10
-7.6044948840499984
 20
-0.4386184736999894
 30
0.0
  0
VERTEX
  5
8151
  8
HIDDEN
 10
-7.6013367340500011
 20
-0.4392200025999955
 30
0.0
  0
VERTEX
  5
8152
  8
HIDDEN
 10
-7.5981519599500009
 20
-0.4396513935000002
 30
0.0
  0
VERTEX
  5
8153
  8
HIDDEN
 10
-7.5949496140499981
 20
-0.4399115844000008
 30
0.0
  0
VERTEX
  5
8154
  8
HIDDEN
 10
-7.5917388913500012
 20
-0.4399999828999981
 30
0.0
  0
SEQEND
  5
8155
  8
HIDDEN
  0
LINE
  5
B30
  8
HIDDEN
 10
-7.2083039583500108
 20
-0.6167462700000002
 30
0.0
 11
-7.1860540765499996
 21
-0.9349344035999962
 31
0.0
  0
LINE
  5
B6A
  8
HIDDEN
 10
-7.0028528042499998
 20
-2.0443611576
 30
0.0
 11
-6.3400787213500003
 21
-4.5611352750999989
 31
0.0
  0
LINE
  5
B8E
  8
HIDDEN
 10
-1.0051371946500001
 20
-7.5
 30
0.0
 11
1.215136171449998
 21
-7.5
 31
0.0
  0
LINE
  5
B99
  8
HIDDEN
 10
-2.7263433218500022
 20
-6.7194863468999984
 30
0.0
 11
-1.460560463350002
 21
-6.9667095642999959
 31
0.0
  0
POLYLINE
  5
B9E
  8
HIDDEN
 66
     1
 10
0.0
 20
0.0
 30
0.0
  0
VERTEX
  5
8156
  8
HIDDEN
 10
-1.460560463350002
 20
-6.9667095642999959
 30
0.0
  0
VERTEX
  5
8157
  8
HIDDEN
 10
-1.4515414700499989
 20
-6.9686444784000008
 30
0.0
  0
VERTEX
  5
8158
  8
HIDDEN
 10
-1.4425668722500009
 20
-6.9709198426999981
 30
0.0
  0
VERTEX
  5
8159
  8
HIDDEN
 10
-1.4336826104499989
 20
-6.9735259786999961
 30
0.0
  0
VERTEX
  5
815A
  8
HIDDEN
 10
-1.42490086615
 20
-6.9764593218999984
 30
0.0
  0
VERTEX
  5
815B
  8
HIDDEN
 10
-1.416233693049999
 20
-6.9797158549000002
 30
0.0
  0
VERTEX
  5
815C
  8
HIDDEN
 10
-1.4076930008500019
 20
-6.9832911105000006
 30
0.0
  0
VERTEX
  5
815D
  8
HIDDEN
 10
-1.39929050765
 20
-6.9871801894000001
 30
0.0
  0
VERTEX
  5
815E
  8
HIDDEN
 10
-1.391037739649998
 20
-6.9913777633999992
 30
0.0
  0
VERTEX
  5
815F
  8
HIDDEN
 10
-1.38294603225
 20
-6.9958780724999983
 30
0.0
  0
VERTEX
  5
8160
  8
HIDDEN
 10
-1.3750264861499979
 20
-7.0006749478000003
 30
0.0
  0
VERTEX
  5
8161
  8
HIDDEN
 10
-1.36728996695
 20
-7.0057618129999986
 30
0.0
  0
VERTEX
  5
8162
  8
HIDDEN
 10
-1.359747102749999
 20
-7.0111316837999977
 30
0.0
  0
VERTEX
  5
8163
  8
HIDDEN
 10
-1.3524082413500009
 20
-7.0167771963999961
 30
0.0
  0
VERTEX
  5
8164
  8
HIDDEN
 10
-1.3452834506500111
 20
-7.022690608799997
 30
0.0
  0
VERTEX
  5
8165
  8
HIDDEN
 10
-1.3383825174499999
 20
-7.028863799999999
 30
0.0
  0
VERTEX
  5
8166
  8
HIDDEN
 10
-1.3317149092499989
 20
-7.0352883014999987
 30
0.0
  0
VERTEX
  5
8167
  8
HIDDEN
 10
-1.325289771050002
 20
-7.0419553022000008
 30
0.0
  0
VERTEX
  5
8168
  8
HIDDEN
 10
-1.319115924049999
 20
-7.0488556488
 30
0.0
  0
VERTEX
  5
8169
  8
HIDDEN
 10
-1.313201838849998
 20
-7.0559798720999991
 30
0.0
  0
VERTEX
  5
816A
  8
HIDDEN
 10
-1.3075556244499991
 20
-7.0633182026000014
 30
0.0
  0
VERTEX
  5
816B
  8
HIDDEN
 10
-1.3021850243500019
 20
-7.070860574700002
 30
0.0
  0
VERTEX
  5
816C
  8
HIDDEN
 10
-1.297097405150001
 20
-7.078596641699999
 30
0.0
  0
VERTEX
  5
816D
  8
HIDDEN
 10
-1.29229974475
 20
-7.0865157924000002
 30
0.0
  0
VERTEX
  5
816E
  8
HIDDEN
 10
-1.287798621749999
 20
-7.094607166399995
 30
0.0
  0
VERTEX
  5
816F
  8
HIDDEN
 10
-1.2836002102499999
 20
-7.1028596649000022
 30
0.0
  0
VERTEX
  5
8170
  8
HIDDEN
 10
-1.2797102688499991
 20
-7.1112619676999991
 30
0.0
  0
VERTEX
  5
8171
  8
HIDDEN
 10
-1.2761341317499979
 20
-7.1198025522999968
 30
0.0
  0
VERTEX
  5
8172
  8
HIDDEN
 10
-1.272876704449998
 20
-7.1284697036999978
 30
0.0
  0
VERTEX
  5
8173
  8
HIDDEN
 10
-1.2699424551500009
 20
-7.1372515333999997
 30
0.0
  0
VERTEX
  5
8174
  8
HIDDEN
 10
-1.267335407850001
 20
-7.1461359983999984
 30
0.0
  0
VERTEX
  5
8175
  8
HIDDEN
 10
-1.2650591389500001
 20
-7.1551109119999969
 30
0.0
  0
VERTEX
  5
8176
  8
HIDDEN
 10
-1.26311677125
 20
-7.1641639636000001
 30
0.0
  0
VERTEX
  5
8177
  8
HIDDEN
 10
-1.2615109688499999
 20
-7.1732827382999993
 30
0.0
  0
VERTEX
  5
8178
  8
HIDDEN
 10
-1.2602439351500001
 20
-7.1824547291999989
 30
0.0
  0
VERTEX
  5
8179
  8
HIDDEN
 10
-1.2593174088499981
 20
-7.191667354099998
 30
0.0
  0
VERTEX
  5
817A
  8
HIDDEN
 10
-1.2589700595500011
 20
-7.1964788199999994
 30
0.0
  0
SEQEND
  5
817B
  8
HIDDEN
  0
LINE
  5
BA2
  8
HIDDEN
 10
-1.2585895462500041
 20
-7.1965637981999988
 30
0.0
 11
-1.2589700736500009
 21
-7.1964788209000012
 31
0.0
  0
LINE
  5
BAA
  8
HIDDEN
 10
-5.5762606302499966
 20
-5.4661750154999993
 30
0.0
 11
-3.0325018479499981
 21
-6.6215463707999973
 31
0.0
  0
LINE
  5
BC2
  8
HIDDEN
 10
2.6836670742499962
 20
-5.6888085016999979
 30
0.0
 11
1.7388965617499961
 21
-5.8733339923999992
 31
0.0
  0
LINE
  5
C84
  8
HIDDEN
 10
-1.2589700736500009
 20
-7.1964788209000012
 30
0.0
 11
-1.2546503392499979
 21
-7.2655945715999968
 31
0.0
  0
LINE
  5
C9A
  8
HIDDEN
 10
5.7228752066499951
 20
-3.9635043047999972
 30
0.0
 11
5.7238550713500009
 21
-3.9632966023999989
 31
0.0
  0
LINE
  5
CFE
  8
HIDDEN
 10
1.537306045249998
 20
-6.1031032765999953
 30
0.0
 11
1.464650339349987
 21
-7.2655945715999968
 31
0.0
  0
POLYLINE
  5
CFF
  8
HIDDEN
 66
     1
 10
0.0
 20
0.0
 30
0.0
  0
VERTEX
  5
817C
  8
HIDDEN
 10
1.5373060407500101
 20
-6.1031032762999997
 30
0.0
  0
VERTEX
  5
817D
  8
HIDDEN
 10
1.537648233849999
 20
-6.0983548655999966
 30
0.0
  0
VERTEX
  5
817E
  8
HIDDEN
 10
1.5385651032500001
 20
-6.0892035990999949
 30
0.0
  0
VERTEX
  5
817F
  8
HIDDEN
 10
1.539817953949999
 20
-6.0800922571999996
 30
0.0
  0
VERTEX
  5
8180
  8
HIDDEN
 10
1.541405089149996
 20
-6.0710331718999981
 30
0.0
  0
VERTEX
  5
8181
  8
HIDDEN
 10
1.5433243602499971
 20
-6.0620386022999986
 30
0.0
  0
VERTEX
  5
8182
  8
HIDDEN
 10
1.545573169850001
 20
-6.053120718199998
 30
0.0
  0
VERTEX
  5
8183
  8
HIDDEN
 10
1.54814847395
 20
-6.0442915884000001
 30
0.0
  0
VERTEX
  5
8184
  8
HIDDEN
 10
1.551046786849994
 20
-6.0355631620999972
 30
0.0
  0
VERTEX
  5
8185
  8
HIDDEN
 10
1.5542641866500011
 20
-6.0269472486999973
 30
0.0
  0
VERTEX
  5
8186
  8
HIDDEN
 10
1.5577963190499979
 20
-6.0184555086999971
 30
0.0
  0
VERTEX
  5
8187
  8
HIDDEN
 10
1.56163840365
 20
-6.0100994344999954
 30
0.0
  0
VERTEX
  5
8188
  8
HIDDEN
 10
1.565785242050012
 20
-6.0018903321000003
 30
0.0
  0
VERTEX
  5
8189
  8
HIDDEN
 10
1.570231222449997
 20
-5.9938393113000004
 30
0.0
  0
VERTEX
  5
818A
  8
HIDDEN
 10
1.574970327949998
 20
-5.9859572684999982
 30
0.0
  0
VERTEX
  5
818B
  8
HIDDEN
 10
1.5799961468499999
 20
-5.9782548682999979
 30
0.0
  0
VERTEX
  5
818C
  8
HIDDEN
 10
1.585301877950001
 20
-5.9707425351000012
 30
0.0
  0
VERTEX
  5
818D
  8
HIDDEN
 10
1.590880341049995
 20
-5.9634304364999968
 30
0.0
  0
VERTEX
  5
818E
  8
HIDDEN
 10
1.596723988949996
 20
-5.9563284663999978
 30
0.0
  0
VERTEX
  5
818F
  8
HIDDEN
 10
1.6028249156499961
 20
-5.9494462351000008
 30
0.0
  0
VERTEX
  5
8190
  8
HIDDEN
 10
1.6091748632499969
 20
-5.9427930595999987
 30
0.0
  0
VERTEX
  5
8191
  8
HIDDEN
 10
1.6157652344500091
 20
-5.9363779489999997
 30
0.0
  0
VERTEX
  5
8192
  8
HIDDEN
 10
1.6225871127499969
 20
-5.9302095830999981
 30
0.0
  0
VERTEX
  5
8193
  8
HIDDEN
 10
1.629631263249997
 20
-5.9242963129999993
 30
0.0
  0
VERTEX
  5
8194
  8
HIDDEN
 10
1.6368881393499981
 20
-5.9186461518999991
 30
0.0
  0
VERTEX
  5
8195
  8
HIDDEN
 10
1.6443479189499961
 20
-5.9132667454999988
 30
0.0
  0
VERTEX
  5
8196
  8
HIDDEN
 10
1.6520005050499971
 20
-5.9081653728999974
 30
0.0
  0
VERTEX
  5
8197
  8
HIDDEN
 10
1.659835524950011
 20
-5.9033489459999968
 30
0.0
  0
VERTEX
  5
8198
  8
HIDDEN
 10
1.6678423733499981
 20
-5.8988239801000013
 30
0.0
  0
VERTEX
  5
8199
  8
HIDDEN
 10
1.67601021235
 20
-5.8945965961999951
 30
0.0
  0
VERTEX
  5
819A
  8
HIDDEN
 10
1.684327969950004
 20
-5.8906725197999981
 30
0.0
  0
VERTEX
  5
819B
  8
HIDDEN
 10
1.692784385849996
 20
-5.8870570569999963
 30
0.0
  0
VERTEX
  5
819C
  8
HIDDEN
 10
1.7013680150499999
 20
-5.8837550952999988
 30
0.0
  0
VERTEX
  5
819D
  8
HIDDEN
 10
1.7100672261500089
 20
-5.8807711023999998
 30
0.0
  0
VERTEX
  5
819E
  8
HIDDEN
 10
1.7188702486499989
 20
-5.8781091086999977
 30
0.0
  0
VERTEX
  5
819F
  8
HIDDEN
 10
1.727765163549996
 20
-5.8757727113999962
 30
0.0
  0
VERTEX
  5
81A0
  8
HIDDEN
 10
1.736739904949999
 20
-5.8737650711999967
 30
0.0
  0
VERTEX
  5
81A1
  8
HIDDEN
 10
1.7388965643500001
 20
-5.8733339918999974
 30
0.0
  0
SEQEND
  5
81A2
  8
HIDDEN
  0
POLYLINE
  5
D06
  8
HIDDEN
 66
     1
 10
0.0
 20
0.0
 30
0.0
  0
VERTEX
  5
81A3
  8
HIDDEN
 10
6.439159487349996
 20
-0.6830452544999872
 30
0.0
  0
VERTEX
  5
81A4
  8
HIDDEN
 10
6.4430557392499992
 20
-0.679373704699998
 30
0.0
  0
VERTEX
  5
81A5
  8
HIDDEN
 10
6.4464565338499957
 20
-0.676294369099999
 30
0.0
  0
SEQEND
  5
81A6
  8
HIDDEN
  0
LINE
  5
D0C
  8
HIDDEN
 10
6.4464590740499972
 20
-0.6762921135999989
 30
0.0
 11
6.6497715082499971
 21
-0.495569949900002
 31
0.0
  0
POLYLINE
  5
D0D
  8
HIDDEN
 66
     1
 10
0.0
 20
0.0
 30
0.0
  0
VERTEX
  5
81A7
  8
HIDDEN
 10
6.6497715082499971
 20
-0.495569949900002
 30
0.0
  0
VERTEX
  5
81A8
  8
HIDDEN
 10
6.6524609672499997
 20
-0.4932181332999975
 30
0.0
  0
VERTEX
  5
81A9
  8
HIDDEN
 10
6.658625758149995
 20
-0.4881072463999985
 30
0.0
  0
VERTEX
  5
81AA
  8
HIDDEN
 10
6.6649724640500088
 20
-0.4832241049999979
 30
0.0
  0
VERTEX
  5
81AB
  8
HIDDEN
 10
6.6714926758499971
 20
-0.4785751783999999
 30
0.0
  0
VERTEX
  5
81AC
  8
HIDDEN
 10
6.6781777544499974
 20
-0.4741666257999953
 30
0.0
  0
VERTEX
  5
81AD
  8
HIDDEN
 10
6.6850188426500017
 20
-0.4700042875999984
 30
0.0
  0
VERTEX
  5
81AE
  8
HIDDEN
 10
6.692006876249998
 20
-0.4660936782999983
 30
0.0
  0
VERTEX
  5
81AF
  8
HIDDEN
 10
6.6991325967499966
 20
-0.4624399785000009
 30
0.0
  0
VERTEX
  5
81B0
  8
HIDDEN
 10
6.706386562749997
 20
-0.4590480286999963
 30
0.0
  0
VERTEX
  5
81B1
  8
HIDDEN
 10
6.7137591634499989
 20
-0.4559223225999958
 30
0.0
  0
VERTEX
  5
81B2
  8
HIDDEN
 10
6.7212406306500014
 20
-0.4530670008999991
 30
0.0
  0
VERTEX
  5
81B3
  8
HIDDEN
 10
6.7288210519499989
 20
-0.4504858461999959
 30
0.0
  0
VERTEX
  5
81B4
  8
HIDDEN
 10
6.7364903836499996
 20
-0.4481822778999885
 30
0.0
  0
VERTEX
  5
81B5
  8
HIDDEN
 10
6.7442384648499987
 20
-0.4461593475000001
 30
0.0
  0
VERTEX
  5
81B6
  8
HIDDEN
 10
6.7520550307500002
 20
-0.4444197346999986
 30
0.0
  0
VERTEX
  5
81B7
  8
HIDDEN
 10
6.7599297260499958
 20
-0.4429657435999986
 30
0.0
  0
VERTEX
  5
81B8
  8
HIDDEN
 10
6.7678521166499968
 20
-0.4417993005000014
 30
0.0
  0
VERTEX
  5
81B9
  8
HIDDEN
 10
6.7758117036499987
 20
-0.4409219507999964
 30
0.0
  0
VERTEX
  5
81BA
  8
HIDDEN
 10
6.783797940649996
 20
-0.4403348561000016
 30
0.0
  0
VERTEX
  5
81BB
  8
HIDDEN
 10
6.7898501253500001
 20
-0.4401109426000005
 30
0.0
  0
SEQEND
  5
81BC
  8
HIDDEN
  0
LINE
  5
D10
  8
HIDDEN
 10
6.4231265064499956
 20
-0.6999919897999974
 30
0.0
 11
6.4296883333499997
 21
-0.6926698238999977
 31
0.0
  0
POLYLINE
  5
D11
  8
HIDDEN
 66
     1
 10
0.0
 20
0.0
 30
0.0
  0
VERTEX
  5
81BD
  8
HIDDEN
 10
6.4294152813499963
 20
-0.6929631878000038
 30
0.0
  0
VERTEX
  5
81BE
  8
HIDDEN
 10
6.4362472474499981
 20
-0.685895109599997
 30
0.0
  0
VERTEX
  5
81BF
  8
HIDDEN
 10
6.439159487349996
 20
-0.6830452544999872
 30
0.0
  0
SEQEND
  5
81C0
  8
HIDDEN
  0
LINE
  5
D16
  8
HIDDEN
 10
5.2652244414499938
 20
-4.5386147572000013
 30
0.0
 11
2.8500550164499989
 21
-5.6355810228000003
 31
0.0
  0
LINE
  5
D3A
  8
HIDDEN
 10
6.4059063898499948
 20
-0.7224376707000105
 30
0.0
 11
6.4116019257499977
 21
-0.7144170052999997
 31
0.0
  0
LINE
  5
D3B
  8
HIDDEN
 10
6.4113634857500008
 20
-0.7147397068999979
 30
0.0
 11
6.4173566729499987
 21
-0.7069409021000013
 31
0.0
  0
LINE
  5
D3C
  8
HIDDEN
 10
6.4171062996500083
 20
-0.7072542859999871
 30
0.0
 11
6.4233884243499944
 21
-0.699688389900004
 31
0.0
  0
LINE
  5
D7F
  8
HIDDEN
 10
7.5916935349500028
 20
-0.4399999999999978
 30
0.0
 11
-7.5916935348499983
 21
-0.4399999999999978
 31
0.0
  0
LINE
  5
DAB
  8
HIDDEN
 10
6.3958805800499974
 20
-0.7384274181999971
 30
0.0
 11
6.4009563926500022
 21
-0.7299974527999993
 31
0.0
  0
LINE
  5
DAC
  8
HIDDEN
 10
6.4007429047500031
 20
-0.7303373272999992
 30
0.0
 11
6.4061325279499988
 21
-0.7221061336999953
 31
0.0
  0
POLYLINE
  5
DBC
  8
HIDDEN
 66
     1
 10
0.0
 20
0.0
 30
0.0
  0
VERTEX
  5
81C1
  8
HIDDEN
 10
-7.5408563016500016
 20
-0.0000000599999979
 30
0.0
  0
VERTEX
  5
81C2
  8
HIDDEN
 10
-7.5463254772499999
 20
-0.0001302299000017
 30
0.0
  0
VERTEX
  5
81C3
  8
HIDDEN
 10
-7.5517831838499978
 20
-0.0005095496999985
 30
0.0
  0
VERTEX
  5
81C4
  8
HIDDEN
 10
-7.5572180762500016
 20
-0.0011372509999958
 30
0.0
  0
VERTEX
  5
81C5
  8
HIDDEN
 10
-7.5626188716500016
 20
-0.0020120524999996
 30
0.0
  0
VERTEX
  5
81C6
  8
HIDDEN
 10
-7.5679743232500023
 20
-0.0031321538999975
 30
0.0
  0
VERTEX
  5
81C7
  8
HIDDEN
 10
-7.5732732446500002
 20
-0.0044952326999876
 30
0.0
  0
VERTEX
  5
81C8
  8
HIDDEN
 10
-7.5785046083500021
 20
-0.0060984654999956
 30
0.0
  0
VERTEX
  5
81C9
  8
HIDDEN
 10
-7.583657542850001
 20
-0.0079385336999991
 30
0.0
  0
VERTEX
  5
81CA
  8
HIDDEN
 10
-7.5887213075499993
 20
-0.010011614299998
 30
0.0
  0
VERTEX
  5
81CB
  8
HIDDEN
 10
-7.5936853725499978
 20
-0.0123134072000042
 30
0.0
  0
VERTEX
  5
81CC
  8
HIDDEN
 10
-7.5985394102499981
 20
-0.0148391347000043
 30
0.0
  0
VERTEX
  5
81CD
  8
HIDDEN
 10
-7.6032732961500002
 20
-0.0175835372000037
 30
0.0
  0
VERTEX
  5
81CE
  8
HIDDEN
 10
-7.6078771840500004
 20
-0.0205409128999961
 30
0.0
  0
VERTEX
  5
81CF
  8
HIDDEN
 10
-7.6123414985500011
 20
-0.0237051173999987
 30
0.0
  0
VERTEX
  5
81D0
  8
HIDDEN
 10
-7.6166569293500004
 20
-0.0270695557999972
 30
0.0
  0
VERTEX
  5
81D1
  8
HIDDEN
 10
-7.6208145001499998
 20
-0.0306272313000022
 30
0.0
  0
VERTEX
  5
81D2
  8
HIDDEN
 10
-7.6248055677499984
 20
-0.0343707488999954
 30
0.0
  0
VERTEX
  5
81D3
  8
HIDDEN
 10
-7.6286218175499982
 20
-0.0382923093999992
 30
0.0
  0
VERTEX
  5
81D4
  8
HIDDEN
 10
-7.6322553103499997
 20
-0.0423837511999992
 30
0.0
  0
VERTEX
  5
81D5
  8
HIDDEN
 10
-7.6356984981500018
 20
-0.046636571199997
 30
0.0
  0
VERTEX
  5
81D6
  8
HIDDEN
 10
-7.6389442240500003
 20
-0.0510419271000018
 30
0.0
  0
VERTEX
  5
81D7
  8
HIDDEN
 10
-7.6419857398499991
 20
-0.0555906567999998
 30
0.0
  0
VERTEX
  5
81D8
  8
HIDDEN
 10
-7.6448167232499991
 20
-0.0602733025000006
 30
0.0
  0
VERTEX
  5
81D9
  8
HIDDEN
 10
-7.6474312919499994
 20
-0.0650801317999879
 30
0.0
  0
VERTEX
  5
81DA
  8
HIDDEN
 10
-7.6498240101500024
 20
-0.0700011499000013
 30
0.0
  0
VERTEX
  5
81DB
  8
HIDDEN
 10
-7.6519899034500014
 20
-0.075026124099999
 30
0.0
  0
VERTEX
  5
81DC
  8
HIDDEN
 10
-7.6539244709499981
 20
-0.0801446114999962
 30
0.0
  0
VERTEX
  5
81DD
  8
HIDDEN
 10
-7.6556236900499988
 20
-0.0853459692999934
 30
0.0
  0
VERTEX
  5
81DE
  8
HIDDEN
 10
-7.6570840277499981
 20
-0.0906193826999982
 30
0.0
  0
VERTEX
  5
81DF
  8
HIDDEN
 10
-7.6583024485500033
 20
-0.0959538924000114
 30
0.0
  0
VERTEX
  5
81E0
  8
HIDDEN
 10
-7.6592764182500011
 20
-0.1013384067000018
 30
0.0
  0
VERTEX
  5
81E1
  8
HIDDEN
 10
-7.6600039108500013
 20
-0.1067617299999952
 30
0.0
  0
VERTEX
  5
81E2
  8
HIDDEN
 10
-7.6604834131500041
 20
-0.1122125913999881
 30
0.0
  0
VERTEX
  5
81E3
  8
HIDDEN
 10
-7.6607139266499997
 20
-0.1176796592999949
 30
0.0
  0
VERTEX
  5
81E4
  8
HIDDEN
 10
-7.660694970049998
 20
-0.1231515639999969
 30
0.0
  0
VERTEX
  5
81E5
  8
HIDDEN
 10
-7.6516569845500007
 20
-0.3820939697999961
 30
0.0
  0
SEQEND
  5
81E6
  8
HIDDEN
  0
LINE
  5
DC7
  8
0
 10
-7.5407363623499988
 20
0.0
 30
0.0
 11
7.5407363623499961
 21
0.0
 31
0.0
  0
LINE
  5
DD7
  8
HIDDEN
 10
6.3831690556499998
 20
-0.7637243689000002
 30
0.0
 11
6.38726092985
 21
-0.7547709898000008
 31
0.0
  0
LINE
  5
DDA
  8
HIDDEN
 10
6.3870872602499977
 20
-0.755132761299997
 30
0.0
 11
6.391513727450004
 21
-0.7463414533999995
 31
0.0
  0
LINE
  5
DDB
  8
HIDDEN
 10
6.3913264956499978
 20
-0.7466964580000024
 30
0.0
 11
6.3960810918500002
 21
-0.738079716999998
 31
0.0
  0
LINE
  5
DE8
  8
HIDDEN
 10
6.3733956098500002
 20
-0.7903080387999993
 30
0.0
 11
6.3764497143499952
 21
-0.7809457764999978
 31
0.0
  0
LINE
  5
DEE
  8
HIDDEN
 10
6.3763181953500023
 20
-0.7813245182999964
 30
0.0
 11
6.3797234004499961
 21
-0.7720854413999874
 31
0.0
  0
LINE
  5
DF0
  8
HIDDEN
 10
6.3795776106499948
 20
-0.7724590914999965
 30
0.0
 11
6.3833289035499936
 21
-0.7633563787999976
 31
0.0
  0
LINE
  5
DF1
  8
HIDDEN
 10
6.367612094750001
 20
-0.8130904122000117
 30
0.0
 11
5.7238550713500009
 21
-3.9632966023999989
 31
0.0
  0
LINE
  5
DF2
  8
HIDDEN
 10
6.3676121531499978
 20
-0.8130903547000016
 30
0.0
 11
6.3686653949499989
 21
-0.8081875442999972
 31
0.0
  0
LINE
  5
DF3
  8
HIDDEN
 10
6.3686097145500042
 20
-0.8084467350999987
 30
0.0
 11
6.3709166102499992
 21
-0.7990096811999976
 31
0.0
  0
LINE
  5
DF4
  8
HIDDEN
 10
6.3708141740499959
 20
-0.7993968697999989
 30
0.0
 11
6.373512669550002
 21
-0.7899247817000017
 31
0.0
  0
LINE
  5
DFA
  8
HIDDEN
 10
7.6606632616499928
 20
-0.1241879395999987
 30
0.0
 11
7.6516569845500007
 21
-0.3820939697999961
 31
0.0
  0
ARC
  5
E14
  8
HIDDEN
 10
-1.20066956415
 20
-0.5163985767999862
 30
0.0
 40
6.0
 50
183.99997113279991
 51
194.75349583609989
  0
ARC
  5
E15
  8
HIDDEN
 10
-5.0055765761500011
 20
-4.2097038815999879
 30
0.0
 40
1.379999999999999
 50
194.75336527269991
 51
245.5726453213999
  0
ARC
  5
E16
  8
HIDDEN
 10
-2.4618132167499982
 20
-5.3650773157999971
 30
0.0
 40
1.379999999999999
 50
245.5724366056001
 51
258.94866150230001
  0
ARC
  5
E17
  8
HIDDEN
 10
4.9302561488499981
 20
-3.801121541199997
 30
0.0
 40
0.8100000000000001
 50
294.4274762652002
 51
348.45040228949978
  0
ARC
  5
E18
  8
HIDDEN
 10
2.539899188550002
 20
-4.9527169349999971
 30
0.0
 40
0.7499999996
 50
281.0514571426001
 51
294.42747638800012
  0
ARC
  5
E1A
  8
HIDDEN
 10
1.2151371946499969
 20
-7.25
 30
0.0
 40
0.25
 50
270.0
 51
356.42366562499978
  0
ARC
  5
E1B
  8
HIDDEN
 10
-1.0051371946500001
 20
-7.25
 30
0.0
 40
0.25
 50
183.57633437499979
 51
270.0
  0
ARC
  5
E1C
  8
HIDDEN
 10
-7.3978411279499978
 20
-0.6299999999999955
 30
0.0
 40
0.19
 50
4.0000000000001661
 51
90.0
  0
ARC
  5
E1D
  8
0
 10
7.5407363623499961
 20
-0.1199999999999974
 30
0.0
 40
0.12
 50
358.0
 51
90.0
  0
ARC
  5
E1E
  8
HIDDEN
 10
7.5916935349500028
 20
-0.3799999999999954
 30
0.0
 40
0.06
 50
270.0
 51
358.0
  0
ATTDEF
  5
5439
  8
0
 62
     7
 10
-0.0045702606910112
 20
-0.0170429275669477
 30
0.0
 40
0.001
  1
VITREOUS CHINA
  3

  2
MATERIAL
 70
     8
  0
ATTDEF
  5
543A
  8
0
 62
     7
 10
-0.0045702606910112
 20
-0.015375927566943
 30
0.0
 40
0.001
  1
LAVATORY
  3

  2
PRODUCT
 70
     8
  0
ATTDEF
  5
543B
  8
0
 62
     7
 10
-0.0045702606910112
 20
-0.0137099275669499
 30
0.0
 40
0.001
  1
ARCHER
  3

  2
TRADENAME
 70
     8
  0
ATTDEF
  5
543C
  8
0
 62
     7
 10
-0.0045702606910112
 20
-0.0120429275669452
 30
0.0
 40
0.001
  1
K-2355
  3

  2
MODELNUMBER
 70
     8
  0
ENDSEC
  0
EOF
