  0
SECTION
  2
HEADER
  9
$ACADVER
  1
AC1009
  9
$INSBASE
 10
0.0
 20
0.0
 30
0.0
  9
$EXTMIN
 10
1.0000000000000000E+020
 20
1.0000000000000000E+020
 30
1.0000000000000000E+020
  9
$EXTMAX
 10
-1.0000000000000000E+020
 20
-1.0000000000000000E+020
 30
-1.0000000000000000E+020
  9
$LIMMIN
 10
0.0
 20
0.0
  9
$LIMMAX
 10
12.0
 20
9.0
  9
$ORTHOMODE
 70
     0
  9
$REGENMODE
 70
     1
  9
$FILLMODE
 70
     1
  9
$QTEXTMODE
 70
     0
  9
$MIRRTEXT
 70
     1
  9
$DRAGMODE
 70
     2
  9
$LTSCALE
 40
1.0
  9
$OSMODE
 70
     0
  9
$ATTMODE
 70
     1
  9
$TEXTSIZE
 40
0.2
  9
$TRACEWID
 40
0.05
  9
$TEXTSTYLE
  7
STANDARD
  9
$CLAYER
  8
0
  9
$CELTYPE
  6
BYLAYER
  9
$CECOLOR
 62
   256
  9
$DIMSCALE
 40
1.0
  9
$DIMASZ
 40
0.18
  9
$DIMEXO
 40
0.0625
  9
$DIMDLI
 40
0.38
  9
$DIMRND
 40
0.0
  9
$DIMDLE
 40
0.0
  9
$DIMEXE
 40
0.18
  9
$DIMTP
 40
0.0
  9
$DIMTM
 40
0.0
  9
$DIMTXT
 40
0.18
  9
$DIMCEN
 40
0.09
  9
$DIMTSZ
 40
0.0
  9
$DIMTOL
 70
     0
  9
$DIMLIM
 70
     0
  9
$DIMTIH
 70
     1
  9
$DIMTOH
 70
     1
  9
$DIMSE1
 70
     0
  9
$DIMSE2
 70
     0
  9
$DIMTAD
 70
     0
  9
$DIMZIN
 70
     0
  9
$DIMBLK
  1

  9
$DIMASO
 70
     1
  9
$DIMSHO
 70
     1
  9
$DIMPOST
  1

  9
$DIMAPOST
  1

  9
$DIMALT
 70
     0
  9
$DIMALTD
 70
     2
  9
$DIMALTF
 40
25.399999999999999
  9
$DIMLFAC
 40
1.0
  9
$DIMTOFL
 70
     0
  9
$DIMTVP
 40
0.0
  9
$DIMTIX
 70
     0
  9
$DIMSOXD
 70
     0
  9
$DIMSAH
 70
     0
  9
$DIMBLK1
  1

  9
$DIMBLK2
  1

  9
$DIMSTYLE
  2
STANDARD
  9
$DIMCLRD
 70
     0
  9
$DIMCLRE
 70
     0
  9
$DIMCLRT
 70
     0
  9
$DIMTFAC
 40
1.0
  9
$DIMGAP
 40
0.09
  9
$LUNITS
 70
     2
  9
$LUPREC
 70
     4
  9
$SKETCHINC
 40
0.1
  9
$FILLETRAD
 40
0.5
  9
$AUNITS
 70
     0
  9
$AUPREC
 70
     0
  9
$MENU
  1
.
  9
$ELEVATION
 40
0.0
  9
$PELEVATION
 40
0.0
  9
$THICKNESS
 40
0.0
  9
$LIMCHECK
 70
     0
  9
$BLIPMODE
 70
     0
  9
$CHAMFERA
 40
0.5
  9
$CHAMFERB
 40
0.5
  9
$SKPOLY
 70
     0
  9
$TDCREATE
 40
2451380.638765729
  9
$TDUPDATE
 40
2451380.674513889
  9
$TDINDWG
 40
0.0075616667
  9
$TDUSRTIMER
 40
0.0075526273
  9
$USRTIMER
 70
     1
  9
$ANGBASE
 50
0.0
  9
$ANGDIR
 70
     0
  9
$PDMODE
 70
     0
  9
$PDSIZE
 40
0.0
  9
$PLINEWID
 40
0.0
  9
$COORDS
 70
     0
  9
$SPLFRAME
 70
     0
  9
$SPLINETYPE
 70
     6
  9
$SPLINESEGS
 70
     8
  9
$ATTDIA
 70
     0
  9
$ATTREQ
 70
     1
  9
$HANDLING
 70
     1
  9
$HANDSEED
  5
52A
  9
$SURFTAB1
 70
     6
  9
$SURFTAB2
 70
     6
  9
$SURFTYPE
 70
     6
  9
$SURFU
 70
     6
  9
$SURFV
 70
     6
  9
$UCSNAME
  2

  9
$UCSORG
 10
0.0
 20
0.0
 30
0.0
  9
$UCSXDIR
 10
1.0
 20
0.0
 30
0.0
  9
$UCSYDIR
 10
0.0
 20
1.0
 30
0.0
  9
$PUCSNAME
  2

  9
$PUCSORG
 10
0.0
 20
0.0
 30
0.0
  9
$PUCSXDIR
 10
1.0
 20
0.0
 30
0.0
  9
$PUCSYDIR
 10
0.0
 20
1.0
 30
0.0
  9
$USERI1
 70
     0
  9
$USERI2
 70
     0
  9
$USERI3
 70
     0
  9
$USERI4
 70
     0
  9
$USERI5
 70
     0
  9
$USERR1
 40
0.0
  9
$USERR2
 40
0.0
  9
$USERR3
 40
0.0
  9
$USERR4
 40
0.0
  9
$USERR5
 40
0.0
  9
$WORLDVIEW
 70
     1
  9
$SHADEDGE
 70
     3
  9
$SHADEDIF
 70
    70
  9
$TILEMODE
 70
     1
  9
$MAXACTVP
 70
    64
  9
$PLIMCHECK
 70
     0
  9
$PEXTMIN
 10
1.0000000000000000E+020
 20
1.0000000000000000E+020
 30
1.0000000000000000E+020
  9
$PEXTMAX
 10
-1.0000000000000000E+020
 20
-1.0000000000000000E+020
 30
-1.0000000000000000E+020
  9
$PLIMMIN
 10
0.0
 20
0.0
  9
$PLIMMAX
 10
12.0
 20
9.0
  9
$UNITMODE
 70
     0
  9
$VISRETAIN
 70
     1
  9
$PLINEGEN
 70
     0
  9
$PSLTSCALE
 70
     1
  0
ENDSEC
  0
SECTION
  2
TABLES
  0
TABLE
  2
VPORT
 70
     1
  0
VPORT
  2
*ACTIVE
 70
     0
 10
0.0
 20
0.0
 11
1.0
 21
1.0
 12
1.493133306503295
 22
-2.8181276321411128
 13
0.0
 23
0.0
 14
0.5
 24
0.5
 15
0.5
 25
0.5
 16
-1.0
 26
-1.0
 36
1.0
 17
0.0
 27
0.0
 37
0.0
 40
28.906105279377339
 41
1.260163101609455
 42
50.0
 43
0.0
 44
0.0
 50
0.0
 51
0.0
 71
     0
 72
   100
 73
     1
 74
     3
 75
     0
 76
     0
 77
     0
 78
     0
  0
ENDTAB
  0
TABLE
  2
LTYPE
 70
     1
  0
LTYPE
  2
CONTINUOUS
 70
     0
  3
Solid line
 72
    65
 73
     0
 40
0.0
  0
ENDTAB
  0
TABLE
  2
LAYER
 70
     2
  0
LAYER
  2
0
 70
     0
 62
   111
  6
CONTINUOUS
  0
LAYER
  2
ASHADE
 70
     4
 62
     7
  6
CONTINUOUS
  0
ENDTAB
  0
TABLE
  2
STYLE
 70
     2
  0
STYLE
  2
STANDARD
 70
     0
 40
0.0
 41
1.0
 50
0.0
 71
     0
 42
0.2
  3
txt
  4

  0
STYLE
  2
ASHADE
 70
     0
 40
0.2
 41
1.0
 50
0.0
 71
     0
 42
0.2
  3
simplex
  4

  0
ENDTAB
  0
TABLE
  2
VIEW
 70
     0
  0
ENDTAB
  0
TABLE
  2
UCS
 70
     0
  0
ENDTAB
  0
TABLE
  2
APPID
 70
     7
  0
APPID
  2
ACAD
 70
     0
  0
APPID
  2
AVE_RENDER
 70
     0
  0
APPID
  2
AVE_ENTITY_MATERIAL
 70
     0
  0
APPID
  2
AVE_FINISH
 70
     0
  0
APPID
  2
AVE_MATERIAL
 70
     0
  0
APPID
  2
AVE_GLOBAL
 70
     0
  0
APPID
  2
ACAD_MLEADERVER
 70
     0
  0
ENDTAB
  0
TABLE
  2
DIMSTYLE
 70
     1
  0
DIMSTYLE
  2
STANDARD
 70
     0
  3

  4

  5

  6

  7

 40
1.0
 41
0.18
 42
0.0625
 43
0.38
 44
0.18
 45
0.0
 46
0.0
 47
0.0
 48
0.0
140
0.18
141
0.09
142
0.0
143
25.399999999999999
144
1.0
145
0.0
146
1.0
147
0.09
 71
     0
 72
     0
 73
     1
 74
     1
 75
     0
 76
     0
 77
     0
 78
     0
170
     0
171
     2
172
     0
173
     0
174
     0
175
     0
176
     0
177
     0
178
     0
  0
ENDTAB
  0
ENDSEC
  0
SECTION
  2
BLOCKS
  0
BLOCK
  8
0
  2
$MODEL_SPACE
 70
     0
 10
0.0
 20
0.0
 30
0.0
  3
$MODEL_SPACE
  1

  0
ENDBLK
  5
21
  8
0
  0
BLOCK
 67
     1
  8
0
  2
$PAPER_SPACE
 70
     0
 10
0.0
 20
0.0
 30
0.0
  3
$PAPER_SPACE
  1

  0
ENDBLK
  5
1D
 67
     1
  8
0
  0
BLOCK
  8
0
  2
DIRECT
 70
     2
 10
0.0
 20
0.0
 30
0.0
  3
DIRECT
  1

  0
ATTDEF
  5
2F
  8
ASHADE
  6
CONTINUOUS
 62
     1
 10
0.0
 20
-0.1
 30
0.0
 40
0.2
  1

  7
ASHADE
 72
     1
 11
0.0
 21
-0.1
 31
0.0
  3
Light Name
  2
SNAME
 70
     0
  0
ARC
  5
30
  8
ASHADE
  6
CONTINUOUS
 62
     7
 10
0.0
 20
0.0
 30
0.0
 40
0.3
 50
205.67928861945691
 51
334.32071138054312
  0
ARC
  5
31
  8
ASHADE
  6
CONTINUOUS
 62
     7
 10
0.0
 20
0.0
 30
0.0
 40
0.3
 50
25.679288619456852
 51
154.32071138054309
  0
LINE
  5
32
  8
ASHADE
  6
CONTINUOUS
 62
     7
 10
-0.21
 20
0.2142428528562855
 30
0.0
 11
-0.21
 21
0.5
 31
0.0
  0
LINE
  5
33
  8
ASHADE
  6
CONTINUOUS
 62
     7
 10
-0.11
 20
0.2791057147390572
 30
0.0
 11
-0.11
 21
0.5
 31
0.0
  0
LINE
  5
34
  8
ASHADE
  6
CONTINUOUS
 62
     7
 10
0.21
 20
0.2142428528562855
 30
0.0
 11
0.21
 21
0.5
 31
0.0
  0
ATTDEF
  5
35
  8
ASHADE
  6
CONTINUOUS
 62
     7
 10
0.0
 20
0.25
 30
0.0
 40
0.01
  1

  3
Look-at Y
  2
LAY
 70
     1
  0
ATTDEF
  5
36
  8
ASHADE
  6
CONTINUOUS
 62
     7
 10
0.0
 20
0.22
 30
0.0
 40
0.01
  1
1
  3
Light Intensity
  2
INTENSITY
 70
     1
  0
ATTDEF
  5
37
  8
ASHADE
  6
CONTINUOUS
 62
     7
 10
0.0
 20
0.16
 30
0.0
 40
0.01
  1
-1
  3
*not used*
  2
BEAMD
 70
     1
  0
ATTDEF
  5
38
  8
ASHADE
  6
CONTINUOUS
 62
     7
 10
0.0
 20
0.175
 30
0.0
 40
0.01
  1
-1
  3
*not used*
  2
CONED
 70
     1
  0
ATTDEF
  5
39
  8
ASHADE
  6
CONTINUOUS
 62
     7
 10
0.0
 20
0.19
 30
0.0
 40
0.01
  1
0
  3
Depth Map Size
  2
CONEA
 70
     1
  0
ATTDEF
  5
3A
  8
ASHADE
  6
CONTINUOUS
 62
     7
 10
0.0
 20
0.2050000000000001
 30
0.0
 40
0.01
  1
1,1,1
  3
Light Color (RGB)
  2
COLOR
 70
     1
  0
ATTDEF
  5
3B
  8
ASHADE
  6
CONTINUOUS
 62
     7
 10
0.0
 20
0.235
 30
0.0
 40
0.01
  1

  3
Look-at Z
  2
LAZ
 70
     1
  0
LINE
  5
3C
  8
ASHADE
  6
CONTINUOUS
 62
     7
 10
0.0
 20
0.3
 30
0.0
 11
0.0
 21
0.5
 31
0.0
  0
LINE
  5
3D
  8
ASHADE
  6
CONTINUOUS
 62
     7
 10
0.11
 20
0.2791057147390572
 30
0.0
 11
0.11
 21
0.5
 31
0.0
  0
ATTDEF
  5
3E
  8
ASHADE
  6
CONTINUOUS
 62
     7
 10
0.0
 20
0.265
 30
0.0
 40
0.01
  1

  3
Look-at X
  2
LAX
 70
     1
  0
ATTDEF
  5
3F
  8
ASHADE
  6
CONTINUOUS
 62
     7
 10
0.0
 20
0.28
 30
0.0
 40
0.01
  1

  3

  2
GNAME
 70
     1
  0
ENDBLK
  5
41
  8
0
  0
BLOCK
  8
0
  2
OVERHEAD
 70
     2
 10
0.0
 20
0.0
 30
0.0
  3
OVERHEAD
  1

  0
ATTDEF
  5
43
  8
ASHADE
  6
CONTINUOUS
 62
     1
 10
0.0
 20
-0.1
 30
0.0
 40
0.2
  1

  7
ASHADE
 72
     1
 11
0.0
 21
-0.1
 31
0.0
  3
Light Name
  2
SNAME
 70
     0
  0
ARC
  5
44
  8
ASHADE
  6
CONTINUOUS
 62
     7
 10
0.0
 20
0.0
 30
0.0
 40
0.3
 50
205.67928861945691
 51
334.32071138054312
  0
LINE
  5
45
  8
ASHADE
  6
CONTINUOUS
 62
     7
 10
-0.2041413561583015
 20
-0.2198324514393848
 30
0.0
 11
-0.2721884748777353
 21
-0.2931099352525131
 31
0.0
  0
LINE
  5
46
  8
ASHADE
  6
CONTINUOUS
 62
     7
 10
-0.1096591641591904
 20
-0.2792398032442862
 30
0.0
 11
-0.1279356915190555
 21
-0.3257797704516673
 31
0.0
  0
LINE
  5
47
  8
ASHADE
  6
CONTINUOUS
 62
     7
 10
0.0
 20
-0.2999999999999999
 30
0.0
 11
0.0
 21
-0.4
 31
0.0
  0
LINE
  5
48
  8
ASHADE
  6
CONTINUOUS
 62
     7
 10
0.1096591641591904
 20
-0.2792398032442862
 30
0.0
 11
0.1279356915190555
 21
-0.3257797704516673
 31
0.0
  0
LINE
  5
49
  8
ASHADE
  6
CONTINUOUS
 62
     7
 10
0.2041413561583015
 20
-0.2198324514393848
 30
0.0
 11
0.2721884748777353
 21
-0.2931099352525131
 31
0.0
  0
ARC
  5
4A
  8
ASHADE
  6
CONTINUOUS
 62
     7
 10
0.0
 20
0.0
 30
0.0
 40
0.3
 50
25.679288619456852
 51
154.32071138054309
  0
LINE
  5
4B
  8
ASHADE
  6
CONTINUOUS
 62
     7
 10
-0.2703701166919155
 20
0.13
 30
0.0
 11
-0.3154318028072347
 21
0.1516666666666666
 31
0.0
  0
LINE
  5
4C
  8
ASHADE
  6
CONTINUOUS
 62
     7
 10
-0.2703701166919155
 20
-0.13
 30
0.0
 11
-0.3154318028072347
 21
-0.1516666666666666
 31
0.0
  0
LINE
  5
4D
  8
ASHADE
  6
CONTINUOUS
 62
     7
 10
-0.2041413561583015
 20
0.2198324514393849
 30
0.0
 11
-0.2721884748777353
 21
0.2931099352525131
 31
0.0
  0
LINE
  5
4E
  8
ASHADE
  6
CONTINUOUS
 62
     7
 10
-0.1096591641591904
 20
0.2792398032442862
 30
0.0
 11
-0.1279356915190555
 21
0.3257797704516674
 31
0.0
  0
LINE
  5
4F
  8
ASHADE
  6
CONTINUOUS
 62
     7
 10
0.2703701166919155
 20
-0.13
 30
0.0
 11
0.3154318028072347
 21
-0.1516666666666666
 31
0.0
  0
LINE
  5
50
  8
ASHADE
  6
CONTINUOUS
 62
     7
 10
0.2703701166919155
 20
0.13
 30
0.0
 11
0.3154318028072347
 21
0.1516666666666666
 31
0.0
  0
LINE
  5
51
  8
ASHADE
  6
CONTINUOUS
 62
     7
 10
0.0
 20
0.3
 30
0.0
 11
0.0
 21
0.4
 31
0.0
  0
ATTDEF
  5
52
  8
ASHADE
  6
CONTINUOUS
 62
     7
 10
0.0
 20
0.22
 30
0.0
 40
0.01
  1
1
  3
Light Intensity
  2
INTENSITY
 70
     1
  0
ATTDEF
  5
53
  8
ASHADE
  6
CONTINUOUS
 62
     7
 10
0.0
 20
0.16
 30
0.0
 40
0.01
  1
-1
  3
*not used*
  2
BEAMD
 70
     1
  0
ATTDEF
  5
54
  8
ASHADE
  6
CONTINUOUS
 62
     7
 10
0.0
 20
0.175
 30
0.0
 40
0.01
  1
-1
  3
*not used*
  2
CONED
 70
     1
  0
ATTDEF
  5
55
  8
ASHADE
  6
CONTINUOUS
 62
     7
 10
0.0
 20
0.19
 30
0.0
 40
0.01
  1
0
  3
Depth Map Size
  2
CONEA
 70
     1
  0
ATTDEF
  5
56
  8
ASHADE
  6
CONTINUOUS
 62
     7
 10
0.0
 20
0.2050000000000001
 30
0.0
 40
0.01
  1
1,1,1
  3
Light Color (RGB)
  2
COLOR
 70
     1
  0
ATTDEF
  5
57
  8
ASHADE
  6
CONTINUOUS
 62
     7
 10
0.0
 20
0.235
 30
0.0
 40
0.01
  1

  3
Look-at Z
  2
LAZ
 70
     1
  0
ATTDEF
  5
58
  8
ASHADE
  6
CONTINUOUS
 62
     7
 10
0.0
 20
0.25
 30
0.0
 40
0.01
  1

  3
Look-at Y
  2
LAY
 70
     1
  0
ATTDEF
  5
59
  8
ASHADE
  6
CONTINUOUS
 62
     7
 10
0.0
 20
0.265
 30
0.0
 40
0.01
  1

  3
Look-at X
  2
LAX
 70
     1
  0
ATTDEF
  5
5A
  8
ASHADE
  6
CONTINUOUS
 62
     7
 10
0.0
 20
0.28
 30
0.0
 40
0.01
  1

  3

  2
GNAME
 70
     1
  0
LINE
  5
5B
  8
ASHADE
  6
CONTINUOUS
 62
     7
 10
0.1096591641591904
 20
0.2792398032442862
 30
0.0
 11
0.1279356915190555
 21
0.3257797704516674
 31
0.0
  0
LINE
  5
5C
  8
ASHADE
  6
CONTINUOUS
 62
     7
 10
0.2041413561583015
 20
0.2198324514393849
 30
0.0
 11
0.2721884748777353
 21
0.2931099352525131
 31
0.0
  0
ENDBLK
  5
5E
  8
0
  0
BLOCK
  8
0
  2
SH_SPOT
 70
     2
 10
0.0
 20
0.0
 30
0.0
  3
SH_SPOT
  1

  0
LINE
  5
60
  8
ASHADE
  6
CONTINUOUS
 62
     7
 10
0.25
 20
0.26
 30
0.0
 11
-0.25
 21
0.26
 31
0.0
  0
LINE
  5
61
  8
ASHADE
  6
CONTINUOUS
 62
     7
 10
-0.25
 20
-0.3399999999999999
 30
0.0
 11
0.25
 21
-0.3399999999999999
 31
0.0
  0
ATTDEF
  5
62
  8
ASHADE
  6
CONTINUOUS
 62
     1
 10
0.0
 20
-0.1
 30
0.0
 40
0.2
  1

  7
ASHADE
 72
     1
 11
0.0
 21
-0.1
 31
0.0
  3
Light Name
  2
SNAME
 70
     0
  0
LINE
  5
63
  8
ASHADE
  6
CONTINUOUS
 62
     7
 10
-0.25
 20
-0.13
 30
0.0
 11
-0.25
 21
-0.3399999999999999
 31
0.0
  0
LINE
  5
64
  8
ASHADE
  6
CONTINUOUS
 62
     7
 10
-0.25
 20
-0.18
 30
0.0
 11
-0.29
 21
-0.18
 31
0.0
  0
LINE
  5
65
  8
ASHADE
  6
CONTINUOUS
 62
     7
 10
-0.29
 20
-0.22
 30
0.0
 11
-0.25
 21
-0.22
 31
0.0
  0
LINE
  5
66
  8
ASHADE
  6
CONTINUOUS
 62
     7
 10
-0.29
 20
-0.18
 30
0.0
 11
-0.29
 21
-0.22
 31
0.0
  0
LINE
  5
67
  8
ASHADE
  6
CONTINUOUS
 62
     7
 10
-0.1045454545454545
 20
0.26
 30
0.0
 11
-0.15
 21
0.46
 31
0.0
  0
LINE
  5
68
  8
ASHADE
  6
CONTINUOUS
 62
     7
 10
-0.21
 20
0.26
 30
0.0
 11
-0.301304347826087
 21
0.46
 31
0.0
  0
LINE
  5
69
  8
ASHADE
  6
CONTINUOUS
 62
     7
 10
-0.25
 20
0.26
 30
0.0
 11
-0.25
 21
0.13
 31
0.0
  0
LINE
  5
6A
  8
ASHADE
  6
CONTINUOUS
 62
     7
 10
-0.25
 20
0.22
 30
0.0
 11
-0.29
 21
0.22
 31
0.0
  0
LINE
  5
6B
  8
ASHADE
  6
CONTINUOUS
 62
     7
 10
-0.29
 20
0.1799999999999999
 30
0.0
 11
-0.25
 21
0.1799999999999999
 31
0.0
  0
LINE
  5
6C
  8
ASHADE
  6
CONTINUOUS
 62
     7
 10
-0.29
 20
0.22
 30
0.0
 11
-0.29
 21
0.1799999999999999
 31
0.0
  0
ATTDEF
  5
6D
  8
ASHADE
  6
CONTINUOUS
 62
     7
 10
0.0
 20
-0.24
 30
0.0
 40
0.01
  1
0
  3
Depth Map Size
  2
ZSIZE
 70
     1
  0
ATTDEF
  5
6E
  8
ASHADE
  6
CONTINUOUS
 62
     7
 10
0.0
 20
-0.3300000000000001
 30
0.0
 40
0.01
  1
0,0,0
  3
Look-from XYZ
  2
LFXYZ
 70
     1
  0
ATTDEF
  5
6F
  8
ASHADE
  6
CONTINUOUS
 62
     7
 10
0.0
 20
-0.315
 30
0.0
 40
0.01
  1
0.0
  3
Beam Distribution
  2
BEAMDI
 70
     1
  0
ATTDEF
  5
70
  8
ASHADE
  6
CONTINUOUS
 62
     7
 10
0.0
 20
-0.3
 30
0.0
 40
0.01
  1
0.0
  3
Cone Delta
  2
CONEDE
 70
     1
  0
ATTDEF
  5
71
  8
ASHADE
  6
CONTINUOUS
 62
     7
 10
0.0
 20
-0.2850000000000001
 30
0.0
 40
0.01
  1
10.0
  3
Cone Angle
  2
CONEAN
 70
     1
  0
ATTDEF
  5
72
  8
ASHADE
  6
CONTINUOUS
 62
     7
 10
0.0
 20
-0.27
 30
0.0
 40
0.01
  1
-1
  3
*not used*
  2
BIASMAX
 70
     1
  0
ATTDEF
  5
73
  8
ASHADE
  6
CONTINUOUS
 62
     7
 10
0.0
 20
-0.255
 30
0.0
 40
0.01
  1
-1
  3
*not used*
  2
BIASMIN
 70
     1
  0
ATTDEF
  5
74
  8
ASHADE
  6
CONTINUOUS
 62
     7
 10
0.0
 20
-0.225
 30
0.0
 40
0.01
  1
1,1,1
  3
Light Color (RGB)
  2
COLOR
 70
     1
  0
ATTDEF
  5
75
  8
ASHADE
  6
CONTINUOUS
 62
     7
 10
0.0
 20
-0.21
 30
0.0
 40
0.01
  1
1
  3
Light Intensity
  2
INTENSITY
 70
     1
  0
ATTDEF
  5
76
  8
ASHADE
  6
CONTINUOUS
 62
     7
 10
0.0
 20
-0.15
 30
0.0
 40
0.01
  1

  3

  2
GNAME
 70
     1
  0
ATTDEF
  5
77
  8
ASHADE
  6
CONTINUOUS
 62
     7
 10
0.0
 20
-0.195
 30
0.0
 40
0.01
  1

  3
Look-at Z
  2
LAZ
 70
     1
  0
ATTDEF
  5
78
  8
ASHADE
  6
CONTINUOUS
 62
     7
 10
0.0
 20
-0.18
 30
0.0
 40
0.01
  1

  3
Look-at Y
  2
LAY
 70
     1
  0
ATTDEF
  5
79
  8
ASHADE
  6
CONTINUOUS
 62
     7
 10
0.0
 20
-0.165
 30
0.0
 40
0.01
  1

  3
Look-at X
  2
LAX
 70
     1
  0
LINE
  5
7A
  8
ASHADE
  6
CONTINUOUS
 62
     7
 10
0.25
 20
-0.3399999999999999
 30
0.0
 11
0.25
 21
-0.13
 31
0.0
  0
LINE
  5
7B
  8
ASHADE
  6
CONTINUOUS
 62
     7
 10
0.25
 20
-0.18
 30
0.0
 11
0.29
 21
-0.18
 31
0.0
  0
LINE
  5
7C
  8
ASHADE
  6
CONTINUOUS
 62
     7
 10
0.29
 20
-0.22
 30
0.0
 11
0.25
 21
-0.22
 31
0.0
  0
LINE
  5
7D
  8
ASHADE
  6
CONTINUOUS
 62
     7
 10
0.29
 20
-0.18
 30
0.0
 11
0.29
 21
-0.22
 31
0.0
  0
LINE
  5
7E
  8
ASHADE
  6
CONTINUOUS
 62
     7
 10
0.21
 20
0.26
 30
0.0
 11
0.301304347826087
 21
0.46
 31
0.0
  0
LINE
  5
7F
  8
ASHADE
  6
CONTINUOUS
 62
     7
 10
0.1045454545454545
 20
0.26
 30
0.0
 11
0.15
 21
0.46
 31
0.0
  0
LINE
  5
80
  8
ASHADE
  6
CONTINUOUS
 62
     7
 10
0.0
 20
0.26
 30
0.0
 11
0.0
 21
0.46
 31
0.0
  0
LINE
  5
81
  8
ASHADE
  6
CONTINUOUS
 62
     7
 10
0.25
 20
0.13
 30
0.0
 11
0.25
 21
0.26
 31
0.0
  0
LINE
  5
82
  8
ASHADE
  6
CONTINUOUS
 62
     7
 10
0.25
 20
0.22
 30
0.0
 11
0.29
 21
0.22
 31
0.0
  0
LINE
  5
83
  8
ASHADE
  6
CONTINUOUS
 62
     7
 10
0.29
 20
0.1799999999999999
 30
0.0
 11
0.25
 21
0.1799999999999999
 31
0.0
  0
LINE
  5
84
  8
ASHADE
  6
CONTINUOUS
 62
     7
 10
0.29
 20
0.22
 30
0.0
 11
0.29
 21
0.1799999999999999
 31
0.0
  0
ENDBLK
  5
86
  8
0
  0
BLOCK
  8
ASHADE
  2
AVE_RENDER
 70
     0
 10
0.0
 20
0.0
 30
0.0
  3
AVE_RENDER
  1
AVE_RENDER
  0
ENDBLK
  5
93
  8
0
  0
BLOCK
  8
ASHADE
  2
AVE_GLOBAL
 70
     0
 10
0.0
 20
0.0
 30
0.0
  3
AVE_GLOBAL
  1
AVE_GLOBAL
  0
ENDBLK
  5
A1
  8
0
  0
ENDSEC
  0
SECTION
  2
ENTITIES
  0
INSERT
  5
94
  8
ASHADE
 62
     1
  2
AVE_RENDER
 10
0.0
 20
0.0
 30
0.0
1001
AVE_RENDER
1002
{
1070
     7
1000
Pref
1070
    30
1070
    20
1070
     1
1070
     0
1000

1070
    10
1070
     1
1070
    10
1040
1.0
1070
     1
1040
0.3
1040
0.7
1040
0.0
1040
10.0
1010
-1.0
1020
-1.0
1030
-1.0
1040
0.3
1070
    49
1070
     0
1070
     0
1010
1.0
1020
1.0
1030
1.0
1040
45.0
1070
     1
1070
     0
1000
WCS
1040
0.0
1070
     0
1040
10.0
1002
}
  0
INSERT
  5
95
  8
ASHADE
 62
     3
  2
AVE_RENDER
 10
0.0
 20
0.0
 30
0.0
1001
AVE_RENDER
1002
{
1070
     0
1000
Full Opt
1070
     0
1070
     1
1070
     1
1070
     1
1070
     0
1070
     0
1070
     0
1070
     1
1070
     1
1040
0.0001
1040
0.0001
1002
}
  0
INSERT
  5
96
  8
ASHADE
 62
     4
  2
AVE_RENDER
 10
0.0
 20
0.0
 30
0.0
1001
AVE_RENDER
1002
{
1070
     0
1000
Quick Opt
1070
     0
1070
     1
1070
     1
1070
     1
1070
     0
1070
     0
1070
     1
1002
}
  0
INSERT
  5
97
  8
ASHADE
 62
     5
  2
AVE_RENDER
 10
0.0
 20
0.0
 30
0.0
1001
AVE_RENDER
1002
{
1070
     1
1000
Scanl Opt
1070
     2
1070
     0
1070
     2
1040
2.0
1040
4.0
1070
     0
1070
     1
1070
     0
1040
0.03
1002
}
  0
INSERT
  5
98
  8
ASHADE
 62
     6
  2
AVE_RENDER
 10
0.0
 20
0.0
 30
0.0
1001
AVE_RENDER
1002
{
1070
     2
1000
Raytr Opt
1070
     2
1070
     0
1070
     2
1040
2.0
1040
4.0
1070
     0
1070
     1
1070
     1
1040
0.03
1070
     3
1040
0.03
1002
}
  0
INSERT
  5
99
  8
ASHADE
 62
     7
  2
AVE_RENDER
 10
0.0
 20
0.0
 30
0.0
1001
AVE_RENDER
1002
{
1070
     0
1000
RFile Opt
1070
     1
1070
   640
1070
   480
1070
 10000
1070
     1
1070
     8
1070
     8
1070
     0
1070
     0
1070
     0
1070
     0
1070
     0
1070
     0
1070
     0
1002
}
  0
INSERT
  5
9A
  8
ASHADE
 62
     8
  2
AVE_RENDER
 10
0.0
 20
0.0
 30
0.0
1001
AVE_RENDER
1002
{
1070
     0
1000
Fog Opt
1070
     0
1070
     0
1040
0.0
1040
1.0
1040
0.0
1040
1.0
1010
0.5
1020
0.5
1030
0.5
1002
}
  0
INSERT
  5
9B
  8
ASHADE
 62
     9
  2
AVE_RENDER
 10
0.0
 20
0.0
 30
0.0
1001
AVE_RENDER
1002
{
1070
     0
1000
BG Opt
1070
     0
1070
     1
1010
0.0
1020
0.0
1030
0.0
1010
1.0
1020
0.0
1030
0.0
1010
0.0
1020
1.0
1030
0.0
1010
0.0
1020
0.0
1030
1.0
1040
0.5
1040
0.33
1040
0.0
1000

1070
     1
1000

1070
     1
1070
     1
1040
1.0
1040
1.0
1040
0.0
1040
0.0
1070
     0
1002
}
  0
INSERT
  5
A2
  8
ASHADE
 62
     1
  2
AVE_GLOBAL
 10
0.0
 20
0.0
 30
0.0
1001
AVE_MATERIAL
1002
{
1000
*GLOBAL*
1000
2
1000
Global finish.
1002
{
1002
}
1002
{
1070
    63
1002
{
1002
{
1010
-1.0
1020
-1.0
1030
-1.0
1002
}
1040
0.1000000014901161
1000

1040
0.0
1002
{
1002
}
1040
0.0
1002
{
1002
}
1040
0.0
1002
}
1002
{
1002
{
1010
-1.0
1020
-1.0
1030
-1.0
1002
}
1040
0.699999988079071
1000

1040
0.0
1002
{
1002
}
1040
0.0
1002
{
1002
}
1040
0.0
1002
}
1002
{
1002
{
1010
-1.0
1020
-1.0
1030
-1.0
1002
}
1040
0.2000000029802322
1000

1040
0.0
1002
{
1002
}
1040
0.0
1002
{
1002
}
1040
0.0
1002
}
1002
{
1070
     0
1002
{
1070
     1
1002
{
1040
1.0
1040
1.0
1000

1040
0.0
1002
{
1002
}
1040
0.0
1002
{
1002
}
1040
0.0
1002
}
1002
}
1040
1.0
1040
0.0
1040
0.0
1002
}
1002
{
1040
1.0
1040
1.0
1000

1040
0.0
1002
{
1002
}
1040
0.0
1002
{
1002
}
1040
0.0
1002
}
1002
{
1040
0.5
1040
1.0
1000

1040
0.0
1002
{
1002
}
1040
0.0
1002
{
1002
}
1040
0.0
1002
}
1002
{
1070
     0
1040
0.0
1002
{
1002
}
1040
1.0
1002
{
1002
}
1040
0.0
1002
}
1002
{
1040
0.0
1002
{
1002
{
1010
0.0
1020
0.0
1030
0.0
1002
}
1040
1.0
1000

1040
0.0
1002
{
1002
}
1040
0.0
1002
{
1002
}
1040
0.0
1002
}
1002
}
1002
{
1002
{
1070
     1
1002
{
1040
0.0
1040
1.0
1000

1040
0.0
1002
{
1002
}
1040
0.0
1002
{
1002
}
1040
0.0
1002
}
1002
}
1040
0.0
1002
{
1002
}
1010
1.0
1020
0.0
1030
0.0
1010
0.0
1020
1.0
1030
0.0
1010
0.0
1020
0.0
1030
1.0
1070
     0
1002
}
1002
{
1002
{
1040
1.0
1040
1.0
1002
{
1070
     1
1002
{
1040
1.0
1040
1.0
1000

1040
0.0
1002
{
1002
}
1040
0.0
1002
{
1002
}
1040
0.0
1002
}
1002
}
1002
}
1070
     0
1040
0.0
1002
{
1002
}
1002
}
1002
{
1002
}
1002
}
1002
{
1071
        3
1070
     3
1070
     0
1002
{
1070
     2
1070
     0
1070
     0
1040
0.0
1002
}
1070
     0
1070
     2
1002
{
1002
}
1002
}
1002
{
1040
8030.0
1040
190.30000305175781
1040
0.3050000071525574
1040
228.0
1040
545.0
1040
14.0
1040
17.39999961853027
1040
0.4560000002384186
1002
}
1002
}
  0
POLYLINE
  5
FC
  8
0
 62
    21
 66
     1
 10
0.0
 20
0.0
 30
0.0
 70
    64
 71
   352
 72
   690
  0
VERTEX
  5
FD
  8
0
 62
    21
 10
-10.14688110351562
 20
-9.2140951156616211
 30
0.3763535022735596
 70
   192
  0
VERTEX
  5
FE
  8
0
 62
    21
 10
-7.3050694465637198
 20
-9.7984790802001953
 30
0.3763535022735596
 70
   192
  0
VERTEX
  5
FF
  8
0
 62
    21
 10
-3.0777335166931148
 20
-10.441152572631831
 30
0.3763535022735596
 70
   192
  0
VERTEX
  5
100
  8
0
 62
    21
 10
1.165618777275085
 20
-10.66428756713867
 30
0.3763535022735596
 70
   192
  0
VERTEX
  5
101
  8
0
 62
    21
 10
5.288794994354248
 20
-10.441152572631831
 30
0.3763535022735596
 70
   192
  0
VERTEX
  5
102
  8
0
 62
    21
 10
9.5449790954589844
 20
-9.7984790802001953
 30
0.3763535022735596
 70
   192
  0
VERTEX
  5
103
  8
0
 62
    21
 10
12.47811794281006
 20
-9.2140951156616211
 30
0.3763535022735596
 70
   192
  0
VERTEX
  5
104
  8
0
 62
    21
 10
-10.14688110351562
 20
-6.2841596603393546
 30
0.3763535022735596
 70
   192
  0
VERTEX
  5
105
  8
0
 62
    21
 10
-7.3050694465637198
 20
-7.1419353485107422
 30
0.3763535022735596
 70
   192
  0
VERTEX
  5
106
  8
0
 62
    21
 10
-3.0641660690307608
 20
-7.5354504585266113
 30
0.2244808524847031
 70
   192
  0
VERTEX
  5
107
  8
0
 62
    21
 10
1.1654847860336299
 20
-7.7578115463256827
 30
0.2242922037839889
 70
   192
  0
VERTEX
  5
108
  8
0
 62
    21
 10
5.2753477096557608
 20
-7.5354504585266113
 30
0.2244740873575211
 70
   192
  0
VERTEX
  5
109
  8
0
 62
    21
 10
9.6912984848022461
 20
-6.8318676948547363
 30
0.3314407169818878
 70
   192
  0
VERTEX
  5
10A
  8
0
 62
    21
 10
12.47811794281006
 20
-6.2841596603393546
 30
0.3763535022735596
 70
   192
  0
VERTEX
  5
10B
  8
0
 62
    21
 10
-10.14688110351562
 20
-2.0195350646972652
 30
0.3763535022735596
 70
   192
  0
VERTEX
  5
10C
  8
0
 62
    21
 10
-7.257455348968505
 20
-2.0118930339813228
 30
0.1106646358966827
 70
   192
  0
VERTEX
  5
10D
  8
0
 62
    21
 10
0.0788871049880982
 20
-1.0031914710998531
 30
-5.7440404891967773
 70
   192
  0
VERTEX
  5
10E
  8
0
 62
    21
 10
1.134471893310546
 20
-1.0031914710998531
 30
-5.7440404891967773
 70
   192
  0
VERTEX
  5
10F
  8
0
 62
    21
 10
2.160161018371582
 20
-1.0031914710998531
 30
-5.7440404891967773
 70
   192
  0
VERTEX
  5
110
  8
0
 62
    21
 10
9.8149795532226562
 20
-2.0195350646972652
 30
0.3763535022735596
 70
   192
  0
VERTEX
  5
111
  8
0
 62
    21
 10
12.47811794281006
 20
-2.0195350646972652
 30
0.3763535022735596
 70
   192
  0
VERTEX
  5
112
  8
0
 62
    21
 10
-10.14688110351562
 20
1.577745199203491
 30
0.3763535022735596
 70
   192
  0
VERTEX
  5
113
  8
0
 62
    21
 10
-7.257455348968505
 20
1.565067410469055
 30
0.1106646358966827
 70
   192
  0
VERTEX
  5
114
  8
0
 62
    21
 10
0.0788871049880982
 20
-0.1083250567317009
 30
-5.7440404891967773
 70
   192
  0
VERTEX
  5
115
  8
0
 62
    21
 10
1.134471893310546
 20
-0.1083250567317009
 30
-5.7440404891967773
 70
   192
  0
VERTEX
  5
116
  8
0
 62
    21
 10
2.160161018371582
 20
-0.1083252355456352
 30
-5.7440404891967773
 70
   192
  0
VERTEX
  5
117
  8
0
 62
    21
 10
9.8149795532226562
 20
1.577745199203491
 30
0.3763535022735596
 70
   192
  0
VERTEX
  5
118
  8
0
 62
    21
 10
12.47811794281006
 20
1.577745199203491
 30
0.3763535022735596
 70
   192
  0
VERTEX
  5
119
  8
0
 62
    21
 10
-10.14688110351562
 20
4.2900519371032706
 30
0.3763535022735596
 70
   192
  0
VERTEX
  5
11A
  8
0
 62
    21
 10
-7.257455348968505
 20
4.2620534896850577
 30
0.1106646656990051
 70
   192
  0
VERTEX
  5
11B
  8
0
 62
    21
 10
-3.053752899169921
 20
4.2617640495300293
 30
0.1079167723655701
 70
   192
  0
VERTEX
  5
11C
  8
0
 62
    21
 10
1.1653821468353269
 20
4.2617640495300293
 30
0.1079167425632477
 70
   192
  0
VERTEX
  5
11D
  8
0
 62
    21
 10
5.2650275230407706
 20
4.2617640495300293
 30
0.1079168021678925
 70
   192
  0
VERTEX
  5
11E
  8
0
 62
    21
 10
9.8149795532226562
 20
4.2900519371032706
 30
0.3763535022735596
 70
   192
  0
VERTEX
  5
11F
  8
0
 62
    21
 10
12.47811794281006
 20
4.2900519371032706
 30
0.3763535022735596
 70
   192
  0
VERTEX
  5
120
  8
0
 62
    21
 10
-10.14688110351562
 20
8.7723054885864258
 30
0.3763535022735596
 70
   192
  0
VERTEX
  5
121
  8
0
 62
    21
 10
-7.3050694465637198
 20
8.7723054885864258
 30
0.3763535022735596
 70
   192
  0
VERTEX
  5
122
  8
0
 62
    21
 10
-3.0777335166931148
 20
8.7723054885864258
 30
0.3763535022735596
 70
   192
  0
VERTEX
  5
123
  8
0
 62
    21
 10
1.165618777275085
 20
8.7723054885864258
 30
0.3763535022735596
 70
   192
  0
VERTEX
  5
124
  8
0
 62
    21
 10
5.288794994354248
 20
8.7723054885864258
 30
0.3763535022735596
 70
   192
  0
VERTEX
  5
125
  8
0
 62
    21
 10
9.5449790954589844
 20
8.7723054885864258
 30
0.3763535022735596
 70
   192
  0
VERTEX
  5
126
  8
0
 62
    21
 10
12.47811794281006
 20
8.7723054885864258
 30
0.3763535022735596
 70
   192
  0
VERTEX
  5
127
  8
0
 62
    21
 10
-10.14688110351562
 20
-9.2140951156616211
 30
0.0390533208847046
 70
   192
  0
VERTEX
  5
128
  8
0
 62
    21
 10
-7.3050694465637198
 20
-9.7984790802001953
 30
0.0390533208847046
 70
   192
  0
VERTEX
  5
129
  8
0
 62
    21
 10
-3.0777335166931148
 20
-10.441152572631831
 30
0.0390533208847046
 70
   192
  0
VERTEX
  5
12A
  8
0
 62
    21
 10
1.165618777275085
 20
-10.66428756713867
 30
0.0390533208847046
 70
   192
  0
VERTEX
  5
12B
  8
0
 62
    21
 10
5.288794994354248
 20
-10.441152572631831
 30
0.0390533208847046
 70
   192
  0
VERTEX
  5
12C
  8
0
 62
    21
 10
9.5449790954589844
 20
-9.7984790802001953
 30
0.0390533208847046
 70
   192
  0
VERTEX
  5
12D
  8
0
 62
    21
 10
12.47811794281006
 20
-9.2140951156616211
 30
0.0390533208847046
 70
   192
  0
VERTEX
  5
12E
  8
0
 62
    21
 10
-10.14688110351562
 20
-6.2841596603393546
 30
0.0390533208847046
 70
   192
  0
VERTEX
  5
12F
  8
0
 62
    21
 10
-7.549726963043212
 20
-6.8467516899108878
 30
0.0390533208847046
 70
   192
  0
VERTEX
  5
130
  8
0
 62
    21
 10
-3.1996932029724121
 20
-7.709880828857421
 30
0.0390533208847046
 70
   192
  0
VERTEX
  5
131
  8
0
 62
    21
 10
1.1668221950530999
 20
-7.9394917488098136
 30
0.0390533208847046
 70
   192
  0
VERTEX
  5
132
  8
0
 62
    21
 10
5.4096741676330558
 20
-7.709880828857421
 30
0.0390533208847046
 70
   192
  0
VERTEX
  5
133
  8
0
 62
    21
 10
9.981785774230957
 20
-6.9938569068908691
 30
0.0390533208847046
 70
   192
  0
VERTEX
  5
134
  8
0
 62
    21
 10
12.47811794281006
 20
-6.2841596603393546
 30
0.0390533208847046
 70
   192
  0
VERTEX
  5
135
  8
0
 62
    21
 10
-10.14688110351562
 20
-2.0195350646972652
 30
0.0390533208847046
 70
   192
  0
VERTEX
  5
136
  8
0
 62
    21
 10
-7.549726963043212
 20
-2.0588026046752921
 30
0.0390533208847046
 70
   192
  0
VERTEX
  5
137
  8
0
 62
    21
 10
-0.0519455671310425
 20
-1.084397435188293
 30
-5.8710670471191397
 70
   192
  0
VERTEX
  5
138
  8
0
 62
    21
 10
1.1356079578399649
 20
-1.084397554397583
 30
-5.8710670471191397
 70
   192
  0
VERTEX
  5
139
  8
0
 62
    21
 10
2.2895278930664058
 20
-1.084397435188293
 30
-5.8710670471191397
 70
   192
  0
VERTEX
  5
13A
  8
0
 62
    21
 10
9.7893934249877912
 20
-2.0588026046752921
 30
0.0390533208847046
 70
   192
  0
VERTEX
  5
13B
  8
0
 62
    21
 10
12.47811794281006
 20
-2.0195350646972652
 30
0.0390533208847046
 70
   192
  0
VERTEX
  5
13C
  8
0
 62
    21
 10
-10.14688110351562
 20
1.577745199203491
 30
0.0390533208847046
 70
   192
  0
VERTEX
  5
13D
  8
0
 62
    21
 10
-7.549726963043212
 20
1.64288854598999
 30
0.0390533208847046
 70
   192
  0
VERTEX
  5
13E
  8
0
 62
    21
 10
-0.0519455671310425
 20
-0.0776557624340057
 30
-5.8710670471191397
 70
   192
  0
VERTEX
  5
13F
  8
0
 62
    21
 10
1.1356079578399649
 20
-0.0776555836200714
 30
-5.8710670471191397
 70
   192
  0
VERTEX
  5
140
  8
0
 62
    21
 10
2.2895278930664058
 20
-0.0776559412479401
 30
-5.8710670471191397
 70
   192
  0
VERTEX
  5
141
  8
0
 62
    21
 10
9.7893934249877912
 20
1.64288854598999
 30
0.0390533208847046
 70
   192
  0
VERTEX
  5
142
  8
0
 62
    21
 10
12.47811794281006
 20
1.577745199203491
 30
0.0390533208847046
 70
   192
  0
VERTEX
  5
143
  8
0
 62
    21
 10
-10.14688110351562
 20
4.2900519371032706
 30
0.0390533208847046
 70
   192
  0
VERTEX
  5
144
  8
0
 62
    21
 10
-7.7494215965270987
 20
4.4228577613830558
 30
0.0390533208847046
 70
   192
  0
VERTEX
  5
145
  8
0
 62
    21
 10
-3.1996932029724121
 20
4.43391990661621
 30
0.0390533208847046
 70
   192
  0
VERTEX
  5
146
  8
0
 62
    21
 10
1.1668221950530999
 20
4.43391990661621
 30
0.0390533208847046
 70
   192
  0
VERTEX
  5
147
  8
0
 62
    21
 10
5.4096741676330558
 20
4.43391990661621
 30
0.0390533208847046
 70
   192
  0
VERTEX
  5
148
  8
0
 62
    21
 10
9.7893934249877912
 20
4.2326879501342773
 30
0.0390533208847046
 70
   192
  0
VERTEX
  5
149
  8
0
 62
    21
 10
12.47811794281006
 20
4.2900519371032706
 30
0.0390533208847046
 70
   192
  0
VERTEX
  5
14A
  8
0
 62
    21
 10
-10.14688110351562
 20
8.7723054885864258
 30
0.0390533208847046
 70
   192
  0
VERTEX
  5
14B
  8
0
 62
    21
 10
-7.3050694465637198
 20
8.7723054885864258
 30
0.0390533208847046
 70
   192
  0
VERTEX
  5
14C
  8
0
 62
    21
 10
-3.0777335166931148
 20
8.7723054885864258
 30
0.0390533208847046
 70
   192
  0
VERTEX
  5
14D
  8
0
 62
    21
 10
1.165618777275085
 20
8.7723054885864258
 30
0.0390533208847046
 70
   192
  0
VERTEX
  5
14E
  8
0
 62
    21
 10
5.288794994354248
 20
8.7723054885864258
 30
0.0390533208847046
 70
   192
  0
VERTEX
  5
14F
  8
0
 62
    21
 10
9.5449790954589844
 20
8.7723054885864258
 30
0.0390533208847046
 70
   192
  0
VERTEX
  5
150
  8
0
 62
    21
 10
12.47811794281006
 20
8.7723054885864258
 30
0.0390533208847046
 70
   192
  0
VERTEX
  5
151
  8
0
 62
    21
 10
-6.7266225814819327
 20
-6.6204814910888672
 30
-3.542158603668212
 70
   192
  0
VERTEX
  5
152
  8
0
 62
    21
 10
-2.8890700340270992
 20
-7.2038974761962891
 30
-3.542158603668212
 70
   192
  0
VERTEX
  5
153
  8
0
 62
    21
 10
1.16375720500946
 20
-7.41701316833496
 30
-3.542158603668212
 70
   192
  0
VERTEX
  5
154
  8
0
 62
    21
 10
5.1018037796020499
 20
-7.2038974761962891
 30
-3.542158603668212
 70
   192
  0
VERTEX
  5
155
  8
0
 62
    21
 10
9.021122932434082
 20
-6.4845776557922363
 30
-3.6295759677886958
 70
   192
  0
VERTEX
  5
156
  8
0
 62
    21
 10
-6.9265980720520011
 20
-1.95879054069519
 30
-3.542158603668212
 70
   192
  0
VERTEX
  5
157
  8
0
 62
    21
 10
9.1668872833251953
 20
-1.95879054069519
 30
-3.542158603668212
 70
   192
  0
VERTEX
  5
158
  8
0
 62
    21
 10
-6.9265980720520011
 20
1.476972699165344
 30
-3.5421588420867911
 70
   192
  0
VERTEX
  5
159
  8
0
 62
    21
 10
9.1668872833251953
 20
1.4769729375839229
 30
-3.5421588420867911
 70
   192
  0
VERTEX
  5
15A
  8
0
 62
    21
 10
-6.9265980720520011
 20
3.8662657737731929
 30
-3.542158603668212
 70
   192
  0
VERTEX
  5
15B
  8
0
 62
    21
 10
-2.8890705108642569
 20
4.0674972534179679
 30
-3.542158603668212
 70
   192
  0
VERTEX
  5
15C
  8
0
 62
    21
 10
1.16375720500946
 20
4.0674972534179679
 30
-3.542158603668212
 70
   192
  0
VERTEX
  5
15D
  8
0
 62
    21
 10
5.1018042564392081
 20
4.0674972534179679
 30
-3.542158603668212
 70
   192
  0
VERTEX
  5
15E
  8
0
 62
    21
 10
9.0144157409667969
 20
3.975820541381835
 30
-3.6335980892181392
 70
   192
  0
VERTEX
  5
15F
  8
0
 62
    21
 10
-3.8368959426879878
 20
-4.3558139801025391
 30
-5.6062374114990234
 70
   192
  0
VERTEX
  5
160
  8
0
 62
    21
 10
-1.3489590883255
 20
-4.7340512275695801
 30
-5.6062374114990234
 70
   192
  0
VERTEX
  5
161
  8
0
 62
    21
 10
1.148405790328979
 20
-4.8653736114501953
 30
-5.606236457824707
 70
   192
  0
VERTEX
  5
162
  8
0
 62
    21
 10
3.5750422477722159
 20
-4.7340512275695801
 30
-5.6062374114990234
 70
   192
  0
VERTEX
  5
163
  8
0
 62
    21
 10
6.0799589157104492
 20
-4.3558144569396973
 30
-5.6062374114990234
 70
   192
  0
VERTEX
  5
164
  8
0
 62
    21
 10
-3.8368959426879878
 20
-1.501999974250793
 30
-5.6062374114990234
 70
   192
  0
VERTEX
  5
165
  8
0
 62
    21
 10
6.0799589157104492
 20
-1.501999974250793
 30
-5.6062374114990234
 70
   192
  0
VERTEX
  5
166
  8
0
 62
    21
 10
-3.8368959426879878
 20
0.6151279211044312
 30
-5.6062374114990234
 70
   192
  0
VERTEX
  5
167
  8
0
 62
    21
 10
6.0799589157104492
 20
0.6151281595230103
 30
-5.6062374114990234
 70
   192
  0
VERTEX
  5
168
  8
0
 62
    21
 10
-3.8368959426879878
 20
2.2114169597625728
 30
-5.6062374114990234
 70
   192
  0
VERTEX
  5
169
  8
0
 62
    21
 10
-1.3489586114883421
 20
2.2114169597625728
 30
-5.6062374114990234
 70
   192
  0
VERTEX
  5
16A
  8
0
 62
    21
 10
1.148405790328979
 20
2.2114169597625728
 30
-5.6062374114990234
 70
   192
  0
VERTEX
  5
16B
  8
0
 62
    21
 10
3.575042724609375
 20
2.2114169597625728
 30
-5.6062374114990234
 70
   192
  0
VERTEX
  5
16C
  8
0
 62
    21
 10
6.0799589157104492
 20
2.2114169597625728
 30
-5.6062374114990234
 70
   192
  0
VERTEX
  5
16D
  8
0
 62
    21
 10
-1.235014796257019
 20
-2.4414498805999751
 30
-5.8710670471191397
 70
   192
  0
VERTEX
  5
16E
  8
0
 62
    21
 10
-0.0519450902938843
 20
-2.6213102340698242
 30
-5.8710670471191397
 70
   192
  0
VERTEX
  5
16F
  8
0
 62
    21
 10
1.1356079578399649
 20
-2.683756828308105
 30
-5.8710670471191397
 70
   192
  0
VERTEX
  5
170
  8
0
 62
    21
 10
2.2895278930664058
 20
-2.6213102340698242
 30
-5.8710670471191397
 70
   192
  0
VERTEX
  5
171
  8
0
 62
    21
 10
3.4806718826293941
 20
-2.4414510726928711
 30
-5.8710670471191397
 70
   192
  0
VERTEX
  5
172
  8
0
 62
    21
 10
-1.235014796257019
 20
-1.084397554397583
 30
-5.8710670471191397
 70
   192
  0
VERTEX
  5
173
  8
0
 62
    21
 10
3.4806718826293941
 20
-1.084397554397583
 30
-5.8710670471191397
 70
   192
  0
VERTEX
  5
174
  8
0
 62
    21
 10
-1.235014796257019
 20
-0.0776555240154266
 30
-5.8710670471191397
 70
   192
  0
VERTEX
  5
175
  8
0
 62
    21
 10
3.4806718826293941
 20
-0.0776555836200714
 30
-5.8710670471191397
 70
   192
  0
VERTEX
  5
176
  8
0
 62
    21
 10
-1.235014796257019
 20
0.6814156770706177
 30
-5.8710670471191397
 70
   192
  0
VERTEX
  5
177
  8
0
 62
    21
 10
-0.0519447326660156
 20
0.6814153194427491
 30
-5.8710670471191397
 70
   192
  0
VERTEX
  5
178
  8
0
 62
    21
 10
1.1356079578399649
 20
0.6814153194427491
 30
-5.8710670471191397
 70
   192
  0
VERTEX
  5
179
  8
0
 62
    21
 10
2.289528369903564
 20
0.6814156770706177
 30
-5.8710670471191397
 70
   192
  0
VERTEX
  5
17A
  8
0
 62
    21
 10
3.4806718826293941
 20
0.6814156770706177
 30
-5.8710670471191397
 70
   192
  0
VERTEX
  5
17B
  8
0
 62
    21
 10
-6.4637765884399414
 20
-6.2495517730712891
 30
-3.5025868415832511
 70
   192
  0
VERTEX
  5
17C
  8
0
 62
    21
 10
-2.65083885192871
 20
-6.8158364295959473
 30
-3.512697458267211
 70
   192
  0
VERTEX
  5
17D
  8
0
 62
    21
 10
1.161380290985107
 20
-7.0118207931518546
 30
-3.5162801742553711
 70
   192
  0
VERTEX
  5
17E
  8
0
 62
    21
 10
4.8656182289123526
 20
-6.8157272338867179
 30
-3.512787818908691
 70
   192
  0
VERTEX
  5
17F
  8
0
 62
    21
 10
8.7044105529785156
 20
-6.2494678497314453
 30
-3.5026636123657222
 70
   192
  0
VERTEX
  5
180
  8
0
 62
    21
 10
-6.4637765884399414
 20
-1.884507298469543
 30
-3.5025870800018311
 70
   192
  0
VERTEX
  5
181
  8
0
 62
    21
 10
8.7044105529785156
 20
-1.884488940238952
 30
-3.5026636123657222
 70
   192
  0
VERTEX
  5
182
  8
0
 62
    21
 10
-6.4637765884399414
 20
1.3537404537200921
 30
-3.5025873184204102
 70
   192
  0
VERTEX
  5
183
  8
0
 62
    21
 10
8.7044105529785156
 20
1.3537100553512571
 30
-3.5026638507843009
 70
   192
  0
VERTEX
  5
184
  8
0
 62
    21
 10
-6.4637765884399414
 20
3.7953414916992179
 30
-3.5025870800018311
 70
   192
  0
VERTEX
  5
185
  8
0
 62
    21
 10
-2.6293244361877441
 20
3.7610924243927002
 30
-3.541630744934082
 70
   192
  0
VERTEX
  5
186
  8
0
 62
    21
 10
1.161194324493408
 20
3.7610924243927002
 30
-3.541630744934082
 70
   192
  0
VERTEX
  5
187
  8
0
 62
    21
 10
4.8443613052368164
 20
3.7610924243927002
 30
-3.541630744934082
 70
   192
  0
VERTEX
  5
188
  8
0
 62
    21
 10
8.7044105529785156
 20
3.7952742576599121
 30
-3.5026636123657222
 70
   192
  0
VERTEX
  5
189
  8
0
 62
    21
 10
-3.7520637512207031
 20
-4.254377841949462
 30
-5.5332441329956046
 70
   192
  0
VERTEX
  5
18A
  8
0
 62
    21
 10
-1.306593537330627
 20
-4.62615966796875
 30
-5.5332441329956046
 70
   192
  0
VERTEX
  5
18B
  8
0
 62
    21
 10
1.14814269542694
 20
-4.7552404403686523
 30
-5.5332441329956046
 70
   192
  0
VERTEX
  5
18C
  8
0
 62
    21
 10
3.5333571434020992
 20
-4.62615966796875
 30
-5.5332441329956046
 70
   192
  0
VERTEX
  5
18D
  8
0
 62
    21
 10
5.9955167770385742
 20
-4.2543787956237793
 30
-5.5332441329956046
 70
   192
  0
VERTEX
  5
18E
  8
0
 62
    21
 10
-3.7520637512207031
 20
-1.449276685714721
 30
-5.5332441329956046
 70
   192
  0
VERTEX
  5
18F
  8
0
 62
    21
 10
5.9955167770385742
 20
-1.449276685714721
 30
-5.5332441329956046
 70
   192
  0
VERTEX
  5
190
  8
0
 62
    21
 10
-3.7520637512207031
 20
0.6317129135131836
 30
-5.5332441329956046
 70
   192
  0
VERTEX
  5
191
  8
0
 62
    21
 10
5.9955167770385742
 20
0.6317131519317627
 30
-5.5332441329956046
 70
   192
  0
VERTEX
  5
192
  8
0
 62
    21
 10
-3.7520637512207031
 20
2.2007546424865718
 30
-5.5332441329956046
 70
   192
  0
VERTEX
  5
193
  8
0
 62
    21
 10
-1.306593060493469
 20
2.2007541656494141
 30
-5.5332441329956046
 70
   192
  0
VERTEX
  5
194
  8
0
 62
    21
 10
1.14814269542694
 20
2.2007541656494141
 30
-5.5332441329956046
 70
   192
  0
VERTEX
  5
195
  8
0
 62
    21
 10
3.533358097076416
 20
2.2007541656494141
 30
-5.5332441329956046
 70
   192
  0
VERTEX
  5
196
  8
0
 62
    21
 10
5.9955167770385742
 20
2.2007546424865718
 30
-5.5332441329956046
 70
   192
  0
VERTEX
  5
197
  8
0
 62
    21
 10
-0.9727133512496948
 20
-2.2094402313232422
 30
-5.7440404891967773
 70
   192
  0
VERTEX
  5
198
  8
0
 62
    21
 10
0.0788871049880982
 20
-2.3693139553070059
 30
-5.7440404891967773
 70
   192
  0
VERTEX
  5
199
  8
0
 62
    21
 10
1.134471893310546
 20
-2.4248216152191162
 30
-5.7440404891967773
 70
   192
  0
VERTEX
  5
19A
  8
0
 62
    21
 10
2.160161018371582
 20
-2.3693139553070059
 30
-5.7440404891967773
 70
   192
  0
VERTEX
  5
19B
  8
0
 62
    21
 10
3.218937873840332
 20
-2.2094407081603999
 30
-5.7440404891967773
 70
   192
  0
VERTEX
  5
19C
  8
0
 62
    21
 10
-0.9727133512496948
 20
-1.0031914710998531
 30
-5.7440404891967773
 70
   192
  0
VERTEX
  5
19D
  8
0
 62
    21
 10
3.218937873840332
 20
-1.0031914710998531
 30
-5.7440404891967773
 70
   192
  0
VERTEX
  5
19E
  8
0
 62
    21
 10
-0.9727133512496948
 20
-0.1083250567317009
 30
-5.7440404891967773
 70
   192
  0
VERTEX
  5
19F
  8
0
 62
    21
 10
3.218937873840332
 20
-0.1083251163363457
 30
-5.7440404891967773
 70
   192
  0
VERTEX
  5
1A0
  8
0
 62
    21
 10
-0.9727133512496948
 20
0.5663939714431763
 30
-5.7440404891967773
 70
   192
  0
VERTEX
  5
1A1
  8
0
 62
    21
 10
0.0788874626159668
 20
0.5663936138153077
 30
-5.7440404891967773
 70
   192
  0
VERTEX
  5
1A2
  8
0
 62
    21
 10
1.134471893310546
 20
0.5663936138153077
 30
-5.7440404891967773
 70
   192
  0
VERTEX
  5
1A3
  8
0
 62
    21
 10
2.1601614952087398
 20
0.5663937330245972
 30
-5.7440404891967773
 70
   192
  0
VERTEX
  5
1A4
  8
0
 62
    21
 10
3.218937873840332
 20
0.5663939714431763
 30
-5.7440404891967773
 70
   192
  0
VERTEX
  5
1A5
  8
0
 62
    21
 10
-7.257455348968505
 20
-6.8335118293762198
 30
0.1106646358966827
 70
   192
  0
VERTEX
  5
1A6
  8
0
 62
    21
 10
-7.4606261253356934
 20
-6.8815574645996094
 30
0.3763535022735596
 70
   192
  0
VERTEX
  5
1A7
  8
0
 62
    21
 10
-3.0736560821533199
 20
-7.6587367057800293
 30
0.3307079672813415
 70
   192
  0
VERTEX
  5
1A8
  8
0
 62
    21
 10
1.1655784845352171
 20
-7.8816766738891602
 30
0.3306833505630493
 70
   192
  0
VERTEX
  5
1A9
  8
0
 62
    21
 10
5.2847542762756339
 20
-7.6587519645690909
 30
0.3307091891765594
 70
   192
  0
VERTEX
  5
1AA
  8
0
 62
    21
 10
9.5178728103637695
 20
-6.8952927589416504
 30
0.2249452024698257
 70
   192
  0
VERTEX
  5
1AB
  8
0
 62
    21
 10
9.5895652770996094
 20
-7.017005443572998
 30
0.3763535022735596
 70
   192
  0
VERTEX
  5
1AC
  8
0
 62
    21
 10
-7.4513850212097159
 20
-2.0182433128356929
 30
0.3314453959465027
 70
   192
  0
VERTEX
  5
1AD
  8
0
 62
    21
 10
9.5634250640869141
 20
-2.015166044235229
 30
0.2244536280632019
 70
   192
  0
VERTEX
  5
1AE
  8
0
 62
    21
 10
-7.4513850212097159
 20
1.5756022930145259
 30
0.3314453959465027
 70
   192
  0
VERTEX
  5
1AF
  8
0
 62
    21
 10
9.5634250640869141
 20
1.5704970359802239
 30
0.2244536429643631
 70
   192
  0
VERTEX
  5
1B0
  8
0
 62
    21
 10
-7.354567050933837
 20
4.4407200813293448
 30
0.3763535022735596
 70
   192
  0
VERTEX
  5
1B1
  8
0
 62
    21
 10
-7.4513850212097159
 20
4.2853193283081046
 30
0.3314453959465027
 70
   192
  0
VERTEX
  5
1B2
  8
0
 62
    21
 10
-3.073550701141357
 20
4.4381918907165518
 30
0.329531729221344
 70
   192
  0
VERTEX
  5
1B3
  8
0
 62
    21
 10
1.1655775308609
 20
4.4381918907165518
 30
0.329531729221344
 70
   192
  0
VERTEX
  5
1B4
  8
0
 62
    21
 10
5.2846498489379883
 20
4.4381918907165518
 30
0.329531729221344
 70
   192
  0
VERTEX
  5
1B5
  8
0
 62
    21
 10
9.5449790954589844
 20
4.5603489875793448
 30
0.3763535022735596
 70
   192
  0
VERTEX
  5
1B6
  8
0
 62
    21
 10
9.4974117279052734
 20
4.2620525360107422
 30
0.1106564104557037
 70
   192
  0
VERTEX
  5
1B7
  8
0
 62
    21
 10
-7.2969336509704581
 20
-7.0183568000793448
 30
0.3309538960456848
 70
   192
  0
VERTEX
  5
1B8
  8
0
 62
    21
 10
-7.3495125770568839
 20
-7.0169186592102051
 30
0.3763535022735596
 70
   192
  0
VERTEX
  5
1B9
  8
0
 62
    21
 10
-3.053912639617919
 20
-7.472414493560791
 30
0.1097031831741333
 70
   192
  0
VERTEX
  5
1BA
  8
0
 62
    21
 10
1.165383458137512
 20
-7.6942410469055167
 30
0.1094161570072174
 70
   192
  0
VERTEX
  5
1BB
  8
0
 62
    21
 10
5.2651848793029776
 20
-7.4724130630493164
 30
0.1096956431865692
 70
   192
  0
VERTEX
  5
1BC
  8
0
 62
    21
 10
9.7003927230834961
 20
-6.8827199935913077
 30
0.3763535022735596
 70
   192
  0
VERTEX
  5
1BD
  8
0
 62
    21
 10
9.8149795532226562
 20
-6.8147506713867179
 30
0.3763535022735596
 70
   192
  0
VERTEX
  5
1BE
  8
0
 62
    21
 10
-7.3234848976135254
 20
-2.015166044235229
 30
0.2244550585746765
 70
   192
  0
VERTEX
  5
1BF
  8
0
 62
    21
 10
9.6912984848022461
 20
-2.0182433128356929
 30
0.3314407169818878
 70
   192
  0
VERTEX
  5
1C0
  8
0
 62
    21
 10
-7.3234848976135254
 20
1.5704971551895139
 30
0.2244550436735153
 70
   192
  0
VERTEX
  5
1C1
  8
0
 62
    21
 10
9.6912984848022461
 20
1.575602054595947
 30
0.3314407169818878
 70
   192
  0
VERTEX
  5
1C2
  8
0
 62
    21
 10
-7.2781481742858878
 20
4.3216114044189453
 30
0.2261293828487396
 70
   192
  0
VERTEX
  5
1C3
  8
0
 62
    21
 10
-7.3234848976135254
 20
4.2740445137023917
 30
0.2244550585746765
 70
   192
  0
VERTEX
  5
1C4
  8
0
 62
    21
 10
-3.0641531944274898
 20
4.321178436279296
 30
0.2243332415819168
 70
   192
  0
VERTEX
  5
1C5
  8
0
 62
    21
 10
1.1654847860336299
 20
4.321178436279296
 30
0.2243332266807556
 70
   192
  0
VERTEX
  5
1C6
  8
0
 62
    21
 10
5.2753353118896484
 20
4.321178436279296
 30
0.224333256483078
 70
   192
  0
VERTEX
  5
1C7
  8
0
 62
    21
 10
9.7909097671508771
 20
4.4355378150939941
 30
0.3763535022735596
 70
   192
  0
VERTEX
  5
1C8
  8
0
 62
    21
 10
9.6912984848022461
 20
4.2853188514709473
 30
0.3314407169818878
 70
   192
  0
VERTEX
  5
1C9
  8
0
 62
    21
 10
-7.3234848976135254
 20
-6.8391308784484863
 30
0.2244550436735153
 70
   192
  0
VERTEX
  5
1CA
  8
0
 62
    21
 10
-7.2779364585876456
 20
-6.895296573638916
 30
0.2249465137720108
 70
   192
  0
VERTEX
  5
1CB
  8
0
 62
    21
 10
-7.4513850212097159
 20
-6.8308796882629386
 30
0.3314453959465027
 70
   192
  0
VERTEX
  5
1CC
  8
0
 62
    21
 10
-7.5750699043273917
 20
-6.8130216598510742
 30
0.3763535022735596
 70
   192
  0
VERTEX
  5
1CD
  8
0
 62
    21
 10
-3.0777335166931148
 20
-7.7818865776062012
 30
0.3763535022735596
 70
   192
  0
VERTEX
  5
1CE
  8
0
 62
    21
 10
1.165618777275085
 20
-8.0050220489501953
 30
0.3763535022735596
 70
   192
  0
VERTEX
  5
1CF
  8
0
 62
    21
 10
5.2887954711914062
 20
-7.7819085121154776
 30
0.3763535022735596
 70
   192
  0
VERTEX
  5
1D0
  8
0
 62
    21
 10
9.5634241104125977
 20
-6.8394222259521484
 30
0.2244535982608795
 70
   192
  0
VERTEX
  5
1D1
  8
0
 62
    21
 10
9.4974117279052734
 20
-6.8335103988647461
 30
0.1106563806533813
 70
   192
  0
VERTEX
  5
1D2
  8
0
 62
    21
 10
9.5368499755859375
 20
-7.018329143524169
 30
0.3309490978717804
 70
   192
  0
VERTEX
  5
1D3
  8
0
 62
    21
 10
9.5449790954589844
 20
-7.1418933868408203
 30
0.3763535022735596
 70
   192
  0
VERTEX
  5
1D4
  8
0
 62
    21
 10
-7.5750699043273917
 20
-2.0195350646972652
 30
0.3763535022735596
 70
   192
  0
VERTEX
  5
1D5
  8
0
 62
    21
 10
9.4974117279052734
 20
-2.0118927955627441
 30
0.1106564104557037
 70
   192
  0
VERTEX
  5
1D6
  8
0
 62
    21
 10
-7.5750699043273917
 20
1.577745199203491
 30
0.3763535022735596
 70
   192
  0
VERTEX
  5
1D7
  8
0
 62
    21
 10
9.4974117279052734
 20
1.5650670528411861
 30
0.1106564104557037
 70
   192
  0
VERTEX
  5
1D8
  8
0
 62
    21
 10
-7.2967219352722159
 20
4.4379749298095703
 30
0.3297730684280395
 70
   192
  0
VERTEX
  5
1D9
  8
0
 62
    21
 10
-7.3050694465637198
 20
4.5603489875793448
 30
0.3763535022735596
 70
   192
  0
VERTEX
  5
1DA
  8
0
 62
    21
 10
-7.4555716514587402
 20
4.3396039009094229
 30
0.3763535022735596
 70
   192
  0
VERTEX
  5
1DB
  8
0
 62
    21
 10
-7.5750699043273917
 20
4.2900519371032706
 30
0.3763535022735596
 70
   192
  0
VERTEX
  5
1DC
  8
0
 62
    21
 10
-3.0777335166931148
 20
4.5603489875793448
 30
0.3763535022735596
 70
   192
  0
VERTEX
  5
1DD
  8
0
 62
    21
 10
1.165618777275085
 20
4.5603489875793448
 30
0.3763535022735596
 70
   192
  0
VERTEX
  5
1DE
  8
0
 62
    21
 10
5.2887954711914062
 20
4.5603489875793448
 30
0.3763535022735596
 70
   192
  0
VERTEX
  5
1DF
  8
0
 62
    21
 10
9.5366392135620117
 20
4.4379758834838858
 30
0.3297723829746246
 70
   192
  0
VERTEX
  5
1E0
  8
0
 62
    21
 10
9.5634250640869141
 20
4.2740445137023917
 30
0.2244536429643631
 70
   192
  0
VERTEX
  5
1E1
  8
0
 62
    21
 10
9.5180835723876953
 20
4.321610450744628
 30
0.2261239588260651
 70
   192
  0
VERTEX
  5
1E2
  8
0
 62
    21
 10
-6.6651558876037589
 20
-6.3977193832397461
 30
-3.194424867630004
 70
   192
  0
VERTEX
  5
1E3
  8
0
 62
    21
 10
-2.7588062286376949
 20
-6.9917073249816886
 30
-3.1937131881713858
 70
   192
  0
VERTEX
  5
1E4
  8
0
 62
    21
 10
1.162472128868103
 20
-7.1979384422302237
 30
-3.193500041961669
 70
   192
  0
VERTEX
  5
1E5
  8
0
 62
    21
 10
4.9726953506469718
 20
-6.991708278656005
 30
-3.1937077045440669
 70
   192
  0
VERTEX
  5
1E6
  8
0
 62
    21
 10
8.9057044982910156
 20
-6.3977203369140616
 30
-3.1944186687469478
 70
   192
  0
VERTEX
  5
1E7
  8
0
 62
    21
 10
-6.6651558876037589
 20
-1.916828751564025
 30
-3.194424867630004
 70
   192
  0
VERTEX
  5
1E8
  8
0
 62
    21
 10
8.9057044982910156
 20
-1.916828870773315
 30
-3.1944186687469478
 70
   192
  0
VERTEX
  5
1E9
  8
0
 62
    21
 10
-6.6651558876037589
 20
1.407360196113586
 30
-3.1944251060485831
 70
   192
  0
VERTEX
  5
1EA
  8
0
 62
    21
 10
8.9057044982910156
 20
1.4073605537414551
 30
-3.1944189071655269
 70
   192
  0
VERTEX
  5
1EB
  8
0
 62
    21
 10
-6.6651558876037589
 20
3.913759708404541
 30
-3.194424867630004
 70
   192
  0
VERTEX
  5
1EC
  8
0
 62
    21
 10
-2.758924961090087
 20
3.9139738082885742
 30
-3.1923892498016349
 70
   192
  0
VERTEX
  5
1ED
  8
0
 62
    21
 10
1.162473082542419
 20
3.9139738082885742
 30
-3.1923892498016349
 70
   192
  0
VERTEX
  5
1EE
  8
0
 62
    21
 10
4.9728126525878897
 20
3.9139738082885742
 30
-3.1923892498016349
 70
   192
  0
VERTEX
  5
1EF
  8
0
 62
    21
 10
8.9057044982910156
 20
3.913760662078857
 30
-3.1944186687469478
 70
   192
  0
VERTEX
  5
1F0
  8
0
 62
    21
 10
9.4974117279052734
 20
4.2620525360107422
 30
0.1106564104557037
 70
   192
  0
VERTEX
  5
1F1
  8
0
 62
    21
 10
-10.14688110351562
 20
4.7426295280456543
 30
0.3763535022735596
 70
   192
  0
VERTEX
  5
1F2
  8
0
 62
    21
 10
-7.3050704002380371
 20
4.7426295280456543
 30
0.3763535022735596
 70
   192
  0
VERTEX
  5
1F3
  8
0
 62
    21
 10
-3.0777335166931148
 20
4.7426295280456543
 30
0.3763535022735596
 70
   192
  0
VERTEX
  5
1F4
  8
0
 62
    21
 10
1.165618777275085
 20
4.7426295280456543
 30
0.3763535022735596
 70
   192
  0
VERTEX
  5
1F5
  8
0
 62
    21
 10
5.2887954711914062
 20
4.7426295280456543
 30
0.3763535022735596
 70
   192
  0
VERTEX
  5
1F6
  8
0
 62
    21
 10
9.5449790954589844
 20
4.7426295280456543
 30
0.3763535022735596
 70
   192
  0
VERTEX
  5
1F7
  8
0
 62
    21
 10
12.47811794281006
 20
4.7426295280456543
 30
0.3763535022735596
 70
   192
  0
VERTEX
  5
1F8
  8
0
 62
    21
 10
-7.5323176383972159
 20
4.7426295280456543
 30
0.0390533208847046
 70
   192
  0
VERTEX
  5
1F9
  8
0
 62
    21
 10
-10.14688110351562
 20
4.7426295280456543
 30
0.0390533208847046
 70
   192
  0
VERTEX
  5
1FA
  8
0
 62
    21
 10
-3.1910147666931148
 20
4.7426295280456543
 30
0.0390533208847046
 70
   192
  0
VERTEX
  5
1FB
  8
0
 62
    21
 10
1.1667364835739129
 20
4.7426295280456543
 30
0.0390533208847046
 70
   192
  0
VERTEX
  5
1FC
  8
0
 62
    21
 10
5.4010725021362296
 20
4.7426295280456543
 30
0.0390533208847046
 70
   192
  0
VERTEX
  5
1FD
  8
0
 62
    21
 10
9.7720012664794922
 20
4.7426295280456543
 30
0.0390533208847046
 70
   192
  0
VERTEX
  5
1FE
  8
0
 62
    21
 10
12.47811794281006
 20
4.7426295280456543
 30
0.0390533208847046
 70
   192
  0
VERTEX
  5
1FF
  8
0
 62
    21
 10
-10.14688110351562
 20
-8.3981609344482422
 30
0.3763535022735596
 70
   192
  0
VERTEX
  5
200
  8
0
 62
    21
 10
-7.3050694465637198
 20
-8.3981609344482422
 30
0.3763535022735596
 70
   192
  0
VERTEX
  5
201
  8
0
 62
    21
 10
-3.0777335166931148
 20
-8.3981609344482422
 30
0.3763535022735596
 70
   192
  0
VERTEX
  5
202
  8
0
 62
    21
 10
1.165618777275085
 20
-8.3981609344482422
 30
0.3763535022735596
 70
   192
  0
VERTEX
  5
203
  8
0
 62
    21
 10
5.288794994354248
 20
-8.3981609344482422
 30
0.3763535022735596
 70
   192
  0
VERTEX
  5
204
  8
0
 62
    21
 10
9.5449790954589844
 20
-8.3981609344482422
 30
0.3763535022735596
 70
   192
  0
VERTEX
  5
205
  8
0
 62
    21
 10
12.47811794281006
 20
-8.3981609344482422
 30
0.3763535022735596
 70
   192
  0
VERTEX
  5
206
  8
0
 62
    21
 10
-7.4296545982360831
 20
-8.3981609344482422
 30
0.0390533208847046
 70
   192
  0
VERTEX
  5
207
  8
0
 62
    21
 10
-10.14688110351562
 20
-8.3981609344482422
 30
0.0390533208847046
 70
   192
  0
VERTEX
  5
208
  8
0
 62
    21
 10
-3.1689596176147461
 20
-8.3981609344482422
 30
0.0390533208847046
 70
   192
  0
VERTEX
  5
209
  8
0
 62
    21
 10
1.166619539260864
 20
-8.3981609344482422
 30
0.0390533208847046
 70
   192
  0
VERTEX
  5
20A
  8
0
 62
    21
 10
5.3792128562927237
 20
-8.3981609344482422
 30
0.0390533208847046
 70
   192
  0
VERTEX
  5
20B
  8
0
 62
    21
 10
9.6694402694702148
 20
-8.3981609344482422
 30
0.0390533208847046
 70
   192
  0
VERTEX
  5
20C
  8
0
 62
    21
 10
12.47811794281006
 20
-8.3981609344482422
 30
0.0390533208847046
 70
   192
  0
VERTEX
  5
20D
  8
0
 62
    21
 10
-7.3497509956359863
 20
-7.0789551734924308
 30
0.0390533208847046
 70
   192
  0
VERTEX
  5
20E
  8
0
 62
    21
 10
-7.5319838523864737
 20
-7.2479844093322754
 30
0.0390533208847046
 70
   192
  0
VERTEX
  5
20F
  8
0
 62
    21
 10
-7.7416062355041504
 20
-6.9920797348022461
 30
0.0390533208847046
 70
   192
  0
VERTEX
  5
210
  8
0
 62
    21
 10
9.77166748046875
 20
-7.24798583984375
 30
0.0390533208847046
 70
   192
  0
VERTEX
  5
211
  8
0
 62
    21
 10
9.5893878936767578
 20
-7.078753948211669
 30
0.0390533208847046
 70
   192
  0
VERTEX
  5
212
  8
0
 62
    21
 10
9.7893934249877912
 20
-6.8467516899108878
 30
0.0390533208847046
 70
   192
  0
VERTEX
  5
213
  8
0
 62
    21
 10
-7.5384535789489737
 20
4.6338214874267569
 30
0.0390533208847046
 70
   192
  0
VERTEX
  5
214
  8
0
 62
    21
 10
-7.346754550933837
 20
4.43391990661621
 30
0.0390533208847046
 70
   192
  0
VERTEX
  5
215
  8
0
 62
    21
 10
-7.549726963043212
 20
4.2326879501342773
 30
0.0390533208847046
 70
   192
  0
VERTEX
  5
216
  8
0
 62
    21
 10
9.5864267349243164
 20
4.43391990661621
 30
0.0390533208847046
 70
   192
  0
VERTEX
  5
217
  8
0
 62
    21
 10
9.7781314849853516
 20
4.633821964263916
 30
0.0390533208847046
 70
   192
  0
VERTEX
  5
218
  8
0
 62
    21
 10
9.9891080856323242
 20
4.4232335090637198
 30
0.0390533208847046
 70
   192
  0
VERTEX
  5
219
  8
0
 62
    21
 10
-6.9265980720520011
 20
-6.3882780075073242
 30
-3.542158603668212
 70
   192
  0
VERTEX
  5
21A
  8
0
 62
    21
 10
-6.7807717323303223
 20
-6.484628200531005
 30
-3.6295344829559322
 70
   192
  0
VERTEX
  5
21B
  8
0
 62
    21
 10
9.1668872833251953
 20
-6.3882780075073242
 30
-3.542158603668212
 70
   192
  0
VERTEX
  5
21C
  8
0
 62
    21
 10
8.9668817520141602
 20
-6.6202802658081046
 30
-3.542158603668212
 70
   192
  0
VERTEX
  5
21D
  8
0
 62
    21
 10
-6.7236256599426261
 20
4.0674972534179679
 30
-3.542158603668212
 70
   192
  0
VERTEX
  5
21E
  8
0
 62
    21
 10
-6.7740693092346191
 20
3.9758682250976558
 30
-3.6335508823394771
 70
   192
  0
VERTEX
  5
21F
  8
0
 62
    21
 10
8.9639205932617187
 20
4.0674972534179679
 30
-3.542158603668212
 70
   192
  0
VERTEX
  5
220
  8
0
 62
    21
 10
9.1668872833251953
 20
3.8662657737731929
 30
-3.542158603668212
 70
   192
  0
VERTEX
  5
221
  8
0
 62
    21
 10
1.1644324064254761
 20
-1.0094759464263909
 30
-5.7101497650146484
 70
   192
  0
VERTEX
  5
222
  8
0
 62
    21
 10
2.2060828208923331
 20
-1.0094759464263909
 30
-5.7101497650146484
 70
   192
  0
VERTEX
  5
223
  8
0
 62
    21
 10
2.1029269695281978
 20
-1.4619283676147461
 30
-5.7101497650146484
 70
   192
  0
VERTEX
  5
224
  8
0
 62
    21
 10
1.8138908147811881
 20
-1.824766874313354
 30
-5.7101497650146484
 70
   192
  0
VERTEX
  5
225
  8
0
 62
    21
 10
1.3962213993072501
 20
-2.0261268615722652
 30
-5.7101497650146484
 70
   192
  0
VERTEX
  5
226
  8
0
 62
    21
 10
0.9326433539390563
 20
-2.0261268615722652
 30
-5.7101497650146484
 70
   192
  0
VERTEX
  5
227
  8
0
 62
    21
 10
0.5149739980697632
 20
-1.824766993522644
 30
-5.7101497650146484
 70
   192
  0
VERTEX
  5
228
  8
0
 62
    21
 10
0.2259378433227539
 20
-1.4619283676147461
 30
-5.7101497650146484
 70
   192
  0
VERTEX
  5
229
  8
0
 62
    21
 10
0.1227819919586182
 20
-1.00947618484497
 30
-5.7101497650146484
 70
   192
  0
VERTEX
  5
22A
  8
0
 62
    21
 10
0.2259377241134643
 20
-0.5570238828659058
 30
-5.7101497650146484
 70
   192
  0
VERTEX
  5
22B
  8
0
 62
    21
 10
0.5149737596511841
 20
-0.1941853612661362
 30
-5.7101497650146484
 70
   192
  0
VERTEX
  5
22C
  8
0
 62
    21
 10
0.9326432943344116
 20
0.0071750432252884
 30
-5.7101497650146484
 70
   192
  0
VERTEX
  5
22D
  8
0
 62
    21
 10
1.3962215185165401
 20
0.0071751028299332
 30
-5.7101497650146484
 70
   192
  0
VERTEX
  5
22E
  8
0
 62
    21
 10
1.8138910531997681
 20
-0.1941853016614914
 30
-5.7101497650146484
 70
   192
  0
VERTEX
  5
22F
  8
0
 62
    21
 10
2.1029272079467769
 20
-0.5570241212844849
 30
-5.7101497650146484
 70
   192
  0
VERTEX
  5
230
  8
0
 62
    21
 10
2.2060828208923331
 20
-1.0094759464263909
 30
-7.4989557266235352
 70
   192
  0
VERTEX
  5
231
  8
0
 62
    21
 10
2.1029269695281978
 20
-1.4619283676147461
 30
-7.4989557266235352
 70
   192
  0
VERTEX
  5
232
  8
0
 62
    21
 10
1.8138908147811881
 20
-1.824766993522644
 30
-7.4989557266235352
 70
   192
  0
VERTEX
  5
233
  8
0
 62
    21
 10
1.3962213993072501
 20
-2.0261273384094229
 30
-7.4989557266235352
 70
   192
  0
VERTEX
  5
234
  8
0
 62
    21
 10
0.9326433539390563
 20
-2.0261273384094229
 30
-7.4989557266235352
 70
   192
  0
VERTEX
  5
235
  8
0
 62
    21
 10
0.5149739980697632
 20
-1.824766993522644
 30
-7.4989557266235352
 70
   192
  0
VERTEX
  5
236
  8
0
 62
    21
 10
0.2259378433227539
 20
-1.4619283676147461
 30
-7.4989557266235352
 70
   192
  0
VERTEX
  5
237
  8
0
 62
    21
 10
0.1227819919586182
 20
-1.00947618484497
 30
-7.4989557266235352
 70
   192
  0
VERTEX
  5
238
  8
0
 62
    21
 10
0.2259377241134643
 20
-0.5570238828659058
 30
-7.4989557266235352
 70
   192
  0
VERTEX
  5
239
  8
0
 62
    21
 10
0.5149737596511841
 20
-0.1941853612661362
 30
-7.4989557266235352
 70
   192
  0
VERTEX
  5
23A
  8
0
 62
    21
 10
0.9326432943344116
 20
0.0071750432252884
 30
-7.4989557266235352
 70
   192
  0
VERTEX
  5
23B
  8
0
 62
    21
 10
1.3962215185165401
 20
0.0071751028299332
 30
-7.4989557266235352
 70
   192
  0
VERTEX
  5
23C
  8
0
 62
    21
 10
1.8138910531997681
 20
-0.1941853016614914
 30
-7.4989557266235352
 70
   192
  0
VERTEX
  5
23D
  8
0
 62
    21
 10
2.1029272079467769
 20
-0.5570241212844849
 30
-7.4989557266235352
 70
   192
  0
VERTEX
  5
23E
  8
0
 62
    21
 10
1.1644324064254761
 20
-1.0094759464263909
 30
-7.4989557266235352
 70
   192
  0
VERTEX
  5
23F
  8
0
 62
    21
 10
1.173923015594482
 20
-1.032107353210449
 30
-5.6852903366088858
 70
   192
  0
VERTEX
  5
240
  8
0
 62
    21
 10
1.914695501327514
 20
-1.032107353210449
 30
-5.6852903366088858
 70
   192
  0
VERTEX
  5
241
  8
0
 62
    21
 10
1.841336011886596
 20
-1.353869915008544
 30
-5.6852903366088858
 70
   192
  0
VERTEX
  5
242
  8
0
 62
    21
 10
1.63578712940216
 20
-1.6119036674499509
 30
-5.6852903366088858
 70
   192
  0
VERTEX
  5
243
  8
0
 62
    21
 10
1.3387603759765621
 20
-1.755101561546325
 30
-5.6852903366088858
 70
   192
  0
VERTEX
  5
244
  8
0
 62
    21
 10
1.0090856552124019
 20
-1.755101561546325
 30
-5.6852903366088858
 70
   192
  0
VERTEX
  5
245
  8
0
 62
    21
 10
0.712058961391449
 20
-1.6119036674499509
 30
-5.6852903366088858
 70
   192
  0
VERTEX
  5
246
  8
0
 62
    21
 10
0.5065101385116578
 20
-1.353870034217834
 30
-5.6852903366088858
 70
   192
  0
VERTEX
  5
247
  8
0
 62
    21
 10
0.4331505298614502
 20
-1.0321074724197381
 30
-5.6852903366088858
 70
   192
  0
VERTEX
  5
248
  8
0
 62
    21
 10
0.5065100193023682
 20
-0.7103448510169983
 30
-5.6852903366088858
 70
   192
  0
VERTEX
  5
249
  8
0
 62
    21
 10
0.7120587825775147
 20
-0.4523111581802369
 30
-5.6852903366088858
 70
   192
  0
VERTEX
  5
24A
  8
0
 62
    21
 10
1.0090855360031119
 20
-0.3091132044792175
 30
-5.6852903366088858
 70
   192
  0
VERTEX
  5
24B
  8
0
 62
    21
 10
1.3387604951858521
 20
-0.3091132044792175
 30
-5.6852903366088858
 70
   192
  0
VERTEX
  5
24C
  8
0
 62
    21
 10
1.63578724861145
 20
-0.4523111581802369
 30
-5.6852903366088858
 70
   192
  0
VERTEX
  5
24D
  8
0
 62
    21
 10
1.841336131095886
 20
-0.7103450298309327
 30
-5.6852903366088858
 70
   192
  0
VERTEX
  5
24E
  8
0
 62
    21
 10
1.914695501327514
 20
-1.032107353210449
 30
-6.04305076599121
 70
   192
  0
VERTEX
  5
24F
  8
0
 62
    21
 10
1.841336011886596
 20
-1.353869915008544
 30
-6.04305076599121
 70
   192
  0
VERTEX
  5
250
  8
0
 62
    21
 10
1.63578712940216
 20
-1.6119036674499509
 30
-6.04305076599121
 70
   192
  0
VERTEX
  5
251
  8
0
 62
    21
 10
1.3387603759765621
 20
-1.755101561546325
 30
-6.04305076599121
 70
   192
  0
VERTEX
  5
252
  8
0
 62
    21
 10
1.0090856552124019
 20
-1.755101561546325
 30
-6.04305076599121
 70
   192
  0
VERTEX
  5
253
  8
0
 62
    21
 10
0.712058961391449
 20
-1.6119036674499509
 30
-6.04305076599121
 70
   192
  0
VERTEX
  5
254
  8
0
 62
    21
 10
0.5065101385116578
 20
-1.353870034217834
 30
-6.04305076599121
 70
   192
  0
VERTEX
  5
255
  8
0
 62
    21
 10
0.4331505298614502
 20
-1.0321075916290281
 30
-6.04305076599121
 70
   192
  0
VERTEX
  5
256
  8
0
 62
    21
 10
0.5065100193023682
 20
-0.7103447914123536
 30
-6.04305076599121
 70
   192
  0
VERTEX
  5
257
  8
0
 62
    21
 10
0.7120587825775147
 20
-0.4523111581802369
 30
-6.04305076599121
 70
   192
  0
VERTEX
  5
258
  8
0
 62
    21
 10
1.0090855360031119
 20
-0.3091132640838623
 30
-6.04305076599121
 70
   192
  0
VERTEX
  5
259
  8
0
 62
    21
 10
1.3387604951858521
 20
-0.3091132044792175
 30
-6.04305076599121
 70
   192
  0
VERTEX
  5
25A
  8
0
 62
    21
 10
1.63578724861145
 20
-0.4523111581802369
 30
-6.04305076599121
 70
   192
  0
VERTEX
  5
25B
  8
0
 62
    21
 10
1.841336131095886
 20
-0.7103450298309327
 30
-6.04305076599121
 70
   192
  0
VERTEX
  5
25C
  8
0
 62
    21
 10
1.173923015594482
 20
-1.032107353210449
 30
-6.04305076599121
 70
   192
  0
VERTEX
  5
25D
  8
0
 62
    21
 10
0.0
 20
0.0
 30
0.0
 70
   128
 71
   260
 72
   261
 73
  -209
 74
  -260
  0
VERTEX
  5
25E
  8
0
 62
    21
 10
0.0
 20
0.0
 30
0.0
 70
   128
 71
   209
 72
     9
 73
  -260
 74
  -209
  0
VERTEX
  5
25F
  8
0
 62
    21
 10
0.0
 20
0.0
 30
0.0
 70
   128
 71
   261
 72
   262
 73
  -210
 74
  -261
  0
VERTEX
  5
260
  8
0
 62
    21
 10
0.0
 20
0.0
 30
0.0
 70
   128
 71
   210
 72
   209
 73
  -261
 74
  -210
  0
VERTEX
  5
261
  8
0
 62
    21
 10
0.0
 20
0.0
 30
0.0
 70
   128
 71
   210
 72
   262
 73
  -263
 74
  -210
  0
VERTEX
  5
262
  8
0
 62
    21
 10
0.0
 20
0.0
 30
0.0
 70
   128
 71
   263
 72
   211
 73
  -210
 74
  -263
  0
VERTEX
  5
263
  8
0
 62
    21
 10
0.0
 20
0.0
 30
0.0
 70
   128
 71
   211
 72
   263
 73
  -264
 74
  -211
  0
VERTEX
  5
264
  8
0
 62
    21
 10
0.0
 20
0.0
 30
0.0
 70
   128
 71
   264
 72
   215
 73
  -211
 74
  -264
  0
VERTEX
  5
265
  8
0
 62
    21
 10
0.0
 20
0.0
 30
0.0
 70
   128
 71
     8
 72
   208
 73
  -216
 74
    -8
  0
VERTEX
  5
266
  8
0
 62
    21
 10
0.0
 20
0.0
 30
0.0
 70
   128
 71
   216
 72
    15
 73
    -8
 74
  -216
  0
VERTEX
  5
267
  8
0
 62
    21
 10
0.0
 20
0.0
 30
0.0
 70
   128
 71
   155
 72
   156
 73
   -17
 74
  -155
  0
VERTEX
  5
268
  8
0
 62
    21
 10
0.0
 20
0.0
 30
0.0
 70
   128
 71
    17
 72
   160
 73
  -155
 74
   -17
  0
VERTEX
  5
269
  8
0
 62
    21
 10
0.0
 20
0.0
 30
0.0
 70
   128
 71
   156
 72
   157
 73
   -18
 74
  -156
  0
VERTEX
  5
26A
  8
0
 62
    21
 10
0.0
 20
0.0
 30
0.0
 70
   128
 71
    18
 72
    17
 73
  -156
 74
   -18
  0
VERTEX
  5
26B
  8
0
 62
    21
 10
0.0
 20
0.0
 30
0.0
 70
   128
 71
   157
 72
   158
 73
   -19
 74
  -157
  0
VERTEX
  5
26C
  8
0
 62
    21
 10
0.0
 20
0.0
 30
0.0
 70
   128
 71
    19
 72
    18
 73
  -157
 74
   -19
  0
VERTEX
  5
26D
  8
0
 62
    21
 10
0.0
 20
0.0
 30
0.0
 70
   128
 71
   158
 72
   159
 73
  -161
 74
  -158
  0
VERTEX
  5
26E
  8
0
 62
    21
 10
0.0
 20
0.0
 30
0.0
 70
   128
 71
   161
 72
    19
 73
  -158
 74
  -161
  0
VERTEX
  5
26F
  8
0
 62
    21
 10
0.0
 20
0.0
 30
0.0
 70
   128
 71
   193
 72
    14
 73
   -21
 74
  -193
  0
VERTEX
  5
270
  8
0
 62
    21
 10
0.0
 20
0.0
 30
0.0
 70
   128
 71
    21
 72
    20
 73
  -193
 74
   -21
  0
VERTEX
  5
271
  8
0
 62
    21
 10
0.0
 20
0.0
 30
0.0
 70
   128
 71
    15
 72
   216
 73
  -218
 74
   -15
  0
VERTEX
  5
272
  8
0
 62
    21
 10
0.0
 20
0.0
 30
0.0
 70
   128
 71
   218
 72
    22
 73
   -15
 74
  -218
  0
VERTEX
  5
273
  8
0
 62
    21
 10
0.0
 20
0.0
 30
0.0
 70
   128
 71
   160
 72
    17
 73
   -24
 74
  -160
  0
VERTEX
  5
274
  8
0
 62
    21
 10
0.0
 20
0.0
 30
0.0
 70
   128
 71
    24
 72
   162
 73
  -160
 74
   -24
  0
VERTEX
  5
275
  8
0
 62
    21
 10
0.0
 20
0.0
 30
0.0
 70
   128
 71
    17
 72
    18
 73
   -25
 74
   -17
  0
VERTEX
  5
276
  8
0
 62
    21
 10
0.0
 20
0.0
 30
0.0
 70
   128
 71
    25
 72
    24
 73
   -17
 74
   -25
  0
VERTEX
  5
277
  8
0
 62
    21
 10
0.0
 20
0.0
 30
0.0
 70
   128
 71
    18
 72
    19
 73
   -26
 74
   -18
  0
VERTEX
  5
278
  8
0
 62
    21
 10
0.0
 20
0.0
 30
0.0
 70
   128
 71
    26
 72
    25
 73
   -18
 74
   -26
  0
VERTEX
  5
279
  8
0
 62
    21
 10
0.0
 20
0.0
 30
0.0
 70
   128
 71
    19
 72
   161
 73
  -163
 74
   -19
  0
VERTEX
  5
27A
  8
0
 62
    21
 10
0.0
 20
0.0
 30
0.0
 70
   128
 71
   163
 72
    26
 73
   -19
 74
  -163
  0
VERTEX
  5
27B
  8
0
 62
    21
 10
0.0
 20
0.0
 30
0.0
 70
   128
 71
    20
 72
    21
 73
   -28
 74
   -20
  0
VERTEX
  5
27C
  8
0
 62
    21
 10
0.0
 20
0.0
 30
0.0
 70
   128
 71
    28
 72
    27
 73
   -20
 74
   -28
  0
VERTEX
  5
27D
  8
0
 62
    21
 10
0.0
 20
0.0
 30
0.0
 70
   128
 71
    22
 72
   218
 73
  -223
 74
   -22
  0
VERTEX
  5
27E
  8
0
 62
    21
 10
0.0
 20
0.0
 30
0.0
 70
   128
 71
   223
 72
    29
 73
   -22
 74
  -223
  0
VERTEX
  5
27F
  8
0
 62
    21
 10
0.0
 20
0.0
 30
0.0
 70
   128
 71
   162
 72
    24
 73
  -165
 74
  -162
  0
VERTEX
  5
280
  8
0
 62
    21
 10
0.0
 20
0.0
 30
0.0
 70
   128
 71
   165
 72
   164
 73
  -162
 74
  -165
  0
VERTEX
  5
281
  8
0
 62
    21
 10
0.0
 20
0.0
 30
0.0
 70
   128
 71
    24
 72
    25
 73
  -166
 74
   -24
  0
VERTEX
  5
282
  8
0
 62
    21
 10
0.0
 20
0.0
 30
0.0
 70
   128
 71
   166
 72
   165
 73
   -24
 74
  -166
  0
VERTEX
  5
283
  8
0
 62
    21
 10
0.0
 20
0.0
 30
0.0
 70
   128
 71
    25
 72
    26
 73
  -167
 74
   -25
  0
VERTEX
  5
284
  8
0
 62
    21
 10
0.0
 20
0.0
 30
0.0
 70
   128
 71
   167
 72
   166
 73
   -25
 74
  -167
  0
VERTEX
  5
285
  8
0
 62
    21
 10
0.0
 20
0.0
 30
0.0
 70
   128
 71
    26
 72
   163
 73
  -168
 74
   -26
  0
VERTEX
  5
286
  8
0
 62
    21
 10
0.0
 20
0.0
 30
0.0
 70
   128
 71
   168
 72
   167
 73
   -26
 74
  -168
  0
VERTEX
  5
287
  8
0
 62
    21
 10
0.0
 20
0.0
 30
0.0
 70
   128
 71
    27
 72
    28
 73
   -35
 74
   -27
  0
VERTEX
  5
288
  8
0
 62
    21
 10
0.0
 20
0.0
 30
0.0
 70
   128
 71
    35
 72
    34
 73
   -27
 74
   -35
  0
VERTEX
  5
289
  8
0
 62
    21
 10
0.0
 20
0.0
 30
0.0
 70
   128
 71
   246
 72
   247
 73
   -38
 74
  -246
  0
VERTEX
  5
28A
  8
0
 62
    21
 10
0.0
 20
0.0
 30
0.0
 70
   128
 71
    38
 72
    37
 73
  -246
 74
   -38
  0
VERTEX
  5
28B
  8
0
 62
    21
 10
0.0
 20
0.0
 30
0.0
 70
   128
 71
   247
 72
   248
 73
   -39
 74
  -247
  0
VERTEX
  5
28C
  8
0
 62
    21
 10
0.0
 20
0.0
 30
0.0
 70
   128
 71
    39
 72
    38
 73
  -247
 74
   -39
  0
VERTEX
  5
28D
  8
0
 62
    21
 10
0.0
 20
0.0
 30
0.0
 70
   128
 71
   248
 72
   249
 73
   -40
 74
  -248
  0
VERTEX
  5
28E
  8
0
 62
    21
 10
0.0
 20
0.0
 30
0.0
 70
   128
 71
    40
 72
    39
 73
  -248
 74
   -40
  0
VERTEX
  5
28F
  8
0
 62
    21
 10
0.0
 20
0.0
 30
0.0
 70
   128
 71
   249
 72
   250
 73
   -41
 74
  -249
  0
VERTEX
  5
290
  8
0
 62
    21
 10
0.0
 20
0.0
 30
0.0
 70
   128
 71
    41
 72
    40
 73
  -249
 74
   -41
  0
VERTEX
  5
291
  8
0
 62
    21
 10
0.0
 20
0.0
 30
0.0
 70
   128
 71
   250
 72
   251
 73
   -42
 74
  -250
  0
VERTEX
  5
292
  8
0
 62
    21
 10
0.0
 20
0.0
 30
0.0
 70
   128
 71
    42
 72
    41
 73
  -250
 74
   -42
  0
VERTEX
  5
293
  8
0
 62
    21
 10
0.0
 20
0.0
 30
0.0
 70
   128
 71
    43
 72
   267
 73
  -266
 74
   -43
  0
VERTEX
  5
294
  8
0
 62
    21
 10
0.0
 20
0.0
 30
0.0
 70
   128
 71
   266
 72
    44
 73
   -43
 74
  -266
  0
VERTEX
  5
295
  8
0
 62
    21
 10
0.0
 20
0.0
 30
0.0
 70
   128
 71
    44
 72
   266
 73
  -268
 74
   -44
  0
VERTEX
  5
296
  8
0
 62
    21
 10
0.0
 20
0.0
 30
0.0
 70
   128
 71
   268
 72
    45
 73
   -44
 74
  -268
  0
VERTEX
  5
297
  8
0
 62
    21
 10
0.0
 20
0.0
 30
0.0
 70
   128
 71
    45
 72
   268
 73
  -269
 74
   -45
  0
VERTEX
  5
298
  8
0
 62
    21
 10
0.0
 20
0.0
 30
0.0
 70
   128
 71
   269
 72
    46
 73
   -45
 74
  -269
  0
VERTEX
  5
299
  8
0
 62
    21
 10
0.0
 20
0.0
 30
0.0
 70
   128
 71
    47
 72
    46
 73
  -269
 74
   -47
  0
VERTEX
  5
29A
  8
0
 62
    21
 10
0.0
 20
0.0
 30
0.0
 70
   128
 71
   269
 72
   270
 73
   -47
 74
  -269
  0
VERTEX
  5
29B
  8
0
 62
    21
 10
0.0
 20
0.0
 30
0.0
 70
   128
 71
    48
 72
    47
 73
  -270
 74
   -48
  0
VERTEX
  5
29C
  8
0
 62
    21
 10
0.0
 20
0.0
 30
0.0
 70
   128
 71
   270
 72
   271
 73
   -48
 74
  -270
  0
VERTEX
  5
29D
  8
0
 62
    21
 10
0.0
 20
0.0
 30
0.0
 70
   128
 71
    49
 72
    48
 73
  -271
 74
   -49
  0
VERTEX
  5
29E
  8
0
 62
    21
 10
0.0
 20
0.0
 30
0.0
 70
   128
 71
   271
 72
   272
 73
   -49
 74
  -271
  0
VERTEX
  5
29F
  8
0
 62
    21
 10
0.0
 20
0.0
 30
0.0
 70
   128
 71
    50
 72
    57
 73
   -58
 74
   -50
  0
VERTEX
  5
2A0
  8
0
 62
    21
 10
0.0
 20
0.0
 30
0.0
 70
   128
 71
   -58
 72
   275
 73
   -50
 74
   -58
  0
VERTEX
  5
2A1
  8
0
 62
    21
 10
0.0
 20
0.0
 30
0.0
 70
   128
 71
   113
 72
   118
 73
   -59
 74
  -113
  0
VERTEX
  5
2A2
  8
0
 62
    21
 10
0.0
 20
0.0
 30
0.0
 70
   128
 71
    59
 72
   114
 73
  -113
 74
   -59
  0
VERTEX
  5
2A3
  8
0
 62
    21
 10
0.0
 20
0.0
 30
0.0
 70
   128
 71
   114
 72
    59
 73
   -60
 74
  -114
  0
VERTEX
  5
2A4
  8
0
 62
    21
 10
0.0
 20
0.0
 30
0.0
 70
   128
 71
    60
 72
   115
 73
  -114
 74
   -60
  0
VERTEX
  5
2A5
  8
0
 62
    21
 10
0.0
 20
0.0
 30
0.0
 70
   128
 71
   115
 72
    60
 73
   -61
 74
  -115
  0
VERTEX
  5
2A6
  8
0
 62
    21
 10
0.0
 20
0.0
 30
0.0
 70
   128
 71
    61
 72
   116
 73
  -115
 74
   -61
  0
VERTEX
  5
2A7
  8
0
 62
    21
 10
0.0
 20
0.0
 30
0.0
 70
   128
 71
   116
 72
    61
 73
  -119
 74
  -116
  0
VERTEX
  5
2A8
  8
0
 62
    21
 10
0.0
 20
0.0
 30
0.0
 70
   128
 71
   119
 72
   117
 73
  -116
 74
  -119
  0
VERTEX
  5
2A9
  8
0
 62
    21
 10
0.0
 20
0.0
 30
0.0
 70
   128
 71
   278
 72
    62
 73
   -63
 74
  -278
  0
VERTEX
  5
2AA
  8
0
 62
    21
 10
0.0
 20
0.0
 30
0.0
 70
   128
 71
    63
 72
    56
 73
   -55
 74
   -63
  0
VERTEX
  5
2AB
  8
0
 62
    21
 10
0.0
 20
0.0
 30
0.0
 70
   128
 71
    57
 72
    64
 73
   -65
 74
   -57
  0
VERTEX
  5
2AC
  8
0
 62
    21
 10
0.0
 20
0.0
 30
0.0
 70
   128
 71
    65
 72
    58
 73
   -57
 74
   -65
  0
VERTEX
  5
2AD
  8
0
 62
    21
 10
0.0
 20
0.0
 30
0.0
 70
   128
 71
   118
 72
   120
 73
   -66
 74
  -118
  0
VERTEX
  5
2AE
  8
0
 62
    21
 10
0.0
 20
0.0
 30
0.0
 70
   128
 71
    66
 72
    59
 73
  -118
 74
   -66
  0
VERTEX
  5
2AF
  8
0
 62
    21
 10
0.0
 20
0.0
 30
0.0
 70
   128
 71
    59
 72
    66
 73
   -67
 74
   -59
  0
VERTEX
  5
2B0
  8
0
 62
    21
 10
0.0
 20
0.0
 30
0.0
 70
   128
 71
    67
 72
    60
 73
   -59
 74
   -67
  0
VERTEX
  5
2B1
  8
0
 62
    21
 10
0.0
 20
0.0
 30
0.0
 70
   128
 71
    60
 72
    67
 73
   -68
 74
   -60
  0
VERTEX
  5
2B2
  8
0
 62
    21
 10
0.0
 20
0.0
 30
0.0
 70
   128
 71
    68
 72
    61
 73
   -60
 74
   -68
  0
VERTEX
  5
2B3
  8
0
 62
    21
 10
0.0
 20
0.0
 30
0.0
 70
   128
 71
    61
 72
    68
 73
  -121
 74
   -61
  0
VERTEX
  5
2B4
  8
0
 62
    21
 10
0.0
 20
0.0
 30
0.0
 70
   128
 71
   121
 72
   119
 73
   -61
 74
  -121
  0
VERTEX
  5
2B5
  8
0
 62
    21
 10
0.0
 20
0.0
 30
0.0
 70
   128
 71
    62
 72
    69
 73
   -70
 74
   -62
  0
VERTEX
  5
2B6
  8
0
 62
    21
 10
0.0
 20
0.0
 30
0.0
 70
   128
 71
    70
 72
    63
 73
   -62
 74
   -70
  0
VERTEX
  5
2B7
  8
0
 62
    21
 10
0.0
 20
0.0
 30
0.0
 70
   128
 71
    64
 72
    71
 73
   -72
 74
   -64
  0
VERTEX
  5
2B8
  8
0
 62
    21
 10
0.0
 20
0.0
 30
0.0
 70
   128
 71
   281
 72
    65
 73
   -64
 74
  -281
  0
VERTEX
  5
2B9
  8
0
 62
    21
 10
0.0
 20
0.0
 30
0.0
 70
   128
 71
   120
 72
   122
 73
  -123
 74
  -120
  0
VERTEX
  5
2BA
  8
0
 62
    21
 10
0.0
 20
0.0
 30
0.0
 70
   128
 71
   123
 72
    66
 73
  -120
 74
  -123
  0
VERTEX
  5
2BB
  8
0
 62
    21
 10
0.0
 20
0.0
 30
0.0
 70
   128
 71
    66
 72
   123
 73
  -124
 74
   -66
  0
VERTEX
  5
2BC
  8
0
 62
    21
 10
0.0
 20
0.0
 30
0.0
 70
   128
 71
   124
 72
    67
 73
   -66
 74
  -124
  0
VERTEX
  5
2BD
  8
0
 62
    21
 10
0.0
 20
0.0
 30
0.0
 70
   128
 71
    67
 72
   124
 73
  -125
 74
   -67
  0
VERTEX
  5
2BE
  8
0
 62
    21
 10
0.0
 20
0.0
 30
0.0
 70
   128
 71
   125
 72
    68
 73
   -67
 74
  -125
  0
VERTEX
  5
2BF
  8
0
 62
    21
 10
0.0
 20
0.0
 30
0.0
 70
   128
 71
    68
 72
   125
 73
  -126
 74
   -68
  0
VERTEX
  5
2C0
  8
0
 62
    21
 10
0.0
 20
0.0
 30
0.0
 70
   128
 71
   126
 72
   121
 73
   -68
 74
  -126
  0
VERTEX
  5
2C1
  8
0
 62
    21
 10
0.0
 20
0.0
 30
0.0
 70
   128
 71
   -69
 72
   284
 73
   -77
 74
   -69
  0
VERTEX
  5
2C2
  8
0
 62
    21
 10
0.0
 20
0.0
 30
0.0
 70
   128
 71
    77
 72
    70
 73
   -69
 74
   -77
  0
VERTEX
  5
2C3
  8
0
 62
    21
 10
0.0
 20
0.0
 30
0.0
 70
   128
 71
    72
 72
    71
 73
  -253
 74
   -72
  0
VERTEX
  5
2C4
  8
0
 62
    21
 10
0.0
 20
0.0
 30
0.0
 70
   128
 71
   253
 72
   252
 73
  -279
 74
  -253
  0
VERTEX
  5
2C5
  8
0
 62
    21
 10
0.0
 20
0.0
 30
0.0
 70
   128
 71
   -73
 72
   279
 73
  -252
 74
   -73
  0
VERTEX
  5
2C6
  8
0
 62
    21
 10
0.0
 20
0.0
 30
0.0
 70
   128
 71
   252
 72
   254
 73
   -73
 74
  -252
  0
VERTEX
  5
2C7
  8
0
 62
    21
 10
0.0
 20
0.0
 30
0.0
 70
   128
 71
    73
 72
   254
 73
  -255
 74
   -73
  0
VERTEX
  5
2C8
  8
0
 62
    21
 10
0.0
 20
0.0
 30
0.0
 70
   128
 71
   255
 72
    74
 73
   -73
 74
  -255
  0
VERTEX
  5
2C9
  8
0
 62
    21
 10
0.0
 20
0.0
 30
0.0
 70
   128
 71
    74
 72
   255
 73
  -256
 74
   -74
  0
VERTEX
  5
2CA
  8
0
 62
    21
 10
0.0
 20
0.0
 30
0.0
 70
   128
 71
   256
 72
    75
 73
   -74
 74
  -256
  0
VERTEX
  5
2CB
  8
0
 62
    21
 10
0.0
 20
0.0
 30
0.0
 70
   128
 71
    75
 72
   256
 73
  -257
 74
   -75
  0
VERTEX
  5
2CC
  8
0
 62
    21
 10
0.0
 20
0.0
 30
0.0
 70
   128
 71
  -257
 72
   282
 73
   -75
 74
  -257
  0
VERTEX
  5
2CD
  8
0
 62
    21
 10
0.0
 20
0.0
 30
0.0
 70
   128
 71
   283
 72
   257
 73
  -258
 74
  -283
  0
VERTEX
  5
2CE
  8
0
 62
    21
 10
0.0
 20
0.0
 30
0.0
 70
   128
 71
   258
 72
    77
 73
  -284
 74
  -258
  0
VERTEX
  5
2CF
  8
0
 62
    21
 10
0.0
 20
0.0
 30
0.0
 70
   128
 71
     1
 72
    43
 73
   -44
 74
    -1
  0
VERTEX
  5
2D0
  8
0
 62
    21
 10
0.0
 20
0.0
 30
0.0
 70
   128
 71
    44
 72
     2
 73
    -1
 74
   -44
  0
VERTEX
  5
2D1
  8
0
 62
    21
 10
0.0
 20
0.0
 30
0.0
 70
   128
 71
     2
 72
    44
 73
   -45
 74
    -2
  0
VERTEX
  5
2D2
  8
0
 62
    21
 10
0.0
 20
0.0
 30
0.0
 70
   128
 71
    45
 72
     3
 73
    -2
 74
   -45
  0
VERTEX
  5
2D3
  8
0
 62
    21
 10
0.0
 20
0.0
 30
0.0
 70
   128
 71
     3
 72
    45
 73
   -46
 74
    -3
  0
VERTEX
  5
2D4
  8
0
 62
    21
 10
0.0
 20
0.0
 30
0.0
 70
   128
 71
    46
 72
     4
 73
    -3
 74
   -46
  0
VERTEX
  5
2D5
  8
0
 62
    21
 10
0.0
 20
0.0
 30
0.0
 70
   128
 71
     4
 72
    46
 73
   -47
 74
    -4
  0
VERTEX
  5
2D6
  8
0
 62
    21
 10
0.0
 20
0.0
 30
0.0
 70
   128
 71
    47
 72
     5
 73
    -4
 74
   -47
  0
VERTEX
  5
2D7
  8
0
 62
    21
 10
0.0
 20
0.0
 30
0.0
 70
   128
 71
     5
 72
    47
 73
   -48
 74
    -5
  0
VERTEX
  5
2D8
  8
0
 62
    21
 10
0.0
 20
0.0
 30
0.0
 70
   128
 71
    48
 72
     6
 73
    -5
 74
   -48
  0
VERTEX
  5
2D9
  8
0
 62
    21
 10
0.0
 20
0.0
 30
0.0
 70
   128
 71
     6
 72
    48
 73
   -49
 74
    -6
  0
VERTEX
  5
2DA
  8
0
 62
    21
 10
0.0
 20
0.0
 30
0.0
 70
   128
 71
    49
 72
     7
 73
    -6
 74
   -49
  0
VERTEX
  5
2DB
  8
0
 62
    21
 10
0.0
 20
0.0
 30
0.0
 70
   128
 71
   265
 72
   272
 73
   -56
 74
  -265
  0
VERTEX
  5
2DC
  8
0
 62
    21
 10
0.0
 20
0.0
 30
0.0
 70
   128
 71
    56
 72
    14
 73
  -265
 74
   -56
  0
VERTEX
  5
2DD
  8
0
 62
    21
 10
0.0
 20
0.0
 30
0.0
 70
   128
 71
    14
 72
    56
 73
   -63
 74
   -14
  0
VERTEX
  5
2DE
  8
0
 62
    21
 10
0.0
 20
0.0
 30
0.0
 70
   128
 71
    63
 72
    21
 73
   -14
 74
   -63
  0
VERTEX
  5
2DF
  8
0
 62
    21
 10
0.0
 20
0.0
 30
0.0
 70
   128
 71
    21
 72
    63
 73
   -70
 74
   -21
  0
VERTEX
  5
2E0
  8
0
 62
    21
 10
0.0
 20
0.0
 30
0.0
 70
   128
 71
    70
 72
    28
 73
   -21
 74
   -70
  0
VERTEX
  5
2E1
  8
0
 62
    21
 10
0.0
 20
0.0
 30
0.0
 70
   128
 71
    28
 72
    70
 73
   -77
 74
   -28
  0
VERTEX
  5
2E2
  8
0
 62
    21
 10
0.0
 20
0.0
 30
0.0
 70
   128
 71
    77
 72
    35
 73
   -28
 74
   -77
  0
VERTEX
  5
2E3
  8
0
 62
    21
 10
0.0
 20
0.0
 30
0.0
 70
   128
 71
   251
 72
   258
 73
   -84
 74
  -251
  0
VERTEX
  5
2E4
  8
0
 62
    21
 10
0.0
 20
0.0
 30
0.0
 70
   128
 71
    84
 72
    42
 73
  -251
 74
   -84
  0
VERTEX
  5
2E5
  8
0
 62
    21
 10
0.0
 20
0.0
 30
0.0
 70
   128
 71
    42
 72
    84
 73
   -83
 74
   -42
  0
VERTEX
  5
2E6
  8
0
 62
    21
 10
0.0
 20
0.0
 30
0.0
 70
   128
 71
    83
 72
    41
 73
   -42
 74
   -83
  0
VERTEX
  5
2E7
  8
0
 62
    21
 10
0.0
 20
0.0
 30
0.0
 70
   128
 71
    41
 72
    83
 73
   -82
 74
   -41
  0
VERTEX
  5
2E8
  8
0
 62
    21
 10
0.0
 20
0.0
 30
0.0
 70
   128
 71
    82
 72
    40
 73
   -41
 74
   -82
  0
VERTEX
  5
2E9
  8
0
 62
    21
 10
0.0
 20
0.0
 30
0.0
 70
   128
 71
    40
 72
    82
 73
   -81
 74
   -40
  0
VERTEX
  5
2EA
  8
0
 62
    21
 10
0.0
 20
0.0
 30
0.0
 70
   128
 71
    81
 72
    39
 73
   -40
 74
   -81
  0
VERTEX
  5
2EB
  8
0
 62
    21
 10
0.0
 20
0.0
 30
0.0
 70
   128
 71
    39
 72
    81
 73
   -80
 74
   -39
  0
VERTEX
  5
2EC
  8
0
 62
    21
 10
0.0
 20
0.0
 30
0.0
 70
   128
 71
    80
 72
    38
 73
   -39
 74
   -80
  0
VERTEX
  5
2ED
  8
0
 62
    21
 10
0.0
 20
0.0
 30
0.0
 70
   128
 71
    38
 72
    80
 73
   -79
 74
   -38
  0
VERTEX
  5
2EE
  8
0
 62
    21
 10
0.0
 20
0.0
 30
0.0
 70
   128
 71
    79
 72
    37
 73
   -38
 74
   -79
  0
VERTEX
  5
2EF
  8
0
 62
    21
 10
0.0
 20
0.0
 30
0.0
 70
   128
 71
    37
 72
    79
 73
   -78
 74
   -37
  0
VERTEX
  5
2F0
  8
0
 62
    21
 10
0.0
 20
0.0
 30
0.0
 70
   128
 71
    78
 72
    36
 73
   -37
 74
   -78
  0
VERTEX
  5
2F1
  8
0
 62
    21
 10
0.0
 20
0.0
 30
0.0
 70
   128
 71
   245
 72
   253
 73
   -71
 74
  -245
  0
VERTEX
  5
2F2
  8
0
 62
    21
 10
0.0
 20
0.0
 30
0.0
 70
   128
 71
    71
 72
    29
 73
  -245
 74
   -71
  0
VERTEX
  5
2F3
  8
0
 62
    21
 10
0.0
 20
0.0
 30
0.0
 70
   128
 71
    29
 72
    71
 73
   -64
 74
   -29
  0
VERTEX
  5
2F4
  8
0
 62
    21
 10
0.0
 20
0.0
 30
0.0
 70
   128
 71
    64
 72
    22
 73
   -29
 74
   -64
  0
VERTEX
  5
2F5
  8
0
 62
    21
 10
0.0
 20
0.0
 30
0.0
 70
   128
 71
    22
 72
    64
 73
   -57
 74
   -22
  0
VERTEX
  5
2F6
  8
0
 62
    21
 10
0.0
 20
0.0
 30
0.0
 70
   128
 71
    57
 72
    15
 73
   -22
 74
   -57
  0
VERTEX
  5
2F7
  8
0
 62
    21
 10
0.0
 20
0.0
 30
0.0
 70
   128
 71
    15
 72
    57
 73
   -50
 74
   -15
  0
VERTEX
  5
2F8
  8
0
 62
    21
 10
0.0
 20
0.0
 30
0.0
 70
   128
 71
    50
 72
     8
 73
   -15
 74
   -50
  0
VERTEX
  5
2F9
  8
0
 62
    21
 10
0.0
 20
0.0
 30
0.0
 70
   128
 71
   259
 72
   267
 73
   -43
 74
  -259
  0
VERTEX
  5
2FA
  8
0
 62
    21
 10
0.0
 20
0.0
 30
0.0
 70
   128
 71
    43
 72
     1
 73
  -259
 74
   -43
  0
VERTEX
  5
2FB
  8
0
 62
    21
 10
0.0
 20
0.0
 30
0.0
 70
   128
 71
    85
 72
    86
 73
   -52
 74
   -85
  0
VERTEX
  5
2FC
  8
0
 62
    21
 10
0.0
 20
0.0
 30
0.0
 70
   128
 71
    52
 72
   273
 73
   -85
 74
   -52
  0
VERTEX
  5
2FD
  8
0
 62
    21
 10
0.0
 20
0.0
 30
0.0
 70
   128
 71
    86
 72
    87
 73
   -53
 74
   -86
  0
VERTEX
  5
2FE
  8
0
 62
    21
 10
0.0
 20
0.0
 30
0.0
 70
   128
 71
    53
 72
    52
 73
   -86
 74
   -53
  0
VERTEX
  5
2FF
  8
0
 62
    21
 10
0.0
 20
0.0
 30
0.0
 70
   128
 71
    87
 72
    88
 73
   -54
 74
   -87
  0
VERTEX
  5
300
  8
0
 62
    21
 10
0.0
 20
0.0
 30
0.0
 70
   128
 71
    54
 72
    53
 73
   -87
 74
   -54
  0
VERTEX
  5
301
  8
0
 62
    21
 10
0.0
 20
0.0
 30
0.0
 70
   128
 71
    88
 72
   288
 73
  -277
 74
   -88
  0
VERTEX
  5
302
  8
0
 62
    21
 10
0.0
 20
0.0
 30
0.0
 70
   128
 71
   277
 72
    54
 73
   -88
 74
  -277
  0
VERTEX
  5
303
  8
0
 62
    21
 10
0.0
 20
0.0
 30
0.0
 70
   128
 71
    90
 72
   285
 73
   -51
 74
   -90
  0
VERTEX
  5
304
  8
0
 62
    21
 10
0.0
 20
0.0
 30
0.0
 70
   128
 71
    51
 72
    58
 73
   -90
 74
   -51
  0
VERTEX
  5
305
  8
0
 62
    21
 10
0.0
 20
0.0
 30
0.0
 70
   128
 71
   287
 72
    91
 73
   -62
 74
  -287
  0
VERTEX
  5
306
  8
0
 62
    21
 10
0.0
 20
0.0
 30
0.0
 70
   128
 71
    62
 72
   278
 73
  -287
 74
   -62
  0
VERTEX
  5
307
  8
0
 62
    21
 10
0.0
 20
0.0
 30
0.0
 70
   128
 71
    92
 72
    90
 73
   -58
 74
   -92
  0
VERTEX
  5
308
  8
0
 62
    21
 10
0.0
 20
0.0
 30
0.0
 70
   128
 71
    58
 72
    65
 73
   -92
 74
   -58
  0
VERTEX
  5
309
  8
0
 62
    21
 10
0.0
 20
0.0
 30
0.0
 70
   128
 71
    91
 72
    93
 73
   -69
 74
   -91
  0
VERTEX
  5
30A
  8
0
 62
    21
 10
0.0
 20
0.0
 30
0.0
 70
   128
 71
    69
 72
    62
 73
   -91
 74
   -69
  0
VERTEX
  5
30B
  8
0
 62
    21
 10
0.0
 20
0.0
 30
0.0
 70
   128
 71
    94
 72
    92
 73
   -65
 74
   -94
  0
VERTEX
  5
30C
  8
0
 62
    21
 10
0.0
 20
0.0
 30
0.0
 70
   128
 71
    65
 72
   281
 73
   -94
 74
   -65
  0
VERTEX
  5
30D
  8
0
 62
    21
 10
0.0
 20
0.0
 30
0.0
 70
   128
 71
    95
 72
   289
 73
  -280
 74
   -95
  0
VERTEX
  5
30E
  8
0
 62
    21
 10
0.0
 20
0.0
 30
0.0
 70
   128
 71
   280
 72
    73
 73
   -95
 74
  -280
  0
VERTEX
  5
30F
  8
0
 62
    21
 10
0.0
 20
0.0
 30
0.0
 70
   128
 71
    96
 72
    95
 73
   -73
 74
   -96
  0
VERTEX
  5
310
  8
0
 62
    21
 10
0.0
 20
0.0
 30
0.0
 70
   128
 71
    73
 72
    74
 73
   -96
 74
   -73
  0
VERTEX
  5
311
  8
0
 62
    21
 10
0.0
 20
0.0
 30
0.0
 70
   128
 71
    97
 72
    96
 73
   -74
 74
   -97
  0
VERTEX
  5
312
  8
0
 62
    21
 10
0.0
 20
0.0
 30
0.0
 70
   128
 71
    74
 72
    75
 73
   -97
 74
   -74
  0
VERTEX
  5
313
  8
0
 62
    21
 10
0.0
 20
0.0
 30
0.0
 70
   128
 71
    93
 72
   292
 73
   -76
 74
   -93
  0
VERTEX
  5
314
  8
0
 62
    21
 10
0.0
 20
0.0
 30
0.0
 70
   128
 71
    76
 72
    69
 73
   -93
 74
   -76
  0
VERTEX
  5
315
  8
0
 62
    21
 10
0.0
 20
0.0
 30
0.0
 70
   128
 71
   291
 72
    97
 73
   -75
 74
  -291
  0
VERTEX
  5
316
  8
0
 62
    21
 10
0.0
 20
0.0
 30
0.0
 70
   128
 71
    75
 72
   282
 73
  -291
 74
   -75
  0
VERTEX
  5
317
  8
0
 62
    21
 10
0.0
 20
0.0
 30
0.0
 70
   128
 71
    99
 72
   100
 73
   -86
 74
   -99
  0
VERTEX
  5
318
  8
0
 62
    21
 10
0.0
 20
0.0
 30
0.0
 70
   128
 71
   -86
 72
   286
 73
   -99
 74
   -86
  0
VERTEX
  5
319
  8
0
 62
    21
 10
0.0
 20
0.0
 30
0.0
 70
   128
 71
   104
 72
    99
 73
  -286
 74
  -104
  0
VERTEX
  5
31A
  8
0
 62
    21
 10
0.0
 20
0.0
 30
0.0
 70
   128
 71
   285
 72
    90
 73
  -104
 74
  -285
  0
VERTEX
  5
31B
  8
0
 62
    21
 10
0.0
 20
0.0
 30
0.0
 70
   128
 71
   100
 72
   101
 73
   -87
 74
  -100
  0
VERTEX
  5
31C
  8
0
 62
    21
 10
0.0
 20
0.0
 30
0.0
 70
   128
 71
    87
 72
    86
 73
  -100
 74
   -87
  0
VERTEX
  5
31D
  8
0
 62
    21
 10
0.0
 20
0.0
 30
0.0
 70
   128
 71
   101
 72
   102
 73
   -88
 74
  -101
  0
VERTEX
  5
31E
  8
0
 62
    21
 10
0.0
 20
0.0
 30
0.0
 70
   128
 71
    88
 72
    87
 73
  -101
 74
   -88
  0
VERTEX
  5
31F
  8
0
 62
    21
 10
0.0
 20
0.0
 30
0.0
 70
   128
 71
   102
 72
   103
 73
   -89
 74
  -102
  0
VERTEX
  5
320
  8
0
 62
    21
 10
0.0
 20
0.0
 30
0.0
 70
   128
 71
   288
 72
    88
 73
  -102
 74
  -288
  0
VERTEX
  5
321
  8
0
 62
    21
 10
0.0
 20
0.0
 30
0.0
 70
   128
 71
   103
 72
   105
 73
   -91
 74
  -103
  0
VERTEX
  5
322
  8
0
 62
    21
 10
0.0
 20
0.0
 30
0.0
 70
   128
 71
   -91
 72
    89
 73
  -103
 74
   -91
  0
VERTEX
  5
323
  8
0
 62
    21
 10
0.0
 20
0.0
 30
0.0
 70
   128
 71
   106
 72
   104
 73
   -90
 74
  -106
  0
VERTEX
  5
324
  8
0
 62
    21
 10
0.0
 20
0.0
 30
0.0
 70
   128
 71
    90
 72
    92
 73
  -106
 74
   -90
  0
VERTEX
  5
325
  8
0
 62
    21
 10
0.0
 20
0.0
 30
0.0
 70
   128
 71
   105
 72
   107
 73
   -93
 74
  -105
  0
VERTEX
  5
326
  8
0
 62
    21
 10
0.0
 20
0.0
 30
0.0
 70
   128
 71
    93
 72
    91
 73
  -105
 74
   -93
  0
VERTEX
  5
327
  8
0
 62
    21
 10
0.0
 20
0.0
 30
0.0
 70
   128
 71
   109
 72
   108
 73
  -290
 74
  -109
  0
VERTEX
  5
328
  8
0
 62
    21
 10
0.0
 20
0.0
 30
0.0
 70
   128
 71
   289
 72
    95
 73
  -109
 74
  -289
  0
VERTEX
  5
329
  8
0
 62
    21
 10
0.0
 20
0.0
 30
0.0
 70
   128
 71
   108
 72
   106
 73
   -92
 74
  -108
  0
VERTEX
  5
32A
  8
0
 62
    21
 10
0.0
 20
0.0
 30
0.0
 70
   128
 71
   -92
 72
   290
 73
  -108
 74
   -92
  0
VERTEX
  5
32B
  8
0
 62
    21
 10
0.0
 20
0.0
 30
0.0
 70
   128
 71
   110
 72
   109
 73
   -95
 74
  -110
  0
VERTEX
  5
32C
  8
0
 62
    21
 10
0.0
 20
0.0
 30
0.0
 70
   128
 71
    95
 72
    96
 73
  -110
 74
   -95
  0
VERTEX
  5
32D
  8
0
 62
    21
 10
0.0
 20
0.0
 30
0.0
 70
   128
 71
   111
 72
   110
 73
   -96
 74
  -111
  0
VERTEX
  5
32E
  8
0
 62
    21
 10
0.0
 20
0.0
 30
0.0
 70
   128
 71
    96
 72
    97
 73
  -111
 74
   -96
  0
VERTEX
  5
32F
  8
0
 62
    21
 10
0.0
 20
0.0
 30
0.0
 70
   128
 71
   107
 72
   112
 73
   -98
 74
  -107
  0
VERTEX
  5
330
  8
0
 62
    21
 10
0.0
 20
0.0
 30
0.0
 70
   128
 71
   292
 72
    93
 73
  -107
 74
  -292
  0
VERTEX
  5
331
  8
0
 62
    21
 10
0.0
 20
0.0
 30
0.0
 70
   128
 71
   112
 72
   111
 73
   -97
 74
  -112
  0
VERTEX
  5
332
  8
0
 62
    21
 10
0.0
 20
0.0
 30
0.0
 70
   128
 71
   -97
 72
    98
 73
  -112
 74
   -97
  0
VERTEX
  5
333
  8
0
 62
    21
 10
0.0
 20
0.0
 30
0.0
 70
   128
 71
   113
 72
   114
 73
  -100
 74
  -113
  0
VERTEX
  5
334
  8
0
 62
    21
 10
0.0
 20
0.0
 30
0.0
 70
   128
 71
   100
 72
    99
 73
  -113
 74
  -100
  0
VERTEX
  5
335
  8
0
 62
    21
 10
0.0
 20
0.0
 30
0.0
 70
   128
 71
   118
 72
   113
 73
   -99
 74
  -118
  0
VERTEX
  5
336
  8
0
 62
    21
 10
0.0
 20
0.0
 30
0.0
 70
   128
 71
    99
 72
   104
 73
  -118
 74
   -99
  0
VERTEX
  5
337
  8
0
 62
    21
 10
0.0
 20
0.0
 30
0.0
 70
   128
 71
   114
 72
   115
 73
  -101
 74
  -114
  0
VERTEX
  5
338
  8
0
 62
    21
 10
0.0
 20
0.0
 30
0.0
 70
   128
 71
   101
 72
   100
 73
  -114
 74
  -101
  0
VERTEX
  5
339
  8
0
 62
    21
 10
0.0
 20
0.0
 30
0.0
 70
   128
 71
   115
 72
   116
 73
  -102
 74
  -115
  0
VERTEX
  5
33A
  8
0
 62
    21
 10
0.0
 20
0.0
 30
0.0
 70
   128
 71
   102
 72
   101
 73
  -115
 74
  -102
  0
VERTEX
  5
33B
  8
0
 62
    21
 10
0.0
 20
0.0
 30
0.0
 70
   128
 71
   116
 72
   117
 73
  -103
 74
  -116
  0
VERTEX
  5
33C
  8
0
 62
    21
 10
0.0
 20
0.0
 30
0.0
 70
   128
 71
   103
 72
   102
 73
  -116
 74
  -103
  0
VERTEX
  5
33D
  8
0
 62
    21
 10
0.0
 20
0.0
 30
0.0
 70
   128
 71
   117
 72
   119
 73
  -105
 74
  -117
  0
VERTEX
  5
33E
  8
0
 62
    21
 10
0.0
 20
0.0
 30
0.0
 70
   128
 71
   105
 72
   103
 73
  -117
 74
  -105
  0
VERTEX
  5
33F
  8
0
 62
    21
 10
0.0
 20
0.0
 30
0.0
 70
   128
 71
   120
 72
   118
 73
  -104
 74
  -120
  0
VERTEX
  5
340
  8
0
 62
    21
 10
0.0
 20
0.0
 30
0.0
 70
   128
 71
   104
 72
   106
 73
  -120
 74
  -104
  0
VERTEX
  5
341
  8
0
 62
    21
 10
0.0
 20
0.0
 30
0.0
 70
   128
 71
   119
 72
   121
 73
  -107
 74
  -119
  0
VERTEX
  5
342
  8
0
 62
    21
 10
0.0
 20
0.0
 30
0.0
 70
   128
 71
   107
 72
   105
 73
  -119
 74
  -107
  0
VERTEX
  5
343
  8
0
 62
    21
 10
0.0
 20
0.0
 30
0.0
 70
   128
 71
   123
 72
   122
 73
  -108
 74
  -123
  0
VERTEX
  5
344
  8
0
 62
    21
 10
0.0
 20
0.0
 30
0.0
 70
   128
 71
   108
 72
   109
 73
  -123
 74
  -108
  0
VERTEX
  5
345
  8
0
 62
    21
 10
0.0
 20
0.0
 30
0.0
 70
   128
 71
   122
 72
   120
 73
  -106
 74
  -122
  0
VERTEX
  5
346
  8
0
 62
    21
 10
0.0
 20
0.0
 30
0.0
 70
   128
 71
   106
 72
   108
 73
  -122
 74
  -106
  0
VERTEX
  5
347
  8
0
 62
    21
 10
0.0
 20
0.0
 30
0.0
 70
   128
 71
   124
 72
   123
 73
  -109
 74
  -124
  0
VERTEX
  5
348
  8
0
 62
    21
 10
0.0
 20
0.0
 30
0.0
 70
   128
 71
   109
 72
   110
 73
  -124
 74
  -109
  0
VERTEX
  5
349
  8
0
 62
    21
 10
0.0
 20
0.0
 30
0.0
 70
   128
 71
   125
 72
   124
 73
  -110
 74
  -125
  0
VERTEX
  5
34A
  8
0
 62
    21
 10
0.0
 20
0.0
 30
0.0
 70
   128
 71
   110
 72
   111
 73
  -125
 74
  -110
  0
VERTEX
  5
34B
  8
0
 62
    21
 10
0.0
 20
0.0
 30
0.0
 70
   128
 71
   121
 72
   126
 73
  -112
 74
  -121
  0
VERTEX
  5
34C
  8
0
 62
    21
 10
0.0
 20
0.0
 30
0.0
 70
   128
 71
   112
 72
   107
 73
  -121
 74
  -112
  0
VERTEX
  5
34D
  8
0
 62
    21
 10
0.0
 20
0.0
 30
0.0
 70
   128
 71
   126
 72
   125
 73
  -111
 74
  -126
  0
VERTEX
  5
34E
  8
0
 62
    21
 10
0.0
 20
0.0
 30
0.0
 70
   128
 71
   111
 72
   112
 73
  -126
 74
  -111
  0
VERTEX
  5
34F
  8
0
 62
    21
 10
0.0
 20
0.0
 30
0.0
 70
   128
 71
   231
 72
   230
 73
  -169
 74
  -231
  0
VERTEX
  5
350
  8
0
 62
    21
 10
0.0
 20
0.0
 30
0.0
 70
   128
 71
   169
 72
   189
 73
  -231
 74
  -169
  0
VERTEX
  5
351
  8
0
 62
    21
 10
0.0
 20
0.0
 30
0.0
 70
   128
 71
   232
 72
   231
 73
  -189
 74
  -232
  0
VERTEX
  5
352
  8
0
 62
    21
 10
0.0
 20
0.0
 30
0.0
 70
   128
 71
   189
 72
   190
 73
  -232
 74
  -189
  0
VERTEX
  5
353
  8
0
 62
    21
 10
0.0
 20
0.0
 30
0.0
 70
   128
 71
   233
 72
   232
 73
  -190
 74
  -233
  0
VERTEX
  5
354
  8
0
 62
    21
 10
0.0
 20
0.0
 30
0.0
 70
   128
 71
   190
 72
   191
 73
  -233
 74
  -190
  0
VERTEX
  5
355
  8
0
 62
    21
 10
0.0
 20
0.0
 30
0.0
 70
   128
 71
   234
 72
   233
 73
  -191
 74
  -234
  0
VERTEX
  5
356
  8
0
 62
    21
 10
0.0
 20
0.0
 30
0.0
 70
   128
 71
   191
 72
   213
 73
  -234
 74
  -191
  0
VERTEX
  5
357
  8
0
 62
    21
 10
0.0
 20
0.0
 30
0.0
 70
   128
 71
   230
 72
   235
 73
   -16
 74
  -230
  0
VERTEX
  5
358
  8
0
 62
    21
 10
0.0
 20
0.0
 30
0.0
 70
   128
 71
    16
 72
   169
 73
  -230
 74
   -16
  0
VERTEX
  5
359
  8
0
 62
    21
 10
0.0
 20
0.0
 30
0.0
 70
   128
 71
   236
 72
   234
 73
  -213
 74
  -236
  0
VERTEX
  5
35A
  8
0
 62
    21
 10
0.0
 20
0.0
 30
0.0
 70
   128
 71
   213
 72
   217
 73
  -236
 74
  -213
  0
VERTEX
  5
35B
  8
0
 62
    21
 10
0.0
 20
0.0
 30
0.0
 70
   128
 71
   235
 72
   237
 73
   -23
 74
  -235
  0
VERTEX
  5
35C
  8
0
 62
    21
 10
0.0
 20
0.0
 30
0.0
 70
   128
 71
    23
 72
    16
 73
  -235
 74
   -23
  0
VERTEX
  5
35D
  8
0
 62
    21
 10
0.0
 20
0.0
 30
0.0
 70
   128
 71
   238
 72
   236
 73
  -217
 74
  -238
  0
VERTEX
  5
35E
  8
0
 62
    21
 10
0.0
 20
0.0
 30
0.0
 70
   128
 71
   217
 72
   219
 73
  -238
 74
  -217
  0
VERTEX
  5
35F
  8
0
 62
    21
 10
0.0
 20
0.0
 30
0.0
 70
   128
 71
   237
 72
   239
 73
   -30
 74
  -237
  0
VERTEX
  5
360
  8
0
 62
    21
 10
0.0
 20
0.0
 30
0.0
 70
   128
 71
    30
 72
    23
 73
  -237
 74
   -30
  0
VERTEX
  5
361
  8
0
 62
    21
 10
0.0
 20
0.0
 30
0.0
 70
   128
 71
   239
 72
   240
 73
   -31
 74
  -239
  0
VERTEX
  5
362
  8
0
 62
    21
 10
0.0
 20
0.0
 30
0.0
 70
   128
 71
    31
 72
    30
 73
  -239
 74
   -31
  0
VERTEX
  5
363
  8
0
 62
    21
 10
0.0
 20
0.0
 30
0.0
 70
   128
 71
   240
 72
   241
 73
   -32
 74
  -240
  0
VERTEX
  5
364
  8
0
 62
    21
 10
0.0
 20
0.0
 30
0.0
 70
   128
 71
    32
 72
    31
 73
  -240
 74
   -32
  0
VERTEX
  5
365
  8
0
 62
    21
 10
0.0
 20
0.0
 30
0.0
 70
   128
 71
   241
 72
   242
 73
   -33
 74
  -241
  0
VERTEX
  5
366
  8
0
 62
    21
 10
0.0
 20
0.0
 30
0.0
 70
   128
 71
    33
 72
    32
 73
  -241
 74
   -33
  0
VERTEX
  5
367
  8
0
 62
    21
 10
0.0
 20
0.0
 30
0.0
 70
   128
 71
   242
 72
   243
 73
  -244
 74
  -242
  0
VERTEX
  5
368
  8
0
 62
    21
 10
0.0
 20
0.0
 30
0.0
 70
   128
 71
   244
 72
    33
 73
  -242
 74
  -244
  0
VERTEX
  5
369
  8
0
 62
    21
 10
0.0
 20
0.0
 30
0.0
 70
   128
 71
   243
 72
   238
 73
  -219
 74
  -243
  0
VERTEX
  5
36A
  8
0
 62
    21
 10
0.0
 20
0.0
 30
0.0
 70
   128
 71
   219
 72
   244
 73
  -243
 74
  -219
  0
VERTEX
  5
36B
  8
0
 62
    21
 10
0.0
 20
0.0
 30
0.0
 70
   128
 71
   141
 72
   146
 73
  -132
 74
  -141
  0
VERTEX
  5
36C
  8
0
 62
    21
 10
0.0
 20
0.0
 30
0.0
 70
   128
 71
   132
 72
   127
 73
  -141
 74
  -132
  0
VERTEX
  5
36D
  8
0
 62
    21
 10
0.0
 20
0.0
 30
0.0
 70
   128
 71
   142
 72
   141
 73
  -127
 74
  -142
  0
VERTEX
  5
36E
  8
0
 62
    21
 10
0.0
 20
0.0
 30
0.0
 70
   128
 71
   127
 72
   128
 73
  -142
 74
  -127
  0
VERTEX
  5
36F
  8
0
 62
    21
 10
0.0
 20
0.0
 30
0.0
 70
   128
 71
   143
 72
   142
 73
  -128
 74
  -143
  0
VERTEX
  5
370
  8
0
 62
    21
 10
0.0
 20
0.0
 30
0.0
 70
   128
 71
   128
 72
   129
 73
  -143
 74
  -128
  0
VERTEX
  5
371
  8
0
 62
    21
 10
0.0
 20
0.0
 30
0.0
 70
   128
 71
   144
 72
   143
 73
  -129
 74
  -144
  0
VERTEX
  5
372
  8
0
 62
    21
 10
0.0
 20
0.0
 30
0.0
 70
   128
 71
   129
 72
   130
 73
  -144
 74
  -129
  0
VERTEX
  5
373
  8
0
 62
    21
 10
0.0
 20
0.0
 30
0.0
 70
   128
 71
   147
 72
   145
 73
  -131
 74
  -147
  0
VERTEX
  5
374
  8
0
 62
    21
 10
0.0
 20
0.0
 30
0.0
 70
   128
 71
   131
 72
   133
 73
  -147
 74
  -131
  0
VERTEX
  5
375
  8
0
 62
    21
 10
0.0
 20
0.0
 30
0.0
 70
   128
 71
   145
 72
   144
 73
  -130
 74
  -145
  0
VERTEX
  5
376
  8
0
 62
    21
 10
0.0
 20
0.0
 30
0.0
 70
   128
 71
   130
 72
   131
 73
  -145
 74
  -130
  0
VERTEX
  5
377
  8
0
 62
    21
 10
0.0
 20
0.0
 30
0.0
 70
   128
 71
   146
 72
   148
 73
  -134
 74
  -146
  0
VERTEX
  5
378
  8
0
 62
    21
 10
0.0
 20
0.0
 30
0.0
 70
   128
 71
   134
 72
   132
 73
  -146
 74
  -134
  0
VERTEX
  5
379
  8
0
 62
    21
 10
0.0
 20
0.0
 30
0.0
 70
   128
 71
   149
 72
   147
 73
  -133
 74
  -149
  0
VERTEX
  5
37A
  8
0
 62
    21
 10
0.0
 20
0.0
 30
0.0
 70
   128
 71
   133
 72
   135
 73
  -149
 74
  -133
  0
VERTEX
  5
37B
  8
0
 62
    21
 10
0.0
 20
0.0
 30
0.0
 70
   128
 71
   148
 72
   150
 73
  -136
 74
  -148
  0
VERTEX
  5
37C
  8
0
 62
    21
 10
0.0
 20
0.0
 30
0.0
 70
   128
 71
   136
 72
   134
 73
  -148
 74
  -136
  0
VERTEX
  5
37D
  8
0
 62
    21
 10
0.0
 20
0.0
 30
0.0
 70
   128
 71
   150
 72
   151
 73
  -137
 74
  -150
  0
VERTEX
  5
37E
  8
0
 62
    21
 10
0.0
 20
0.0
 30
0.0
 70
   128
 71
   137
 72
   136
 73
  -150
 74
  -137
  0
VERTEX
  5
37F
  8
0
 62
    21
 10
0.0
 20
0.0
 30
0.0
 70
   128
 71
   151
 72
   152
 73
  -138
 74
  -151
  0
VERTEX
  5
380
  8
0
 62
    21
 10
0.0
 20
0.0
 30
0.0
 70
   128
 71
   138
 72
   137
 73
  -151
 74
  -138
  0
VERTEX
  5
381
  8
0
 62
    21
 10
0.0
 20
0.0
 30
0.0
 70
   128
 71
   152
 72
   153
 73
  -139
 74
  -152
  0
VERTEX
  5
382
  8
0
 62
    21
 10
0.0
 20
0.0
 30
0.0
 70
   128
 71
   139
 72
   138
 73
  -152
 74
  -139
  0
VERTEX
  5
383
  8
0
 62
    21
 10
0.0
 20
0.0
 30
0.0
 70
   128
 71
   153
 72
   154
 73
  -140
 74
  -153
  0
VERTEX
  5
384
  8
0
 62
    21
 10
0.0
 20
0.0
 30
0.0
 70
   128
 71
   140
 72
   139
 73
  -153
 74
  -140
  0
VERTEX
  5
385
  8
0
 62
    21
 10
0.0
 20
0.0
 30
0.0
 70
   128
 71
   154
 72
   149
 73
  -135
 74
  -154
  0
VERTEX
  5
386
  8
0
 62
    21
 10
0.0
 20
0.0
 30
0.0
 70
   128
 71
   135
 72
   140
 73
  -154
 74
  -135
  0
VERTEX
  5
387
  8
0
 62
    21
 10
0.0
 20
0.0
 30
0.0
 70
   128
 71
   155
 72
   160
 73
  -146
 74
  -155
  0
VERTEX
  5
388
  8
0
 62
    21
 10
0.0
 20
0.0
 30
0.0
 70
   128
 71
   146
 72
   141
 73
  -155
 74
  -146
  0
VERTEX
  5
389
  8
0
 62
    21
 10
0.0
 20
0.0
 30
0.0
 70
   128
 71
   156
 72
   155
 73
  -141
 74
  -156
  0
VERTEX
  5
38A
  8
0
 62
    21
 10
0.0
 20
0.0
 30
0.0
 70
   128
 71
   141
 72
   142
 73
  -156
 74
  -141
  0
VERTEX
  5
38B
  8
0
 62
    21
 10
0.0
 20
0.0
 30
0.0
 70
   128
 71
   157
 72
   156
 73
  -142
 74
  -157
  0
VERTEX
  5
38C
  8
0
 62
    21
 10
0.0
 20
0.0
 30
0.0
 70
   128
 71
   142
 72
   143
 73
  -157
 74
  -142
  0
VERTEX
  5
38D
  8
0
 62
    21
 10
0.0
 20
0.0
 30
0.0
 70
   128
 71
   158
 72
   157
 73
  -143
 74
  -158
  0
VERTEX
  5
38E
  8
0
 62
    21
 10
0.0
 20
0.0
 30
0.0
 70
   128
 71
   143
 72
   144
 73
  -158
 74
  -143
  0
VERTEX
  5
38F
  8
0
 62
    21
 10
0.0
 20
0.0
 30
0.0
 70
   128
 71
   161
 72
   159
 73
  -145
 74
  -161
  0
VERTEX
  5
390
  8
0
 62
    21
 10
0.0
 20
0.0
 30
0.0
 70
   128
 71
   145
 72
   147
 73
  -161
 74
  -145
  0
VERTEX
  5
391
  8
0
 62
    21
 10
0.0
 20
0.0
 30
0.0
 70
   128
 71
   159
 72
   158
 73
  -144
 74
  -159
  0
VERTEX
  5
392
  8
0
 62
    21
 10
0.0
 20
0.0
 30
0.0
 70
   128
 71
   144
 72
   145
 73
  -159
 74
  -144
  0
VERTEX
  5
393
  8
0
 62
    21
 10
0.0
 20
0.0
 30
0.0
 70
   128
 71
   160
 72
   162
 73
  -148
 74
  -160
  0
VERTEX
  5
394
  8
0
 62
    21
 10
0.0
 20
0.0
 30
0.0
 70
   128
 71
   148
 72
   146
 73
  -160
 74
  -148
  0
VERTEX
  5
395
  8
0
 62
    21
 10
0.0
 20
0.0
 30
0.0
 70
   128
 71
   163
 72
   161
 73
  -147
 74
  -163
  0
VERTEX
  5
396
  8
0
 62
    21
 10
0.0
 20
0.0
 30
0.0
 70
   128
 71
   147
 72
   149
 73
  -163
 74
  -147
  0
VERTEX
  5
397
  8
0
 62
    21
 10
0.0
 20
0.0
 30
0.0
 70
   128
 71
   162
 72
   164
 73
  -150
 74
  -162
  0
VERTEX
  5
398
  8
0
 62
    21
 10
0.0
 20
0.0
 30
0.0
 70
   128
 71
   150
 72
   148
 73
  -162
 74
  -150
  0
VERTEX
  5
399
  8
0
 62
    21
 10
0.0
 20
0.0
 30
0.0
 70
   128
 71
   164
 72
   165
 73
  -151
 74
  -164
  0
VERTEX
  5
39A
  8
0
 62
    21
 10
0.0
 20
0.0
 30
0.0
 70
   128
 71
   151
 72
   150
 73
  -164
 74
  -151
  0
VERTEX
  5
39B
  8
0
 62
    21
 10
0.0
 20
0.0
 30
0.0
 70
   128
 71
   165
 72
   166
 73
  -152
 74
  -165
  0
VERTEX
  5
39C
  8
0
 62
    21
 10
0.0
 20
0.0
 30
0.0
 70
   128
 71
   152
 72
   151
 73
  -165
 74
  -152
  0
VERTEX
  5
39D
  8
0
 62
    21
 10
0.0
 20
0.0
 30
0.0
 70
   128
 71
   166
 72
   167
 73
  -153
 74
  -166
  0
VERTEX
  5
39E
  8
0
 62
    21
 10
0.0
 20
0.0
 30
0.0
 70
   128
 71
   153
 72
   152
 73
  -166
 74
  -153
  0
VERTEX
  5
39F
  8
0
 62
    21
 10
0.0
 20
0.0
 30
0.0
 70
   128
 71
   167
 72
   168
 73
  -154
 74
  -167
  0
VERTEX
  5
3A0
  8
0
 62
    21
 10
0.0
 20
0.0
 30
0.0
 70
   128
 71
   154
 72
   153
 73
  -167
 74
  -154
  0
VERTEX
  5
3A1
  8
0
 62
    21
 10
0.0
 20
0.0
 30
0.0
 70
   128
 71
   168
 72
   163
 73
  -149
 74
  -168
  0
VERTEX
  5
3A2
  8
0
 62
    21
 10
0.0
 20
0.0
 30
0.0
 70
   128
 71
   149
 72
   154
 73
  -168
 74
  -149
  0
VERTEX
  5
3A3
  8
0
 62
    21
 10
0.0
 20
0.0
 30
0.0
 70
   128
 71
   187
 72
   206
 73
  -205
 74
  -187
  0
VERTEX
  5
3A4
  8
0
 62
    21
 10
0.0
 20
0.0
 30
0.0
 70
   128
 71
   205
 72
   207
 73
  -170
 74
  -205
  0
VERTEX
  5
3A5
  8
0
 62
    21
 10
0.0
 20
0.0
 30
0.0
 70
   128
 71
  -187
 72
  -205
 73
  -170
 74
  -187
  0
VERTEX
  5
3A6
  8
0
 62
    21
 10
0.0
 20
0.0
 30
0.0
 70
   128
 71
  -187
 72
   170
 73
   188
 74
  -187
  0
VERTEX
  5
3A7
  8
0
 62
    21
 10
0.0
 20
0.0
 30
0.0
 70
   128
 71
    13
 72
   212
 73
  -174
 74
   -13
  0
VERTEX
  5
3A8
  8
0
 62
    21
 10
0.0
 20
0.0
 30
0.0
 70
   128
 71
   174
 72
   214
 73
  -175
 74
  -174
  0
VERTEX
  5
3A9
  8
0
 62
    21
 10
0.0
 20
0.0
 30
0.0
 70
   128
 71
   -13
 72
  -174
 73
  -175
 74
   -13
  0
VERTEX
  5
3AA
  8
0
 62
    21
 10
0.0
 20
0.0
 30
0.0
 70
   128
 71
   -13
 72
   175
 73
   192
 74
   -13
  0
VERTEX
  5
3AB
  8
0
 62
    21
 10
0.0
 20
0.0
 30
0.0
 70
   128
 71
   198
 72
   220
 73
  -180
 74
  -198
  0
VERTEX
  5
3AC
  8
0
 62
    21
 10
0.0
 20
0.0
 30
0.0
 70
   128
 71
   180
 72
   222
 73
  -181
 74
  -180
  0
VERTEX
  5
3AD
  8
0
 62
    21
 10
0.0
 20
0.0
 30
0.0
 70
   128
 71
  -198
 72
  -180
 73
  -181
 74
  -198
  0
VERTEX
  5
3AE
  8
0
 62
    21
 10
0.0
 20
0.0
 30
0.0
 70
   128
 71
  -198
 72
   181
 73
   199
 74
  -198
  0
VERTEX
  5
3AF
  8
0
 62
    21
 10
0.0
 20
0.0
 30
0.0
 70
   128
 71
   227
 72
   229
 73
  -228
 74
  -227
  0
VERTEX
  5
3B0
  8
0
 62
    21
 10
0.0
 20
0.0
 30
0.0
 70
   128
 71
   228
 72
   203
 73
  -227
 74
  -228
  0
VERTEX
  5
3B1
  8
0
 62
    21
 10
0.0
 20
0.0
 30
0.0
 70
   128
 71
   175
 72
   215
 73
  -264
 74
  -175
  0
VERTEX
  5
3B2
  8
0
 62
    21
 10
0.0
 20
0.0
 30
0.0
 70
   128
 71
   264
 72
   265
 73
   -14
 74
  -264
  0
VERTEX
  5
3B3
  8
0
 62
    21
 10
0.0
 20
0.0
 30
0.0
 70
   128
 71
  -264
 72
    14
 73
  -193
 74
  -264
  0
VERTEX
  5
3B4
  8
0
 62
    21
 10
0.0
 20
0.0
 30
0.0
 70
   128
 71
  -175
 72
  -264
 73
  -193
 74
  -175
  0
VERTEX
  5
3B5
  8
0
 62
    21
 10
0.0
 20
0.0
 30
0.0
 70
   128
 71
   192
 72
  -175
 73
   193
 74
  -192
  0
VERTEX
  5
3B6
  8
0
 62
    21
 10
0.0
 20
0.0
 30
0.0
 70
   128
 71
   180
 72
   221
 73
  -246
 74
  -180
  0
VERTEX
  5
3B7
  8
0
 62
    21
 10
0.0
 20
0.0
 30
0.0
 70
   128
 71
   246
 72
   245
 73
   -29
 74
  -246
  0
VERTEX
  5
3B8
  8
0
 62
    21
 10
0.0
 20
0.0
 30
0.0
 70
   128
 71
  -246
 72
    29
 73
  -223
 74
  -246
  0
VERTEX
  5
3B9
  8
0
 62
    21
 10
0.0
 20
0.0
 30
0.0
 70
   128
 71
  -180
 72
  -246
 73
  -223
 74
  -180
  0
VERTEX
  5
3BA
  8
0
 62
    21
 10
0.0
 20
0.0
 30
0.0
 70
   128
 71
   222
 72
  -180
 73
   223
 74
  -222
  0
VERTEX
  5
3BB
  8
0
 62
    21
 10
0.0
 20
0.0
 30
0.0
 70
   128
 71
     1
 72
     2
 73
  -260
 74
    -1
  0
VERTEX
  5
3BC
  8
0
 62
    21
 10
0.0
 20
0.0
 30
0.0
 70
   128
 71
   260
 72
   259
 73
    -1
 74
  -260
  0
VERTEX
  5
3BD
  8
0
 62
    21
 10
0.0
 20
0.0
 30
0.0
 70
   128
 71
   187
 72
   171
 73
   -10
 74
  -187
  0
VERTEX
  5
3BE
  8
0
 62
    21
 10
0.0
 20
0.0
 30
0.0
 70
   128
 71
    10
 72
   206
 73
  -187
 74
   -10
  0
VERTEX
  5
3BF
  8
0
 62
    21
 10
0.0
 20
0.0
 30
0.0
 70
   128
 71
   171
 72
   172
 73
   -11
 74
  -171
  0
VERTEX
  5
3C0
  8
0
 62
    21
 10
0.0
 20
0.0
 30
0.0
 70
   128
 71
    11
 72
    10
 73
  -171
 74
   -11
  0
VERTEX
  5
3C1
  8
0
 62
    21
 10
0.0
 20
0.0
 30
0.0
 70
   128
 71
   172
 72
   173
 73
   -12
 74
  -172
  0
VERTEX
  5
3C2
  8
0
 62
    21
 10
0.0
 20
0.0
 30
0.0
 70
   128
 71
    12
 72
    11
 73
  -172
 74
   -12
  0
VERTEX
  5
3C3
  8
0
 62
    21
 10
0.0
 20
0.0
 30
0.0
 70
   128
 71
   173
 72
   214
 73
  -174
 74
  -173
  0
VERTEX
  5
3C4
  8
0
 62
    21
 10
0.0
 20
0.0
 30
0.0
 70
   128
 71
   174
 72
    12
 73
  -173
 74
  -174
  0
VERTEX
  5
3C5
  8
0
 62
    21
 10
0.0
 20
0.0
 30
0.0
 70
   128
 71
   205
 72
   194
 73
  -176
 74
  -205
  0
VERTEX
  5
3C6
  8
0
 62
    21
 10
0.0
 20
0.0
 30
0.0
 70
   128
 71
   176
 72
   207
 73
  -205
 74
  -176
  0
VERTEX
  5
3C7
  8
0
 62
    21
 10
0.0
 20
0.0
 30
0.0
 70
   128
 71
    13
 72
   195
 73
  -177
 74
   -13
  0
VERTEX
  5
3C8
  8
0
 62
    21
 10
0.0
 20
0.0
 30
0.0
 70
   128
 71
   177
 72
   212
 73
   -13
 74
  -177
  0
VERTEX
  5
3C9
  8
0
 62
    21
 10
0.0
 20
0.0
 30
0.0
 70
   128
 71
   194
 72
   196
 73
  -178
 74
  -194
  0
VERTEX
  5
3CA
  8
0
 62
    21
 10
0.0
 20
0.0
 30
0.0
 70
   128
 71
   178
 72
   176
 73
  -194
 74
  -178
  0
VERTEX
  5
3CB
  8
0
 62
    21
 10
0.0
 20
0.0
 30
0.0
 70
   128
 71
   195
 72
   197
 73
  -179
 74
  -195
  0
VERTEX
  5
3CC
  8
0
 62
    21
 10
0.0
 20
0.0
 30
0.0
 70
   128
 71
   179
 72
   177
 73
  -195
 74
  -179
  0
VERTEX
  5
3CD
  8
0
 62
    21
 10
0.0
 20
0.0
 30
0.0
 70
   128
 71
   196
 72
   199
 73
  -181
 74
  -196
  0
VERTEX
  5
3CE
  8
0
 62
    21
 10
0.0
 20
0.0
 30
0.0
 70
   128
 71
   181
 72
   178
 73
  -196
 74
  -181
  0
VERTEX
  5
3CF
  8
0
 62
    21
 10
0.0
 20
0.0
 30
0.0
 70
   128
 71
   197
 72
   204
 73
  -228
 74
  -197
  0
VERTEX
  5
3D0
  8
0
 62
    21
 10
0.0
 20
0.0
 30
0.0
 70
   128
 71
   228
 72
   179
 73
  -197
 74
  -228
  0
VERTEX
  5
3D1
  8
0
 62
    21
 10
0.0
 20
0.0
 30
0.0
 70
   128
 71
   198
 72
   200
 73
  -182
 74
  -198
  0
VERTEX
  5
3D2
  8
0
 62
    21
 10
0.0
 20
0.0
 30
0.0
 70
   128
 71
   182
 72
   220
 73
  -198
 74
  -182
  0
VERTEX
  5
3D3
  8
0
 62
    21
 10
0.0
 20
0.0
 30
0.0
 70
   128
 71
   200
 72
   201
 73
  -183
 74
  -200
  0
VERTEX
  5
3D4
  8
0
 62
    21
 10
0.0
 20
0.0
 30
0.0
 70
   128
 71
   183
 72
   182
 73
  -200
 74
  -183
  0
VERTEX
  5
3D5
  8
0
 62
    21
 10
0.0
 20
0.0
 30
0.0
 70
   128
 71
   201
 72
   202
 73
  -184
 74
  -201
  0
VERTEX
  5
3D6
  8
0
 62
    21
 10
0.0
 20
0.0
 30
0.0
 70
   128
 71
   184
 72
   183
 73
  -201
 74
  -184
  0
VERTEX
  5
3D7
  8
0
 62
    21
 10
0.0
 20
0.0
 30
0.0
 70
   128
 71
   202
 72
   229
 73
  -227
 74
  -202
  0
VERTEX
  5
3D8
  8
0
 62
    21
 10
0.0
 20
0.0
 30
0.0
 70
   128
 71
   227
 72
   184
 73
  -202
 74
  -227
  0
VERTEX
  5
3D9
  8
0
 62
    21
 10
0.0
 20
0.0
 30
0.0
 70
   128
 71
     9
 72
   187
 73
   188
 74
    -9
  0
VERTEX
  5
3DA
  8
0
 62
    21
 10
0.0
 20
0.0
 30
0.0
 70
   128
 71
    13
 72
   192
 73
   193
 74
   -13
  0
VERTEX
  5
3DB
  8
0
 62
    21
 10
0.0
 20
0.0
 30
0.0
 70
   128
 71
    30
 72
   198
 73
   199
 74
   -30
  0
VERTEX
  5
3DC
  8
0
 62
    21
 10
0.0
 20
0.0
 30
0.0
 70
   128
 71
    34
 72
   203
 73
   204
 74
   -34
  0
VERTEX
  5
3DD
  8
0
 62
    21
 10
0.0
 20
0.0
 30
0.0
 70
   128
 71
   169
 72
   205
 73
   206
 74
  -169
  0
VERTEX
  5
3DE
  8
0
 62
    21
 10
0.0
 20
0.0
 30
0.0
 70
   128
 71
   170
 72
   207
 73
   208
 74
  -170
  0
VERTEX
  5
3DF
  8
0
 62
    21
 10
0.0
 20
0.0
 30
0.0
 70
   128
 71
   174
 72
   212
 73
   213
 74
  -174
  0
VERTEX
  5
3E0
  8
0
 62
    21
 10
0.0
 20
0.0
 30
0.0
 70
   128
 71
   175
 72
   214
 73
   215
 74
  -175
  0
VERTEX
  5
3E1
  8
0
 62
    21
 10
0.0
 20
0.0
 30
0.0
 70
   128
 71
   180
 72
   220
 73
   221
 74
  -180
  0
VERTEX
  5
3E2
  8
0
 62
    21
 10
0.0
 20
0.0
 30
0.0
 70
   128
 71
   181
 72
   222
 73
   223
 74
  -181
  0
VERTEX
  5
3E3
  8
0
 62
    21
 10
0.0
 20
0.0
 30
0.0
 70
   128
 71
   185
 72
   227
 73
   203
 74
  -185
  0
VERTEX
  5
3E4
  8
0
 62
    21
 10
0.0
 20
0.0
 30
0.0
 70
   128
 71
   244
 72
   228
 73
   229
 74
  -244
  0
VERTEX
  5
3E5
  8
0
 62
    21
 10
0.0
 20
0.0
 30
0.0
 70
   128
 71
   204
 72
   203
 73
   186
 74
  -204
  0
VERTEX
  5
3E6
  8
0
 62
    21
 10
0.0
 20
0.0
 30
0.0
 70
   128
 71
     9
 72
   209
 73
  -171
 74
    -9
  0
VERTEX
  5
3E7
  8
0
 62
    21
 10
0.0
 20
0.0
 30
0.0
 70
   128
 71
   171
 72
   187
 73
    -9
 74
  -171
  0
VERTEX
  5
3E8
  8
0
 62
    21
 10
0.0
 20
0.0
 30
0.0
 70
   128
 71
   209
 72
   210
 73
  -172
 74
  -209
  0
VERTEX
  5
3E9
  8
0
 62
    21
 10
0.0
 20
0.0
 30
0.0
 70
   128
 71
   172
 72
   171
 73
  -209
 74
  -172
  0
VERTEX
  5
3EA
  8
0
 62
    21
 10
0.0
 20
0.0
 30
0.0
 70
   128
 71
   210
 72
   211
 73
  -173
 74
  -210
  0
VERTEX
  5
3EB
  8
0
 62
    21
 10
0.0
 20
0.0
 30
0.0
 70
   128
 71
   173
 72
   172
 73
  -210
 74
  -173
  0
VERTEX
  5
3EC
  8
0
 62
    21
 10
0.0
 20
0.0
 30
0.0
 70
   128
 71
   211
 72
   215
 73
  -214
 74
  -211
  0
VERTEX
  5
3ED
  8
0
 62
    21
 10
0.0
 20
0.0
 30
0.0
 70
   128
 71
   214
 72
   173
 73
  -211
 74
  -214
  0
VERTEX
  5
3EE
  8
0
 62
    21
 10
0.0
 20
0.0
 30
0.0
 70
   128
 71
   207
 72
   176
 73
  -216
 74
  -207
  0
VERTEX
  5
3EF
  8
0
 62
    21
 10
0.0
 20
0.0
 30
0.0
 70
   128
 71
   216
 72
   208
 73
  -207
 74
  -216
  0
VERTEX
  5
3F0
  8
0
 62
    21
 10
0.0
 20
0.0
 30
0.0
 70
   128
 71
   193
 72
    20
 73
  -195
 74
  -193
  0
VERTEX
  5
3F1
  8
0
 62
    21
 10
0.0
 20
0.0
 30
0.0
 70
   128
 71
   195
 72
    13
 73
  -193
 74
  -195
  0
VERTEX
  5
3F2
  8
0
 62
    21
 10
0.0
 20
0.0
 30
0.0
 70
   128
 71
   176
 72
   178
 73
  -218
 74
  -176
  0
VERTEX
  5
3F3
  8
0
 62
    21
 10
0.0
 20
0.0
 30
0.0
 70
   128
 71
   218
 72
   216
 73
  -176
 74
  -218
  0
VERTEX
  5
3F4
  8
0
 62
    21
 10
0.0
 20
0.0
 30
0.0
 70
   128
 71
    20
 72
    27
 73
  -197
 74
   -20
  0
VERTEX
  5
3F5
  8
0
 62
    21
 10
0.0
 20
0.0
 30
0.0
 70
   128
 71
   197
 72
   195
 73
   -20
 74
  -197
  0
VERTEX
  5
3F6
  8
0
 62
    21
 10
0.0
 20
0.0
 30
0.0
 70
   128
 71
   178
 72
   181
 73
  -223
 74
  -178
  0
VERTEX
  5
3F7
  8
0
 62
    21
 10
0.0
 20
0.0
 30
0.0
 70
   128
 71
   223
 72
   218
 73
  -178
 74
  -223
  0
VERTEX
  5
3F8
  8
0
 62
    21
 10
0.0
 20
0.0
 30
0.0
 70
   128
 71
    27
 72
    34
 73
  -204
 74
   -27
  0
VERTEX
  5
3F9
  8
0
 62
    21
 10
0.0
 20
0.0
 30
0.0
 70
   128
 71
   204
 72
   197
 73
   -27
 74
  -204
  0
VERTEX
  5
3FA
  8
0
 62
    21
 10
0.0
 20
0.0
 30
0.0
 70
   128
 71
   220
 72
   182
 73
  -224
 74
  -220
  0
VERTEX
  5
3FB
  8
0
 62
    21
 10
0.0
 20
0.0
 30
0.0
 70
   128
 71
   224
 72
   221
 73
  -220
 74
  -224
  0
VERTEX
  5
3FC
  8
0
 62
    21
 10
0.0
 20
0.0
 30
0.0
 70
   128
 71
   182
 72
   183
 73
  -225
 74
  -182
  0
VERTEX
  5
3FD
  8
0
 62
    21
 10
0.0
 20
0.0
 30
0.0
 70
   128
 71
   225
 72
   224
 73
  -182
 74
  -225
  0
VERTEX
  5
3FE
  8
0
 62
    21
 10
0.0
 20
0.0
 30
0.0
 70
   128
 71
   183
 72
   184
 73
  -226
 74
  -183
  0
VERTEX
  5
3FF
  8
0
 62
    21
 10
0.0
 20
0.0
 30
0.0
 70
   128
 71
   226
 72
   225
 73
  -183
 74
  -226
  0
VERTEX
  5
400
  8
0
 62
    21
 10
0.0
 20
0.0
 30
0.0
 70
   128
 71
   184
 72
   227
 73
  -185
 74
  -184
  0
VERTEX
  5
401
  8
0
 62
    21
 10
0.0
 20
0.0
 30
0.0
 70
   128
 71
   185
 72
   226
 73
  -184
 74
  -185
  0
VERTEX
  5
402
  8
0
 62
    21
 10
0.0
 20
0.0
 30
0.0
 70
   128
 71
   189
 72
   169
 73
  -206
 74
  -189
  0
VERTEX
  5
403
  8
0
 62
    21
 10
0.0
 20
0.0
 30
0.0
 70
   128
 71
   206
 72
    10
 73
  -189
 74
  -206
  0
VERTEX
  5
404
  8
0
 62
    21
 10
0.0
 20
0.0
 30
0.0
 70
   128
 71
    10
 72
    11
 73
  -190
 74
   -10
  0
VERTEX
  5
405
  8
0
 62
    21
 10
0.0
 20
0.0
 30
0.0
 70
   128
 71
   190
 72
   189
 73
   -10
 74
  -190
  0
VERTEX
  5
406
  8
0
 62
    21
 10
0.0
 20
0.0
 30
0.0
 70
   128
 71
    11
 72
    12
 73
  -191
 74
   -11
  0
VERTEX
  5
407
  8
0
 62
    21
 10
0.0
 20
0.0
 30
0.0
 70
   128
 71
   191
 72
   190
 73
   -11
 74
  -191
  0
VERTEX
  5
408
  8
0
 62
    21
 10
0.0
 20
0.0
 30
0.0
 70
   128
 71
    12
 72
   174
 73
  -213
 74
   -12
  0
VERTEX
  5
409
  8
0
 62
    21
 10
0.0
 20
0.0
 30
0.0
 70
   128
 71
   213
 72
   191
 73
   -12
 74
  -213
  0
VERTEX
  5
40A
  8
0
 62
    21
 10
0.0
 20
0.0
 30
0.0
 70
   128
 71
   194
 72
   205
 73
  -169
 74
  -194
  0
VERTEX
  5
40B
  8
0
 62
    21
 10
0.0
 20
0.0
 30
0.0
 70
   128
 71
   169
 72
    16
 73
  -194
 74
  -169
  0
VERTEX
  5
40C
  8
0
 62
    21
 10
0.0
 20
0.0
 30
0.0
 70
   128
 71
   212
 72
   177
 73
  -217
 74
  -212
  0
VERTEX
  5
40D
  8
0
 62
    21
 10
0.0
 20
0.0
 30
0.0
 70
   128
 71
   217
 72
   213
 73
  -212
 74
  -217
  0
VERTEX
  5
40E
  8
0
 62
    21
 10
0.0
 20
0.0
 30
0.0
 70
   128
 71
    16
 72
    23
 73
  -196
 74
   -16
  0
VERTEX
  5
40F
  8
0
 62
    21
 10
0.0
 20
0.0
 30
0.0
 70
   128
 71
   196
 72
   194
 73
   -16
 74
  -196
  0
VERTEX
  5
410
  8
0
 62
    21
 10
0.0
 20
0.0
 30
0.0
 70
   128
 71
   177
 72
   179
 73
  -219
 74
  -177
  0
VERTEX
  5
411
  8
0
 62
    21
 10
0.0
 20
0.0
 30
0.0
 70
   128
 71
   219
 72
   217
 73
  -177
 74
  -219
  0
VERTEX
  5
412
  8
0
 62
    21
 10
0.0
 20
0.0
 30
0.0
 70
   128
 71
    23
 72
    30
 73
  -199
 74
   -23
  0
VERTEX
  5
413
  8
0
 62
    21
 10
0.0
 20
0.0
 30
0.0
 70
   128
 71
   199
 72
   196
 73
   -23
 74
  -199
  0
VERTEX
  5
414
  8
0
 62
    21
 10
0.0
 20
0.0
 30
0.0
 70
   128
 71
    30
 72
    31
 73
  -200
 74
   -30
  0
VERTEX
  5
415
  8
0
 62
    21
 10
0.0
 20
0.0
 30
0.0
 70
   128
 71
   200
 72
   198
 73
   -30
 74
  -200
  0
VERTEX
  5
416
  8
0
 62
    21
 10
0.0
 20
0.0
 30
0.0
 70
   128
 71
    31
 72
    32
 73
  -201
 74
   -31
  0
VERTEX
  5
417
  8
0
 62
    21
 10
0.0
 20
0.0
 30
0.0
 70
   128
 71
   201
 72
   200
 73
   -31
 74
  -201
  0
VERTEX
  5
418
  8
0
 62
    21
 10
0.0
 20
0.0
 30
0.0
 70
   128
 71
    32
 72
    33
 73
  -202
 74
   -32
  0
VERTEX
  5
419
  8
0
 62
    21
 10
0.0
 20
0.0
 30
0.0
 70
   128
 71
   202
 72
   201
 73
   -32
 74
  -202
  0
VERTEX
  5
41A
  8
0
 62
    21
 10
0.0
 20
0.0
 30
0.0
 70
   128
 71
    33
 72
   244
 73
  -229
 74
   -33
  0
VERTEX
  5
41B
  8
0
 62
    21
 10
0.0
 20
0.0
 30
0.0
 70
   128
 71
   229
 72
   202
 73
   -33
 74
  -229
  0
VERTEX
  5
41C
  8
0
 62
    21
 10
0.0
 20
0.0
 30
0.0
 70
   128
 71
   179
 72
   228
 73
  -244
 74
  -179
  0
VERTEX
  5
41D
  8
0
 62
    21
 10
0.0
 20
0.0
 30
0.0
 70
   128
 71
   244
 72
   219
 73
  -179
 74
  -244
  0
VERTEX
  5
41E
  8
0
 62
    21
 10
0.0
 20
0.0
 30
0.0
 70
   128
 71
   230
 72
   231
 73
  -128
 74
  -230
  0
VERTEX
  5
41F
  8
0
 62
    21
 10
0.0
 20
0.0
 30
0.0
 70
   128
 71
   128
 72
   127
 73
  -230
 74
  -128
  0
VERTEX
  5
420
  8
0
 62
    21
 10
0.0
 20
0.0
 30
0.0
 70
   128
 71
   231
 72
   232
 73
  -129
 74
  -231
  0
VERTEX
  5
421
  8
0
 62
    21
 10
0.0
 20
0.0
 30
0.0
 70
   128
 71
   129
 72
   128
 73
  -231
 74
  -129
  0
VERTEX
  5
422
  8
0
 62
    21
 10
0.0
 20
0.0
 30
0.0
 70
   128
 71
   232
 72
   233
 73
  -130
 74
  -232
  0
VERTEX
  5
423
  8
0
 62
    21
 10
0.0
 20
0.0
 30
0.0
 70
   128
 71
   130
 72
   129
 73
  -232
 74
  -130
  0
VERTEX
  5
424
  8
0
 62
    21
 10
0.0
 20
0.0
 30
0.0
 70
   128
 71
   233
 72
   234
 73
  -131
 74
  -233
  0
VERTEX
  5
425
  8
0
 62
    21
 10
0.0
 20
0.0
 30
0.0
 70
   128
 71
   131
 72
   130
 73
  -233
 74
  -131
  0
VERTEX
  5
426
  8
0
 62
    21
 10
0.0
 20
0.0
 30
0.0
 70
   128
 71
   127
 72
   132
 73
  -235
 74
  -127
  0
VERTEX
  5
427
  8
0
 62
    21
 10
0.0
 20
0.0
 30
0.0
 70
   128
 71
   235
 72
   230
 73
  -127
 74
  -235
  0
VERTEX
  5
428
  8
0
 62
    21
 10
0.0
 20
0.0
 30
0.0
 70
   128
 71
   234
 72
   236
 73
  -133
 74
  -234
  0
VERTEX
  5
429
  8
0
 62
    21
 10
0.0
 20
0.0
 30
0.0
 70
   128
 71
   133
 72
   131
 73
  -234
 74
  -133
  0
VERTEX
  5
42A
  8
0
 62
    21
 10
0.0
 20
0.0
 30
0.0
 70
   128
 71
   132
 72
   134
 73
  -237
 74
  -132
  0
VERTEX
  5
42B
  8
0
 62
    21
 10
0.0
 20
0.0
 30
0.0
 70
   128
 71
   237
 72
   235
 73
  -132
 74
  -237
  0
VERTEX
  5
42C
  8
0
 62
    21
 10
0.0
 20
0.0
 30
0.0
 70
   128
 71
   236
 72
   238
 73
  -135
 74
  -236
  0
VERTEX
  5
42D
  8
0
 62
    21
 10
0.0
 20
0.0
 30
0.0
 70
   128
 71
   135
 72
   133
 73
  -236
 74
  -135
  0
VERTEX
  5
42E
  8
0
 62
    21
 10
0.0
 20
0.0
 30
0.0
 70
   128
 71
   134
 72
   136
 73
  -239
 74
  -134
  0
VERTEX
  5
42F
  8
0
 62
    21
 10
0.0
 20
0.0
 30
0.0
 70
   128
 71
   239
 72
   237
 73
  -134
 74
  -239
  0
VERTEX
  5
430
  8
0
 62
    21
 10
0.0
 20
0.0
 30
0.0
 70
   128
 71
   136
 72
   137
 73
  -240
 74
  -136
  0
VERTEX
  5
431
  8
0
 62
    21
 10
0.0
 20
0.0
 30
0.0
 70
   128
 71
   240
 72
   239
 73
  -136
 74
  -240
  0
VERTEX
  5
432
  8
0
 62
    21
 10
0.0
 20
0.0
 30
0.0
 70
   128
 71
   137
 72
   138
 73
  -241
 74
  -137
  0
VERTEX
  5
433
  8
0
 62
    21
 10
0.0
 20
0.0
 30
0.0
 70
   128
 71
   241
 72
   240
 73
  -137
 74
  -241
  0
VERTEX
  5
434
  8
0
 62
    21
 10
0.0
 20
0.0
 30
0.0
 70
   128
 71
   138
 72
   139
 73
  -242
 74
  -138
  0
VERTEX
  5
435
  8
0
 62
    21
 10
0.0
 20
0.0
 30
0.0
 70
   128
 71
   242
 72
   241
 73
  -138
 74
  -242
  0
VERTEX
  5
436
  8
0
 62
    21
 10
0.0
 20
0.0
 30
0.0
 70
   128
 71
   139
 72
   140
 73
  -243
 74
  -139
  0
VERTEX
  5
437
  8
0
 62
    21
 10
0.0
 20
0.0
 30
0.0
 70
   128
 71
   243
 72
   242
 73
  -139
 74
  -243
  0
VERTEX
  5
438
  8
0
 62
    21
 10
0.0
 20
0.0
 30
0.0
 70
   128
 71
   238
 72
   243
 73
  -140
 74
  -238
  0
VERTEX
  5
439
  8
0
 62
    21
 10
0.0
 20
0.0
 30
0.0
 70
   128
 71
   140
 72
   135
 73
  -238
 74
  -140
  0
VERTEX
  5
43A
  8
0
 62
    21
 10
0.0
 20
0.0
 30
0.0
 70
   128
 71
   221
 72
   224
 73
  -247
 74
  -221
  0
VERTEX
  5
43B
  8
0
 62
    21
 10
0.0
 20
0.0
 30
0.0
 70
   128
 71
   247
 72
   246
 73
  -221
 74
  -247
  0
VERTEX
  5
43C
  8
0
 62
    21
 10
0.0
 20
0.0
 30
0.0
 70
   128
 71
   224
 72
   225
 73
  -248
 74
  -224
  0
VERTEX
  5
43D
  8
0
 62
    21
 10
0.0
 20
0.0
 30
0.0
 70
   128
 71
   248
 72
   247
 73
  -224
 74
  -248
  0
VERTEX
  5
43E
  8
0
 62
    21
 10
0.0
 20
0.0
 30
0.0
 70
   128
 71
   225
 72
   226
 73
  -249
 74
  -225
  0
VERTEX
  5
43F
  8
0
 62
    21
 10
0.0
 20
0.0
 30
0.0
 70
   128
 71
   249
 72
   248
 73
  -225
 74
  -249
  0
VERTEX
  5
440
  8
0
 62
    21
 10
0.0
 20
0.0
 30
0.0
 70
   128
 71
   226
 72
   185
 73
  -250
 74
  -226
  0
VERTEX
  5
441
  8
0
 62
    21
 10
0.0
 20
0.0
 30
0.0
 70
   128
 71
   250
 72
   249
 73
  -226
 74
  -250
  0
VERTEX
  5
442
  8
0
 62
    21
 10
0.0
 20
0.0
 30
0.0
 70
   128
 71
   250
 72
   185
 73
  -203
 74
  -250
  0
VERTEX
  5
443
  8
0
 62
    21
 10
0.0
 20
0.0
 30
0.0
 70
   128
 71
   203
 72
    34
 73
   -35
 74
  -203
  0
VERTEX
  5
444
  8
0
 62
    21
 10
0.0
 20
0.0
 30
0.0
 70
   128
 71
  -250
 72
  -203
 73
   -35
 74
  -250
  0
VERTEX
  5
445
  8
0
 62
    21
 10
0.0
 20
0.0
 30
0.0
 70
   128
 71
  -250
 72
    35
 73
   251
 74
  -250
  0
VERTEX
  5
446
  8
0
 62
    21
 10
0.0
 20
0.0
 30
0.0
 70
   128
 71
    78
 72
    79
 73
  -252
 74
   -78
  0
VERTEX
  5
447
  8
0
 62
    21
 10
0.0
 20
0.0
 30
0.0
 70
   128
 71
   252
 72
   253
 73
   -78
 74
  -252
  0
VERTEX
  5
448
  8
0
 62
    21
 10
0.0
 20
0.0
 30
0.0
 70
   128
 71
    79
 72
    80
 73
  -254
 74
   -79
  0
VERTEX
  5
449
  8
0
 62
    21
 10
0.0
 20
0.0
 30
0.0
 70
   128
 71
   254
 72
   252
 73
   -79
 74
  -254
  0
VERTEX
  5
44A
  8
0
 62
    21
 10
0.0
 20
0.0
 30
0.0
 70
   128
 71
    80
 72
    81
 73
  -255
 74
   -80
  0
VERTEX
  5
44B
  8
0
 62
    21
 10
0.0
 20
0.0
 30
0.0
 70
   128
 71
   255
 72
   254
 73
   -80
 74
  -255
  0
VERTEX
  5
44C
  8
0
 62
    21
 10
0.0
 20
0.0
 30
0.0
 70
   128
 71
   255
 72
    81
 73
   -82
 74
  -255
  0
VERTEX
  5
44D
  8
0
 62
    21
 10
0.0
 20
0.0
 30
0.0
 70
   128
 71
    82
 72
   256
 73
  -255
 74
   -82
  0
VERTEX
  5
44E
  8
0
 62
    21
 10
0.0
 20
0.0
 30
0.0
 70
   128
 71
   256
 72
    82
 73
   -83
 74
  -256
  0
VERTEX
  5
44F
  8
0
 62
    21
 10
0.0
 20
0.0
 30
0.0
 70
   128
 71
    83
 72
   257
 73
  -256
 74
   -83
  0
VERTEX
  5
450
  8
0
 62
    21
 10
0.0
 20
0.0
 30
0.0
 70
   128
 71
   257
 72
    83
 73
   -84
 74
  -257
  0
VERTEX
  5
451
  8
0
 62
    21
 10
0.0
 20
0.0
 30
0.0
 70
   128
 71
    84
 72
   258
 73
  -257
 74
   -84
  0
VERTEX
  5
452
  8
0
 62
    21
 10
0.0
 20
0.0
 30
0.0
 70
   128
 71
    35
 72
    77
 73
  -258
 74
   -35
  0
VERTEX
  5
453
  8
0
 62
    21
 10
0.0
 20
0.0
 30
0.0
 70
   128
 71
   258
 72
   251
 73
   -35
 74
  -258
  0
VERTEX
  5
454
  8
0
 62
    21
 10
0.0
 20
0.0
 30
0.0
 70
   128
 71
    36
 72
    78
 73
  -253
 74
   -36
  0
VERTEX
  5
455
  8
0
 62
    21
 10
0.0
 20
0.0
 30
0.0
 70
   128
 71
   253
 72
   245
 73
   -36
 74
  -253
  0
VERTEX
  5
456
  8
0
 62
    21
 10
0.0
 20
0.0
 30
0.0
 70
   128
 71
    37
 72
    36
 73
  -245
 74
   -37
  0
VERTEX
  5
457
  8
0
 62
    21
 10
0.0
 20
0.0
 30
0.0
 70
   128
 71
   245
 72
   246
 73
   -37
 74
  -245
  0
VERTEX
  5
458
  8
0
 62
    21
 10
0.0
 20
0.0
 30
0.0
 70
   128
 71
     2
 72
     3
 73
  -261
 74
    -2
  0
VERTEX
  5
459
  8
0
 62
    21
 10
0.0
 20
0.0
 30
0.0
 70
   128
 71
   261
 72
   260
 73
    -2
 74
  -261
  0
VERTEX
  5
45A
  8
0
 62
    21
 10
0.0
 20
0.0
 30
0.0
 70
   128
 71
     3
 72
     4
 73
  -262
 74
    -3
  0
VERTEX
  5
45B
  8
0
 62
    21
 10
0.0
 20
0.0
 30
0.0
 70
   128
 71
   262
 72
   261
 73
    -3
 74
  -262
  0
VERTEX
  5
45C
  8
0
 62
    21
 10
0.0
 20
0.0
 30
0.0
 70
   128
 71
   262
 72
     4
 73
    -5
 74
  -262
  0
VERTEX
  5
45D
  8
0
 62
    21
 10
0.0
 20
0.0
 30
0.0
 70
   128
 71
     5
 72
   263
 73
  -262
 74
    -5
  0
VERTEX
  5
45E
  8
0
 62
    21
 10
0.0
 20
0.0
 30
0.0
 70
   128
 71
   263
 72
     5
 73
    -6
 74
  -263
  0
VERTEX
  5
45F
  8
0
 62
    21
 10
0.0
 20
0.0
 30
0.0
 70
   128
 71
     6
 72
   264
 73
  -263
 74
    -6
  0
VERTEX
  5
460
  8
0
 62
    21
 10
0.0
 20
0.0
 30
0.0
 70
   128
 71
   267
 72
    50
 73
  -275
 74
  -267
  0
VERTEX
  5
461
  8
0
 62
    21
 10
0.0
 20
0.0
 30
0.0
 70
   128
 71
   274
 72
   266
 73
  -267
 74
  -274
  0
VERTEX
  5
462
  8
0
 62
    21
 10
0.0
 20
0.0
 30
0.0
 70
   128
 71
  -266
 72
   273
 73
   -52
 74
  -266
  0
VERTEX
  5
463
  8
0
 62
    21
 10
0.0
 20
0.0
 30
0.0
 70
   128
 71
    52
 72
   268
 73
  -266
 74
   -52
  0
VERTEX
  5
464
  8
0
 62
    21
 10
0.0
 20
0.0
 30
0.0
 70
   128
 71
   268
 72
    52
 73
   -53
 74
  -268
  0
VERTEX
  5
465
  8
0
 62
    21
 10
0.0
 20
0.0
 30
0.0
 70
   128
 71
    53
 72
   269
 73
  -268
 74
   -53
  0
VERTEX
  5
466
  8
0
 62
    21
 10
0.0
 20
0.0
 30
0.0
 70
   128
 71
    53
 72
    54
 73
  -270
 74
   -53
  0
VERTEX
  5
467
  8
0
 62
    21
 10
0.0
 20
0.0
 30
0.0
 70
   128
 71
   270
 72
   269
 73
   -53
 74
  -270
  0
VERTEX
  5
468
  8
0
 62
    21
 10
0.0
 20
0.0
 30
0.0
 70
   128
 71
   -54
 72
   276
 73
  -271
 74
   -54
  0
VERTEX
  5
469
  8
0
 62
    21
 10
0.0
 20
0.0
 30
0.0
 70
   128
 71
   271
 72
   270
 73
   -54
 74
  -271
  0
VERTEX
  5
46A
  8
0
 62
    21
 10
0.0
 20
0.0
 30
0.0
 70
   128
 71
    55
 72
    56
 73
  -272
 74
   -55
  0
VERTEX
  5
46B
  8
0
 62
    21
 10
0.0
 20
0.0
 30
0.0
 70
   128
 71
   272
 72
   271
 73
  -276
 74
  -272
  0
VERTEX
  5
46C
  8
0
 62
    21
 10
0.0
 20
0.0
 30
0.0
 70
   128
 71
     7
 72
    49
 73
  -272
 74
    -7
  0
VERTEX
  5
46D
  8
0
 62
    21
 10
0.0
 20
0.0
 30
0.0
 70
   128
 71
   272
 72
   265
 73
    -7
 74
  -272
  0
VERTEX
  5
46E
  8
0
 62
    21
 10
0.0
 20
0.0
 30
0.0
 70
   128
 71
     8
 72
    50
 73
  -267
 74
    -8
  0
VERTEX
  5
46F
  8
0
 62
    21
 10
0.0
 20
0.0
 30
0.0
 70
   128
 71
   267
 72
   259
 73
    -8
 74
  -267
  0
VERTEX
  5
470
  8
0
 62
    21
 10
0.0
 20
0.0
 30
0.0
 70
   128
 71
   264
 72
     6
 73
    -7
 74
  -264
  0
VERTEX
  5
471
  8
0
 62
    21
 10
0.0
 20
0.0
 30
0.0
 70
   128
 71
     7
 72
   265
 73
  -264
 74
    -7
  0
VERTEX
  5
472
  8
0
 62
    21
 10
0.0
 20
0.0
 30
0.0
 70
   128
 71
     9
 72
   188
 73
  -170
 74
    -9
  0
VERTEX
  5
473
  8
0
 62
    21
 10
0.0
 20
0.0
 30
0.0
 70
   128
 71
   170
 72
   208
 73
    -8
 74
  -170
  0
VERTEX
  5
474
  8
0
 62
    21
 10
0.0
 20
0.0
 30
0.0
 70
   128
 71
    -9
 72
  -170
 73
    -8
 74
    -9
  0
VERTEX
  5
475
  8
0
 62
    21
 10
0.0
 20
0.0
 30
0.0
 70
   128
 71
    -9
 72
     8
 73
  -259
 74
    -9
  0
VERTEX
  5
476
  8
0
 62
    21
 10
0.0
 20
0.0
 30
0.0
 70
   128
 71
   260
 72
    -9
 73
   259
 74
  -260
  0
VERTEX
  5
477
  8
0
 62
    21
 10
0.0
 20
0.0
 30
0.0
 70
   128
 71
    51
 72
   273
 73
  -274
 74
   -51
  0
VERTEX
  5
478
  8
0
 62
    21
 10
0.0
 20
0.0
 30
0.0
 70
   128
 71
   -51
 72
   274
 73
   275
 74
   -51
  0
VERTEX
  5
479
  8
0
 62
    21
 10
0.0
 20
0.0
 30
0.0
 70
   128
 71
    55
 72
   276
 73
  -277
 74
   -55
  0
VERTEX
  5
47A
  8
0
 62
    21
 10
0.0
 20
0.0
 30
0.0
 70
   128
 71
   -55
 72
   277
 73
   278
 74
   -55
  0
VERTEX
  5
47B
  8
0
 62
    21
 10
0.0
 20
0.0
 30
0.0
 70
   128
 71
    72
 72
   279
 73
  -280
 74
   -72
  0
VERTEX
  5
47C
  8
0
 62
    21
 10
0.0
 20
0.0
 30
0.0
 70
   128
 71
   -72
 72
   280
 73
   281
 74
   -72
  0
VERTEX
  5
47D
  8
0
 62
    21
 10
0.0
 20
0.0
 30
0.0
 70
   128
 71
    76
 72
   282
 73
  -283
 74
   -76
  0
VERTEX
  5
47E
  8
0
 62
    21
 10
0.0
 20
0.0
 30
0.0
 70
   128
 71
   -76
 72
   283
 73
   284
 74
   -76
  0
VERTEX
  5
47F
  8
0
 62
    21
 10
0.0
 20
0.0
 30
0.0
 70
   128
 71
    85
 72
   285
 73
   286
 74
   -85
  0
VERTEX
  5
480
  8
0
 62
    21
 10
0.0
 20
0.0
 30
0.0
 70
   128
 71
    89
 72
   287
 73
   288
 74
   -89
  0
VERTEX
  5
481
  8
0
 62
    21
 10
0.0
 20
0.0
 30
0.0
 70
   128
 71
    94
 72
   289
 73
   290
 74
   -94
  0
VERTEX
  5
482
  8
0
 62
    21
 10
0.0
 20
0.0
 30
0.0
 70
   128
 71
    98
 72
   291
 73
   292
 74
   -98
  0
VERTEX
  5
483
  8
0
 62
    21
 10
0.0
 20
0.0
 30
0.0
 70
   128
 71
    58
 72
    51
 73
  -275
 74
   -58
  0
VERTEX
  5
484
  8
0
 62
    21
 10
0.0
 20
0.0
 30
0.0
 70
   128
 71
    69
 72
    76
 73
  -284
 74
   -69
  0
VERTEX
  5
485
  8
0
 62
    21
 10
0.0
 20
0.0
 30
0.0
 70
   128
 71
    73
 72
   280
 73
  -279
 74
   -73
  0
VERTEX
  5
486
  8
0
 62
    21
 10
0.0
 20
0.0
 30
0.0
 70
   128
 71
   257
 72
   283
 73
  -282
 74
  -257
  0
VERTEX
  5
487
  8
0
 62
    21
 10
0.0
 20
0.0
 30
0.0
 70
   128
 71
    86
 72
    85
 73
  -286
 74
   -86
  0
VERTEX
  5
488
  8
0
 62
    21
 10
0.0
 20
0.0
 30
0.0
 70
   128
 71
    91
 72
   287
 73
   -89
 74
   -91
  0
VERTEX
  5
489
  8
0
 62
    21
 10
0.0
 20
0.0
 30
0.0
 70
   128
 71
    92
 72
    94
 73
  -290
 74
   -92
  0
VERTEX
  5
48A
  8
0
 62
    21
 10
0.0
 20
0.0
 30
0.0
 70
   128
 71
    97
 72
   291
 73
   -98
 74
   -97
  0
VERTEX
  5
48B
  8
0
 62
    21
 10
0.0
 20
0.0
 30
0.0
 70
   128
 71
   266
 72
   274
 73
  -273
 74
  -266
  0
VERTEX
  5
48C
  8
0
 62
    21
 10
0.0
 20
0.0
 30
0.0
 70
   128
 71
    54
 72
   277
 73
  -276
 74
   -54
  0
VERTEX
  5
48D
  8
0
 62
    21
 10
0.0
 20
0.0
 30
0.0
 70
   128
 71
   -63
 72
    55
 73
  -278
 74
   -63
  0
VERTEX
  5
48E
  8
0
 62
    21
 10
0.0
 20
0.0
 30
0.0
 70
   128
 71
   -64
 72
    72
 73
  -281
 74
   -64
  0
VERTEX
  5
48F
  8
0
 62
    21
 10
0.0
 20
0.0
 30
0.0
 70
   128
 71
  -253
 72
   279
 73
   -72
 74
  -253
  0
VERTEX
  5
490
  8
0
 62
    21
 10
0.0
 20
0.0
 30
0.0
 70
   128
 71
  -258
 72
   284
 73
  -283
 74
  -258
  0
VERTEX
  5
491
  8
0
 62
    21
 10
0.0
 20
0.0
 30
0.0
 70
   128
 71
   273
 72
   -51
 73
    85
 74
  -273
  0
VERTEX
  5
492
  8
0
 62
    21
 10
0.0
 20
0.0
 30
0.0
 70
   128
 71
   285
 72
   -85
 73
    51
 74
  -285
  0
VERTEX
  5
493
  8
0
 62
    21
 10
0.0
 20
0.0
 30
0.0
 70
   128
 71
   278
 72
  -277
 73
   287
 74
  -278
  0
VERTEX
  5
494
  8
0
 62
    21
 10
0.0
 20
0.0
 30
0.0
 70
   128
 71
   288
 72
  -287
 73
   277
 74
  -288
  0
VERTEX
  5
495
  8
0
 62
    21
 10
0.0
 20
0.0
 30
0.0
 70
   128
 71
   281
 72
  -280
 73
    94
 74
  -281
  0
VERTEX
  5
496
  8
0
 62
    21
 10
0.0
 20
0.0
 30
0.0
 70
   128
 71
   289
 72
   -94
 73
   280
 74
  -289
  0
VERTEX
  5
497
  8
0
 62
    21
 10
0.0
 20
0.0
 30
0.0
 70
   128
 71
   282
 72
   -76
 73
   291
 74
  -282
  0
VERTEX
  5
498
  8
0
 62
    21
 10
0.0
 20
0.0
 30
0.0
 70
   128
 71
   292
 72
  -291
 73
    76
 74
  -292
  0
VERTEX
  5
499
  8
0
 62
    21
 10
0.0
 20
0.0
 30
0.0
 70
   128
 71
  -104
 72
   286
 73
  -285
 74
  -104
  0
VERTEX
  5
49A
  8
0
 62
    21
 10
0.0
 20
0.0
 30
0.0
 70
   128
 71
  -102
 72
    89
 73
  -288
 74
  -102
  0
VERTEX
  5
49B
  8
0
 62
    21
 10
0.0
 20
0.0
 30
0.0
 70
   128
 71
  -109
 72
   290
 73
  -289
 74
  -109
  0
VERTEX
  5
49C
  8
0
 62
    21
 10
0.0
 20
0.0
 30
0.0
 70
   128
 71
  -107
 72
    98
 73
  -292
 74
  -107
  0
VERTEX
  5
49D
  8
0
 62
    21
 10
0.0
 20
0.0
 30
0.0
 70
   128
 71
  -267
 72
   275
 73
  -274
 74
  -267
  0
VERTEX
  5
49E
  8
0
 62
    21
 10
0.0
 20
0.0
 30
0.0
 70
   128
 71
  -272
 72
   276
 73
   -55
 74
  -272
  0
VERTEX
  5
49F
  8
0
 62
    21
 10
0.0
 20
0.0
 30
0.0
 70
   128
 71
  -293
 72
   295
 73
  -294
 74
  -293
  0
VERTEX
  5
4A0
  8
0
 62
    21
 10
0.0
 20
0.0
 30
0.0
 70
   128
 71
  -293
 72
   296
 73
  -295
 74
  -293
  0
VERTEX
  5
4A1
  8
0
 62
    21
 10
0.0
 20
0.0
 30
0.0
 70
   128
 71
  -293
 72
   297
 73
  -296
 74
  -293
  0
VERTEX
  5
4A2
  8
0
 62
    21
 10
0.0
 20
0.0
 30
0.0
 70
   128
 71
  -293
 72
   298
 73
  -297
 74
  -293
  0
VERTEX
  5
4A3
  8
0
 62
    21
 10
0.0
 20
0.0
 30
0.0
 70
   128
 71
  -293
 72
   299
 73
  -298
 74
  -293
  0
VERTEX
  5
4A4
  8
0
 62
    21
 10
0.0
 20
0.0
 30
0.0
 70
   128
 71
  -293
 72
   300
 73
  -299
 74
  -293
  0
VERTEX
  5
4A5
  8
0
 62
    21
 10
0.0
 20
0.0
 30
0.0
 70
   128
 71
  -293
 72
   301
 73
  -300
 74
  -293
  0
VERTEX
  5
4A6
  8
0
 62
    21
 10
0.0
 20
0.0
 30
0.0
 70
   128
 71
  -293
 72
   302
 73
  -301
 74
  -293
  0
VERTEX
  5
4A7
  8
0
 62
    21
 10
0.0
 20
0.0
 30
0.0
 70
   128
 71
  -293
 72
   303
 73
  -302
 74
  -293
  0
VERTEX
  5
4A8
  8
0
 62
    21
 10
0.0
 20
0.0
 30
0.0
 70
   128
 71
  -293
 72
   304
 73
  -303
 74
  -293
  0
VERTEX
  5
4A9
  8
0
 62
    21
 10
0.0
 20
0.0
 30
0.0
 70
   128
 71
  -293
 72
   305
 73
  -304
 74
  -293
  0
VERTEX
  5
4AA
  8
0
 62
    21
 10
0.0
 20
0.0
 30
0.0
 70
   128
 71
  -293
 72
   306
 73
  -305
 74
  -293
  0
VERTEX
  5
4AB
  8
0
 62
    21
 10
0.0
 20
0.0
 30
0.0
 70
   128
 71
  -293
 72
   307
 73
  -306
 74
  -293
  0
VERTEX
  5
4AC
  8
0
 62
    21
 10
0.0
 20
0.0
 30
0.0
 70
   128
 71
  -293
 72
   294
 73
  -307
 74
  -293
  0
VERTEX
  5
4AD
  8
0
 62
    21
 10
0.0
 20
0.0
 30
0.0
 70
   128
 71
  -294
 72
   309
 73
   308
 74
  -294
  0
VERTEX
  5
4AE
  8
0
 62
    21
 10
0.0
 20
0.0
 30
0.0
 70
   128
 71
   294
 72
   295
 73
  -309
 74
  -294
  0
VERTEX
  5
4AF
  8
0
 62
    21
 10
0.0
 20
0.0
 30
0.0
 70
   128
 71
  -295
 72
   310
 73
   309
 74
  -295
  0
VERTEX
  5
4B0
  8
0
 62
    21
 10
0.0
 20
0.0
 30
0.0
 70
   128
 71
   295
 72
   296
 73
  -310
 74
  -295
  0
VERTEX
  5
4B1
  8
0
 62
    21
 10
0.0
 20
0.0
 30
0.0
 70
   128
 71
  -296
 72
   311
 73
   310
 74
  -296
  0
VERTEX
  5
4B2
  8
0
 62
    21
 10
0.0
 20
0.0
 30
0.0
 70
   128
 71
   296
 72
   297
 73
  -311
 74
  -296
  0
VERTEX
  5
4B3
  8
0
 62
    21
 10
0.0
 20
0.0
 30
0.0
 70
   128
 71
  -297
 72
   312
 73
   311
 74
  -297
  0
VERTEX
  5
4B4
  8
0
 62
    21
 10
0.0
 20
0.0
 30
0.0
 70
   128
 71
   297
 72
   298
 73
  -312
 74
  -297
  0
VERTEX
  5
4B5
  8
0
 62
    21
 10
0.0
 20
0.0
 30
0.0
 70
   128
 71
  -298
 72
   313
 73
   312
 74
  -298
  0
VERTEX
  5
4B6
  8
0
 62
    21
 10
0.0
 20
0.0
 30
0.0
 70
   128
 71
   298
 72
   299
 73
  -313
 74
  -298
  0
VERTEX
  5
4B7
  8
0
 62
    21
 10
0.0
 20
0.0
 30
0.0
 70
   128
 71
  -299
 72
   314
 73
   313
 74
  -299
  0
VERTEX
  5
4B8
  8
0
 62
    21
 10
0.0
 20
0.0
 30
0.0
 70
   128
 71
   299
 72
   300
 73
  -314
 74
  -299
  0
VERTEX
  5
4B9
  8
0
 62
    21
 10
0.0
 20
0.0
 30
0.0
 70
   128
 71
  -300
 72
   315
 73
   314
 74
  -300
  0
VERTEX
  5
4BA
  8
0
 62
    21
 10
0.0
 20
0.0
 30
0.0
 70
   128
 71
   300
 72
   301
 73
  -315
 74
  -300
  0
VERTEX
  5
4BB
  8
0
 62
    21
 10
0.0
 20
0.0
 30
0.0
 70
   128
 71
  -301
 72
   316
 73
   315
 74
  -301
  0
VERTEX
  5
4BC
  8
0
 62
    21
 10
0.0
 20
0.0
 30
0.0
 70
   128
 71
   301
 72
   302
 73
  -316
 74
  -301
  0
VERTEX
  5
4BD
  8
0
 62
    21
 10
0.0
 20
0.0
 30
0.0
 70
   128
 71
  -302
 72
   317
 73
   316
 74
  -302
  0
VERTEX
  5
4BE
  8
0
 62
    21
 10
0.0
 20
0.0
 30
0.0
 70
   128
 71
   302
 72
   303
 73
  -317
 74
  -302
  0
VERTEX
  5
4BF
  8
0
 62
    21
 10
0.0
 20
0.0
 30
0.0
 70
   128
 71
  -303
 72
   318
 73
   317
 74
  -303
  0
VERTEX
  5
4C0
  8
0
 62
    21
 10
0.0
 20
0.0
 30
0.0
 70
   128
 71
   303
 72
   304
 73
  -318
 74
  -303
  0
VERTEX
  5
4C1
  8
0
 62
    21
 10
0.0
 20
0.0
 30
0.0
 70
   128
 71
  -304
 72
   319
 73
   318
 74
  -304
  0
VERTEX
  5
4C2
  8
0
 62
    21
 10
0.0
 20
0.0
 30
0.0
 70
   128
 71
   304
 72
   305
 73
  -319
 74
  -304
  0
VERTEX
  5
4C3
  8
0
 62
    21
 10
0.0
 20
0.0
 30
0.0
 70
   128
 71
  -305
 72
   320
 73
   319
 74
  -305
  0
VERTEX
  5
4C4
  8
0
 62
    21
 10
0.0
 20
0.0
 30
0.0
 70
   128
 71
   305
 72
   306
 73
  -320
 74
  -305
  0
VERTEX
  5
4C5
  8
0
 62
    21
 10
0.0
 20
0.0
 30
0.0
 70
   128
 71
  -306
 72
   321
 73
   320
 74
  -306
  0
VERTEX
  5
4C6
  8
0
 62
    21
 10
0.0
 20
0.0
 30
0.0
 70
   128
 71
   306
 72
   307
 73
  -321
 74
  -306
  0
VERTEX
  5
4C7
  8
0
 62
    21
 10
0.0
 20
0.0
 30
0.0
 70
   128
 71
  -307
 72
   308
 73
   321
 74
  -307
  0
VERTEX
  5
4C8
  8
0
 62
    21
 10
0.0
 20
0.0
 30
0.0
 70
   128
 71
   307
 72
   294
 73
  -308
 74
  -307
  0
VERTEX
  5
4C9
  8
0
 62
    21
 10
0.0
 20
0.0
 30
0.0
 70
   128
 71
  -322
 72
   308
 73
  -309
 74
  -322
  0
VERTEX
  5
4CA
  8
0
 62
    21
 10
0.0
 20
0.0
 30
0.0
 70
   128
 71
  -322
 72
   309
 73
  -310
 74
  -322
  0
VERTEX
  5
4CB
  8
0
 62
    21
 10
0.0
 20
0.0
 30
0.0
 70
   128
 71
  -322
 72
   310
 73
  -311
 74
  -322
  0
VERTEX
  5
4CC
  8
0
 62
    21
 10
0.0
 20
0.0
 30
0.0
 70
   128
 71
  -322
 72
   311
 73
  -312
 74
  -322
  0
VERTEX
  5
4CD
  8
0
 62
    21
 10
0.0
 20
0.0
 30
0.0
 70
   128
 71
  -322
 72
   312
 73
  -313
 74
  -322
  0
VERTEX
  5
4CE
  8
0
 62
    21
 10
0.0
 20
0.0
 30
0.0
 70
   128
 71
  -322
 72
   313
 73
  -314
 74
  -322
  0
VERTEX
  5
4CF
  8
0
 62
    21
 10
0.0
 20
0.0
 30
0.0
 70
   128
 71
  -322
 72
   314
 73
  -315
 74
  -322
  0
VERTEX
  5
4D0
  8
0
 62
    21
 10
0.0
 20
0.0
 30
0.0
 70
   128
 71
  -322
 72
   315
 73
  -316
 74
  -322
  0
VERTEX
  5
4D1
  8
0
 62
    21
 10
0.0
 20
0.0
 30
0.0
 70
   128
 71
  -322
 72
   316
 73
  -317
 74
  -322
  0
VERTEX
  5
4D2
  8
0
 62
    21
 10
0.0
 20
0.0
 30
0.0
 70
   128
 71
  -322
 72
   317
 73
  -318
 74
  -322
  0
VERTEX
  5
4D3
  8
0
 62
    21
 10
0.0
 20
0.0
 30
0.0
 70
   128
 71
  -322
 72
   318
 73
  -319
 74
  -322
  0
VERTEX
  5
4D4
  8
0
 62
    21
 10
0.0
 20
0.0
 30
0.0
 70
   128
 71
  -322
 72
   319
 73
  -320
 74
  -322
  0
VERTEX
  5
4D5
  8
0
 62
    21
 10
0.0
 20
0.0
 30
0.0
 70
   128
 71
  -322
 72
   320
 73
  -321
 74
  -322
  0
VERTEX
  5
4D6
  8
0
 62
    21
 10
0.0
 20
0.0
 30
0.0
 70
   128
 71
  -322
 72
   321
 73
  -308
 74
  -322
  0
VERTEX
  5
4D7
  8
0
 62
    21
 10
0.0
 20
0.0
 30
0.0
 70
   128
 71
  -323
 72
   325
 73
  -324
 74
  -323
  0
VERTEX
  5
4D8
  8
0
 62
    21
 10
0.0
 20
0.0
 30
0.0
 70
   128
 71
  -323
 72
   326
 73
  -325
 74
  -323
  0
VERTEX
  5
4D9
  8
0
 62
    21
 10
0.0
 20
0.0
 30
0.0
 70
   128
 71
  -323
 72
   327
 73
  -326
 74
  -323
  0
VERTEX
  5
4DA
  8
0
 62
    21
 10
0.0
 20
0.0
 30
0.0
 70
   128
 71
  -323
 72
   328
 73
  -327
 74
  -323
  0
VERTEX
  5
4DB
  8
0
 62
    21
 10
0.0
 20
0.0
 30
0.0
 70
   128
 71
  -323
 72
   329
 73
  -328
 74
  -323
  0
VERTEX
  5
4DC
  8
0
 62
    21
 10
0.0
 20
0.0
 30
0.0
 70
   128
 71
  -323
 72
   330
 73
  -329
 74
  -323
  0
VERTEX
  5
4DD
  8
0
 62
    21
 10
0.0
 20
0.0
 30
0.0
 70
   128
 71
  -323
 72
   331
 73
  -330
 74
  -323
  0
VERTEX
  5
4DE
  8
0
 62
    21
 10
0.0
 20
0.0
 30
0.0
 70
   128
 71
  -323
 72
   332
 73
  -331
 74
  -323
  0
VERTEX
  5
4DF
  8
0
 62
    21
 10
0.0
 20
0.0
 30
0.0
 70
   128
 71
  -323
 72
   333
 73
  -332
 74
  -323
  0
VERTEX
  5
4E0
  8
0
 62
    21
 10
0.0
 20
0.0
 30
0.0
 70
   128
 71
  -323
 72
   334
 73
  -333
 74
  -323
  0
VERTEX
  5
4E1
  8
0
 62
    21
 10
0.0
 20
0.0
 30
0.0
 70
   128
 71
  -323
 72
   335
 73
  -334
 74
  -323
  0
VERTEX
  5
4E2
  8
0
 62
    21
 10
0.0
 20
0.0
 30
0.0
 70
   128
 71
  -323
 72
   336
 73
  -335
 74
  -323
  0
VERTEX
  5
4E3
  8
0
 62
    21
 10
0.0
 20
0.0
 30
0.0
 70
   128
 71
  -323
 72
   337
 73
  -336
 74
  -323
  0
VERTEX
  5
4E4
  8
0
 62
    21
 10
0.0
 20
0.0
 30
0.0
 70
   128
 71
  -323
 72
   324
 73
  -337
 74
  -323
  0
VERTEX
  5
4E5
  8
0
 62
    21
 10
0.0
 20
0.0
 30
0.0
 70
   128
 71
  -324
 72
   339
 73
   338
 74
  -324
  0
VERTEX
  5
4E6
  8
0
 62
    21
 10
0.0
 20
0.0
 30
0.0
 70
   128
 71
   324
 72
   325
 73
  -339
 74
  -324
  0
VERTEX
  5
4E7
  8
0
 62
    21
 10
0.0
 20
0.0
 30
0.0
 70
   128
 71
  -325
 72
   340
 73
   339
 74
  -325
  0
VERTEX
  5
4E8
  8
0
 62
    21
 10
0.0
 20
0.0
 30
0.0
 70
   128
 71
   325
 72
   326
 73
  -340
 74
  -325
  0
VERTEX
  5
4E9
  8
0
 62
    21
 10
0.0
 20
0.0
 30
0.0
 70
   128
 71
  -326
 72
   341
 73
   340
 74
  -326
  0
VERTEX
  5
4EA
  8
0
 62
    21
 10
0.0
 20
0.0
 30
0.0
 70
   128
 71
   326
 72
   327
 73
  -341
 74
  -326
  0
VERTEX
  5
4EB
  8
0
 62
    21
 10
0.0
 20
0.0
 30
0.0
 70
   128
 71
  -327
 72
   342
 73
   341
 74
  -327
  0
VERTEX
  5
4EC
  8
0
 62
    21
 10
0.0
 20
0.0
 30
0.0
 70
   128
 71
   327
 72
   328
 73
  -342
 74
  -327
  0
VERTEX
  5
4ED
  8
0
 62
    21
 10
0.0
 20
0.0
 30
0.0
 70
   128
 71
  -328
 72
   343
 73
   342
 74
  -328
  0
VERTEX
  5
4EE
  8
0
 62
    21
 10
0.0
 20
0.0
 30
0.0
 70
   128
 71
   328
 72
   329
 73
  -343
 74
  -328
  0
VERTEX
  5
4EF
  8
0
 62
    21
 10
0.0
 20
0.0
 30
0.0
 70
   128
 71
  -329
 72
   344
 73
   343
 74
  -329
  0
VERTEX
  5
4F0
  8
0
 62
    21
 10
0.0
 20
0.0
 30
0.0
 70
   128
 71
   329
 72
   330
 73
  -344
 74
  -329
  0
VERTEX
  5
4F1
  8
0
 62
    21
 10
0.0
 20
0.0
 30
0.0
 70
   128
 71
  -330
 72
   345
 73
   344
 74
  -330
  0
VERTEX
  5
4F2
  8
0
 62
    21
 10
0.0
 20
0.0
 30
0.0
 70
   128
 71
   330
 72
   331
 73
  -345
 74
  -330
  0
VERTEX
  5
4F3
  8
0
 62
    21
 10
0.0
 20
0.0
 30
0.0
 70
   128
 71
  -331
 72
   346
 73
   345
 74
  -331
  0
VERTEX
  5
4F4
  8
0
 62
    21
 10
0.0
 20
0.0
 30
0.0
 70
   128
 71
   331
 72
   332
 73
  -346
 74
  -331
  0
VERTEX
  5
4F5
  8
0
 62
    21
 10
0.0
 20
0.0
 30
0.0
 70
   128
 71
  -332
 72
   347
 73
   346
 74
  -332
  0
VERTEX
  5
4F6
  8
0
 62
    21
 10
0.0
 20
0.0
 30
0.0
 70
   128
 71
   332
 72
   333
 73
  -347
 74
  -332
  0
VERTEX
  5
4F7
  8
0
 62
    21
 10
0.0
 20
0.0
 30
0.0
 70
   128
 71
  -333
 72
   348
 73
   347
 74
  -333
  0
VERTEX
  5
4F8
  8
0
 62
    21
 10
0.0
 20
0.0
 30
0.0
 70
   128
 71
   333
 72
   334
 73
  -348
 74
  -333
  0
VERTEX
  5
4F9
  8
0
 62
    21
 10
0.0
 20
0.0
 30
0.0
 70
   128
 71
  -334
 72
   349
 73
   348
 74
  -334
  0
VERTEX
  5
4FA
  8
0
 62
    21
 10
0.0
 20
0.0
 30
0.0
 70
   128
 71
   334
 72
   335
 73
  -349
 74
  -334
  0
VERTEX
  5
4FB
  8
0
 62
    21
 10
0.0
 20
0.0
 30
0.0
 70
   128
 71
  -335
 72
   350
 73
   349
 74
  -335
  0
VERTEX
  5
4FC
  8
0
 62
    21
 10
0.0
 20
0.0
 30
0.0
 70
   128
 71
   335
 72
   336
 73
  -350
 74
  -335
  0
VERTEX
  5
4FD
  8
0
 62
    21
 10
0.0
 20
0.0
 30
0.0
 70
   128
 71
  -336
 72
   351
 73
   350
 74
  -336
  0
VERTEX
  5
4FE
  8
0
 62
    21
 10
0.0
 20
0.0
 30
0.0
 70
   128
 71
   336
 72
   337
 73
  -351
 74
  -336
  0
VERTEX
  5
4FF
  8
0
 62
    21
 10
0.0
 20
0.0
 30
0.0
 70
   128
 71
  -337
 72
   338
 73
   351
 74
  -337
  0
VERTEX
  5
500
  8
0
 62
    21
 10
0.0
 20
0.0
 30
0.0
 70
   128
 71
   337
 72
   324
 73
  -338
 74
  -337
  0
VERTEX
  5
501
  8
0
 62
    21
 10
0.0
 20
0.0
 30
0.0
 70
   128
 71
  -352
 72
   338
 73
  -339
 74
  -352
  0
VERTEX
  5
502
  8
0
 62
    21
 10
0.0
 20
0.0
 30
0.0
 70
   128
 71
  -352
 72
   339
 73
  -340
 74
  -352
  0
VERTEX
  5
503
  8
0
 62
    21
 10
0.0
 20
0.0
 30
0.0
 70
   128
 71
  -352
 72
   340
 73
  -341
 74
  -352
  0
VERTEX
  5
504
  8
0
 62
    21
 10
0.0
 20
0.0
 30
0.0
 70
   128
 71
  -352
 72
   341
 73
  -342
 74
  -352
  0
VERTEX
  5
505
  8
0
 62
    21
 10
0.0
 20
0.0
 30
0.0
 70
   128
 71
  -352
 72
   342
 73
  -343
 74
  -352
  0
VERTEX
  5
506
  8
0
 62
    21
 10
0.0
 20
0.0
 30
0.0
 70
   128
 71
  -352
 72
   343
 73
  -344
 74
  -352
  0
VERTEX
  5
507
  8
0
 62
    21
 10
0.0
 20
0.0
 30
0.0
 70
   128
 71
  -352
 72
   344
 73
  -345
 74
  -352
  0
VERTEX
  5
508
  8
0
 62
    21
 10
0.0
 20
0.0
 30
0.0
 70
   128
 71
  -352
 72
   345
 73
  -346
 74
  -352
  0
VERTEX
  5
509
  8
0
 62
    21
 10
0.0
 20
0.0
 30
0.0
 70
   128
 71
  -352
 72
   346
 73
  -347
 74
  -352
  0
VERTEX
  5
50A
  8
0
 62
    21
 10
0.0
 20
0.0
 30
0.0
 70
   128
 71
  -352
 72
   347
 73
  -348
 74
  -352
  0
VERTEX
  5
50B
  8
0
 62
    21
 10
0.0
 20
0.0
 30
0.0
 70
   128
 71
  -352
 72
   348
 73
  -349
 74
  -352
  0
VERTEX
  5
50C
  8
0
 62
    21
 10
0.0
 20
0.0
 30
0.0
 70
   128
 71
  -352
 72
   349
 73
  -350
 74
  -352
  0
VERTEX
  5
50D
  8
0
 62
    21
 10
0.0
 20
0.0
 30
0.0
 70
   128
 71
  -352
 72
   350
 73
  -351
 74
  -352
  0
VERTEX
  5
50E
  8
0
 62
    21
 10
0.0
 20
0.0
 30
0.0
 70
   128
 71
  -352
 72
   351
 73
  -338
 74
  -352
  0
SEQEND
  5
50F
  8
0
 62
    21
  0
ENDSEC
  0
EOF
