  0
SECTION
  2
HEADER
  9
$ACADVER
  1
AC1009
  9
$INSBASE
 10
0.0
 20
0.0
 30
0.0
  9
$EXTMIN
 10
1.0000000000000000E+020
 20
1.0000000000000000E+020
 30
1.0000000000000000E+020
  9
$EXTMAX
 10
-1.0000000000000000E+020
 20
-1.0000000000000000E+020
 30
-1.0000000000000000E+020
  9
$LIMMIN
 10
0.0
 20
0.0
  9
$LIMMAX
 10
12.0
 20
9.0
  9
$ORTHOMODE
 70
     0
  9
$REGENMODE
 70
     1
  9
$FILLMODE
 70
     1
  9
$QTEXTMODE
 70
     0
  9
$MIRRTEXT
 70
     1
  9
$DRAGMODE
 70
     2
  9
$LTSCALE
 40
1.0
  9
$OSMODE
 70
     0
  9
$ATTMODE
 70
     1
  9
$TEXTSIZE
 40
0.2
  9
$TRACEWID
 40
0.05
  9
$TEXTSTYLE
  7
STANDARD
  9
$CLAYER
  8
0
  9
$CELTYPE
  6
BYLAYER
  9
$CECOLOR
 62
   256
  9
$DIMSCALE
 40
1.0
  9
$DIMASZ
 40
0.18
  9
$DIMEXO
 40
0.0625
  9
$DIMDLI
 40
0.38
  9
$DIMRND
 40
0.0
  9
$DIMDLE
 40
0.0
  9
$DIMEXE
 40
0.18
  9
$DIMTP
 40
0.0
  9
$DIMTM
 40
0.0
  9
$DIMTXT
 40
0.18
  9
$DIMCEN
 40
0.09
  9
$DIMTSZ
 40
0.0
  9
$DIMTOL
 70
     0
  9
$DIMLIM
 70
     0
  9
$DIMTIH
 70
     1
  9
$DIMTOH
 70
     1
  9
$DIMSE1
 70
     0
  9
$DIMSE2
 70
     0
  9
$DIMTAD
 70
     0
  9
$DIMZIN
 70
     0
  9
$DIMBLK
  1

  9
$DIMASO
 70
     1
  9
$DIMSHO
 70
     1
  9
$DIMPOST
  1

  9
$DIMAPOST
  1

  9
$DIMALT
 70
     0
  9
$DIMALTD
 70
     2
  9
$DIMALTF
 40
25.399999999999999
  9
$DIMLFAC
 40
1.0
  9
$DIMTOFL
 70
     0
  9
$DIMTVP
 40
0.0
  9
$DIMTIX
 70
     0
  9
$DIMSOXD
 70
     0
  9
$DIMSAH
 70
     0
  9
$DIMBLK1
  1

  9
$DIMBLK2
  1

  9
$DIMSTYLE
  2
STANDARD
  9
$DIMCLRD
 70
     0
  9
$DIMCLRE
 70
     0
  9
$DIMCLRT
 70
     0
  9
$DIMTFAC
 40
1.0
  9
$DIMGAP
 40
0.09
  9
$LUNITS
 70
     2
  9
$LUPREC
 70
     4
  9
$SKETCHINC
 40
0.1
  9
$FILLETRAD
 40
0.5
  9
$AUNITS
 70
     0
  9
$AUPREC
 70
     0
  9
$MENU
  1
.
  9
$ELEVATION
 40
0.0
  9
$PELEVATION
 40
0.0
  9
$THICKNESS
 40
0.0
  9
$LIMCHECK
 70
     0
  9
$BLIPMODE
 70
     0
  9
$CHAMFERA
 40
0.5
  9
$CHAMFERB
 40
0.5
  9
$SKPOLY
 70
     0
  9
$TDCREATE
 40
2451380.638765729
  9
$TDUPDATE
 40
2451380.674513889
  9
$TDINDWG
 40
0.0075605903
  9
$TDUSRTIMER
 40
0.0075515509
  9
$USRTIMER
 70
     1
  9
$ANGBASE
 50
0.0
  9
$ANGDIR
 70
     0
  9
$PDMODE
 70
     0
  9
$PDSIZE
 40
0.0
  9
$PLINEWID
 40
0.0
  9
$COORDS
 70
     0
  9
$SPLFRAME
 70
     0
  9
$SPLINETYPE
 70
     6
  9
$SPLINESEGS
 70
     8
  9
$ATTDIA
 70
     0
  9
$ATTREQ
 70
     1
  9
$HANDLING
 70
     1
  9
$HANDSEED
  5
7FD
  9
$SURFTAB1
 70
     6
  9
$SURFTAB2
 70
     6
  9
$SURFTYPE
 70
     6
  9
$SURFU
 70
     6
  9
$SURFV
 70
     6
  9
$UCSNAME
  2

  9
$UCSORG
 10
0.0
 20
0.0
 30
0.0
  9
$UCSXDIR
 10
1.0
 20
0.0
 30
0.0
  9
$UCSYDIR
 10
0.0
 20
1.0
 30
0.0
  9
$PUCSNAME
  2

  9
$PUCSORG
 10
0.0
 20
0.0
 30
0.0
  9
$PUCSXDIR
 10
1.0
 20
0.0
 30
0.0
  9
$PUCSYDIR
 10
0.0
 20
1.0
 30
0.0
  9
$USERI1
 70
     0
  9
$USERI2
 70
     0
  9
$USERI3
 70
     0
  9
$USERI4
 70
     0
  9
$USERI5
 70
     0
  9
$USERR1
 40
0.0
  9
$USERR2
 40
0.0
  9
$USERR3
 40
0.0
  9
$USERR4
 40
0.0
  9
$USERR5
 40
0.0
  9
$WORLDVIEW
 70
     1
  9
$SHADEDGE
 70
     3
  9
$SHADEDIF
 70
    70
  9
$TILEMODE
 70
     1
  9
$MAXACTVP
 70
    64
  9
$PLIMCHECK
 70
     0
  9
$PEXTMIN
 10
1.0000000000000000E+020
 20
1.0000000000000000E+020
 30
1.0000000000000000E+020
  9
$PEXTMAX
 10
-1.0000000000000000E+020
 20
-1.0000000000000000E+020
 30
-1.0000000000000000E+020
  9
$PLIMMIN
 10
0.0
 20
0.0
  9
$PLIMMAX
 10
12.0
 20
9.0
  9
$UNITMODE
 70
     0
  9
$VISRETAIN
 70
     1
  9
$PLINEGEN
 70
     0
  9
$PSLTSCALE
 70
     1
  0
ENDSEC
  0
SECTION
  2
TABLES
  0
TABLE
  2
VPORT
 70
     1
  0
VPORT
  2
*ACTIVE
 70
     0
 10
0.0
 20
0.0
 11
1.0
 21
1.0
 12
0.5537546277046204
 22
-13.48381519317627
 13
0.0
 23
0.0
 14
0.5
 24
0.5
 15
0.5
 25
0.5
 16
-1.0
 26
-1.0
 36
1.0
 17
0.0
 27
0.0
 37
0.0
 40
57.222131668945408
 41
0.6725163425974364
 42
50.0
 43
0.0
 44
0.0
 50
0.0
 51
0.0
 71
     0
 72
   100
 73
     1
 74
     3
 75
     0
 76
     0
 77
     0
 78
     0
  0
ENDTAB
  0
TABLE
  2
LTYPE
 70
     1
  0
LTYPE
  2
CONTINUOUS
 70
     0
  3
Solid line
 72
    65
 73
     0
 40
0.0
  0
ENDTAB
  0
TABLE
  2
LAYER
 70
     2
  0
LAYER
  2
0
 70
     0
 62
   111
  6
CONTINUOUS
  0
LAYER
  2
ASHADE
 70
     4
 62
     7
  6
CONTINUOUS
  0
ENDTAB
  0
TABLE
  2
STYLE
 70
     2
  0
STYLE
  2
STANDARD
 70
     0
 40
0.0
 41
1.0
 50
0.0
 71
     0
 42
0.2
  3
txt
  4

  0
STYLE
  2
ASHADE
 70
     0
 40
0.2
 41
1.0
 50
0.0
 71
     0
 42
0.2
  3
simplex
  4

  0
ENDTAB
  0
TABLE
  2
VIEW
 70
     0
  0
ENDTAB
  0
TABLE
  2
UCS
 70
     0
  0
ENDTAB
  0
TABLE
  2
APPID
 70
     7
  0
APPID
  2
ACAD
 70
     0
  0
APPID
  2
AVE_RENDER
 70
     0
  0
APPID
  2
AVE_ENTITY_MATERIAL
 70
     0
  0
APPID
  2
AVE_FINISH
 70
     0
  0
APPID
  2
AVE_MATERIAL
 70
     0
  0
APPID
  2
AVE_GLOBAL
 70
     0
  0
APPID
  2
ACAD_MLEADERVER
 70
     0
  0
ENDTAB
  0
TABLE
  2
DIMSTYLE
 70
     1
  0
DIMSTYLE
  2
STANDARD
 70
     0
  3

  4

  5

  6

  7

 40
1.0
 41
0.18
 42
0.0625
 43
0.38
 44
0.18
 45
0.0
 46
0.0
 47
0.0
 48
0.0
140
0.18
141
0.09
142
0.0
143
25.399999999999999
144
1.0
145
0.0
146
1.0
147
0.09
 71
     0
 72
     0
 73
     1
 74
     1
 75
     0
 76
     0
 77
     0
 78
     0
170
     0
171
     2
172
     0
173
     0
174
     0
175
     0
176
     0
177
     0
178
     0
  0
ENDTAB
  0
ENDSEC
  0
SECTION
  2
BLOCKS
  0
BLOCK
  8
0
  2
$MODEL_SPACE
 70
     0
 10
0.0
 20
0.0
 30
0.0
  3
$MODEL_SPACE
  1

  0
ENDBLK
  5
21
  8
0
  0
BLOCK
 67
     1
  8
0
  2
$PAPER_SPACE
 70
     0
 10
0.0
 20
0.0
 30
0.0
  3
$PAPER_SPACE
  1

  0
ENDBLK
  5
1D
 67
     1
  8
0
  0
BLOCK
  8
0
  2
DIRECT
 70
     2
 10
0.0
 20
0.0
 30
0.0
  3
DIRECT
  1

  0
ATTDEF
  5
2F
  8
ASHADE
  6
CONTINUOUS
 62
     1
 10
0.0
 20
-0.1
 30
0.0
 40
0.2
  1

  7
ASHADE
 72
     1
 11
0.0
 21
-0.1
 31
0.0
  3
Light Name
  2
SNAME
 70
     0
  0
ARC
  5
30
  8
ASHADE
  6
CONTINUOUS
 62
     7
 10
0.0
 20
0.0
 30
0.0
 40
0.3
 50
205.67928861945691
 51
334.32071138054312
  0
ARC
  5
31
  8
ASHADE
  6
CONTINUOUS
 62
     7
 10
0.0
 20
0.0
 30
0.0
 40
0.3
 50
25.679288619456852
 51
154.32071138054309
  0
LINE
  5
32
  8
ASHADE
  6
CONTINUOUS
 62
     7
 10
-0.21
 20
0.2142428528562855
 30
0.0
 11
-0.21
 21
0.5
 31
0.0
  0
LINE
  5
33
  8
ASHADE
  6
CONTINUOUS
 62
     7
 10
-0.11
 20
0.2791057147390572
 30
0.0
 11
-0.11
 21
0.5
 31
0.0
  0
LINE
  5
34
  8
ASHADE
  6
CONTINUOUS
 62
     7
 10
0.21
 20
0.2142428528562855
 30
0.0
 11
0.21
 21
0.5
 31
0.0
  0
ATTDEF
  5
35
  8
ASHADE
  6
CONTINUOUS
 62
     7
 10
0.0
 20
0.25
 30
0.0
 40
0.01
  1

  3
Look-at Y
  2
LAY
 70
     1
  0
ATTDEF
  5
36
  8
ASHADE
  6
CONTINUOUS
 62
     7
 10
0.0
 20
0.22
 30
0.0
 40
0.01
  1
1
  3
Light Intensity
  2
INTENSITY
 70
     1
  0
ATTDEF
  5
37
  8
ASHADE
  6
CONTINUOUS
 62
     7
 10
0.0
 20
0.16
 30
0.0
 40
0.01
  1
-1
  3
*not used*
  2
BEAMD
 70
     1
  0
ATTDEF
  5
38
  8
ASHADE
  6
CONTINUOUS
 62
     7
 10
0.0
 20
0.175
 30
0.0
 40
0.01
  1
-1
  3
*not used*
  2
CONED
 70
     1
  0
ATTDEF
  5
39
  8
ASHADE
  6
CONTINUOUS
 62
     7
 10
0.0
 20
0.19
 30
0.0
 40
0.01
  1
0
  3
Depth Map Size
  2
CONEA
 70
     1
  0
ATTDEF
  5
3A
  8
ASHADE
  6
CONTINUOUS
 62
     7
 10
0.0
 20
0.2050000000000001
 30
0.0
 40
0.01
  1
1,1,1
  3
Light Color (RGB)
  2
COLOR
 70
     1
  0
ATTDEF
  5
3B
  8
ASHADE
  6
CONTINUOUS
 62
     7
 10
0.0
 20
0.235
 30
0.0
 40
0.01
  1

  3
Look-at Z
  2
LAZ
 70
     1
  0
LINE
  5
3C
  8
ASHADE
  6
CONTINUOUS
 62
     7
 10
0.0
 20
0.3
 30
0.0
 11
0.0
 21
0.5
 31
0.0
  0
LINE
  5
3D
  8
ASHADE
  6
CONTINUOUS
 62
     7
 10
0.11
 20
0.2791057147390572
 30
0.0
 11
0.11
 21
0.5
 31
0.0
  0
ATTDEF
  5
3E
  8
ASHADE
  6
CONTINUOUS
 62
     7
 10
0.0
 20
0.265
 30
0.0
 40
0.01
  1

  3
Look-at X
  2
LAX
 70
     1
  0
ATTDEF
  5
3F
  8
ASHADE
  6
CONTINUOUS
 62
     7
 10
0.0
 20
0.28
 30
0.0
 40
0.01
  1

  3

  2
GNAME
 70
     1
  0
ENDBLK
  5
41
  8
0
  0
BLOCK
  8
0
  2
OVERHEAD
 70
     2
 10
0.0
 20
0.0
 30
0.0
  3
OVERHEAD
  1

  0
ATTDEF
  5
43
  8
ASHADE
  6
CONTINUOUS
 62
     1
 10
0.0
 20
-0.1
 30
0.0
 40
0.2
  1

  7
ASHADE
 72
     1
 11
0.0
 21
-0.1
 31
0.0
  3
Light Name
  2
SNAME
 70
     0
  0
ARC
  5
44
  8
ASHADE
  6
CONTINUOUS
 62
     7
 10
0.0
 20
0.0
 30
0.0
 40
0.3
 50
205.67928861945691
 51
334.32071138054312
  0
LINE
  5
45
  8
ASHADE
  6
CONTINUOUS
 62
     7
 10
-0.2041413561583015
 20
-0.2198324514393848
 30
0.0
 11
-0.2721884748777353
 21
-0.2931099352525131
 31
0.0
  0
LINE
  5
46
  8
ASHADE
  6
CONTINUOUS
 62
     7
 10
-0.1096591641591904
 20
-0.2792398032442862
 30
0.0
 11
-0.1279356915190555
 21
-0.3257797704516673
 31
0.0
  0
LINE
  5
47
  8
ASHADE
  6
CONTINUOUS
 62
     7
 10
0.0
 20
-0.2999999999999999
 30
0.0
 11
0.0
 21
-0.4
 31
0.0
  0
LINE
  5
48
  8
ASHADE
  6
CONTINUOUS
 62
     7
 10
0.1096591641591904
 20
-0.2792398032442862
 30
0.0
 11
0.1279356915190555
 21
-0.3257797704516673
 31
0.0
  0
LINE
  5
49
  8
ASHADE
  6
CONTINUOUS
 62
     7
 10
0.2041413561583015
 20
-0.2198324514393848
 30
0.0
 11
0.2721884748777353
 21
-0.2931099352525131
 31
0.0
  0
ARC
  5
4A
  8
ASHADE
  6
CONTINUOUS
 62
     7
 10
0.0
 20
0.0
 30
0.0
 40
0.3
 50
25.679288619456852
 51
154.32071138054309
  0
LINE
  5
4B
  8
ASHADE
  6
CONTINUOUS
 62
     7
 10
-0.2703701166919155
 20
0.13
 30
0.0
 11
-0.3154318028072347
 21
0.1516666666666666
 31
0.0
  0
LINE
  5
4C
  8
ASHADE
  6
CONTINUOUS
 62
     7
 10
-0.2703701166919155
 20
-0.13
 30
0.0
 11
-0.3154318028072347
 21
-0.1516666666666666
 31
0.0
  0
LINE
  5
4D
  8
ASHADE
  6
CONTINUOUS
 62
     7
 10
-0.2041413561583015
 20
0.2198324514393849
 30
0.0
 11
-0.2721884748777353
 21
0.2931099352525131
 31
0.0
  0
LINE
  5
4E
  8
ASHADE
  6
CONTINUOUS
 62
     7
 10
-0.1096591641591904
 20
0.2792398032442862
 30
0.0
 11
-0.1279356915190555
 21
0.3257797704516674
 31
0.0
  0
LINE
  5
4F
  8
ASHADE
  6
CONTINUOUS
 62
     7
 10
0.2703701166919155
 20
-0.13
 30
0.0
 11
0.3154318028072347
 21
-0.1516666666666666
 31
0.0
  0
LINE
  5
50
  8
ASHADE
  6
CONTINUOUS
 62
     7
 10
0.2703701166919155
 20
0.13
 30
0.0
 11
0.3154318028072347
 21
0.1516666666666666
 31
0.0
  0
LINE
  5
51
  8
ASHADE
  6
CONTINUOUS
 62
     7
 10
0.0
 20
0.3
 30
0.0
 11
0.0
 21
0.4
 31
0.0
  0
ATTDEF
  5
52
  8
ASHADE
  6
CONTINUOUS
 62
     7
 10
0.0
 20
0.22
 30
0.0
 40
0.01
  1
1
  3
Light Intensity
  2
INTENSITY
 70
     1
  0
ATTDEF
  5
53
  8
ASHADE
  6
CONTINUOUS
 62
     7
 10
0.0
 20
0.16
 30
0.0
 40
0.01
  1
-1
  3
*not used*
  2
BEAMD
 70
     1
  0
ATTDEF
  5
54
  8
ASHADE
  6
CONTINUOUS
 62
     7
 10
0.0
 20
0.175
 30
0.0
 40
0.01
  1
-1
  3
*not used*
  2
CONED
 70
     1
  0
ATTDEF
  5
55
  8
ASHADE
  6
CONTINUOUS
 62
     7
 10
0.0
 20
0.19
 30
0.0
 40
0.01
  1
0
  3
Depth Map Size
  2
CONEA
 70
     1
  0
ATTDEF
  5
56
  8
ASHADE
  6
CONTINUOUS
 62
     7
 10
0.0
 20
0.2050000000000001
 30
0.0
 40
0.01
  1
1,1,1
  3
Light Color (RGB)
  2
COLOR
 70
     1
  0
ATTDEF
  5
57
  8
ASHADE
  6
CONTINUOUS
 62
     7
 10
0.0
 20
0.235
 30
0.0
 40
0.01
  1

  3
Look-at Z
  2
LAZ
 70
     1
  0
ATTDEF
  5
58
  8
ASHADE
  6
CONTINUOUS
 62
     7
 10
0.0
 20
0.25
 30
0.0
 40
0.01
  1

  3
Look-at Y
  2
LAY
 70
     1
  0
ATTDEF
  5
59
  8
ASHADE
  6
CONTINUOUS
 62
     7
 10
0.0
 20
0.265
 30
0.0
 40
0.01
  1

  3
Look-at X
  2
LAX
 70
     1
  0
ATTDEF
  5
5A
  8
ASHADE
  6
CONTINUOUS
 62
     7
 10
0.0
 20
0.28
 30
0.0
 40
0.01
  1

  3

  2
GNAME
 70
     1
  0
LINE
  5
5B
  8
ASHADE
  6
CONTINUOUS
 62
     7
 10
0.1096591641591904
 20
0.2792398032442862
 30
0.0
 11
0.1279356915190555
 21
0.3257797704516674
 31
0.0
  0
LINE
  5
5C
  8
ASHADE
  6
CONTINUOUS
 62
     7
 10
0.2041413561583015
 20
0.2198324514393849
 30
0.0
 11
0.2721884748777353
 21
0.2931099352525131
 31
0.0
  0
ENDBLK
  5
5E
  8
0
  0
BLOCK
  8
0
  2
SH_SPOT
 70
     2
 10
0.0
 20
0.0
 30
0.0
  3
SH_SPOT
  1

  0
LINE
  5
60
  8
ASHADE
  6
CONTINUOUS
 62
     7
 10
0.25
 20
0.26
 30
0.0
 11
-0.25
 21
0.26
 31
0.0
  0
LINE
  5
61
  8
ASHADE
  6
CONTINUOUS
 62
     7
 10
-0.25
 20
-0.3399999999999999
 30
0.0
 11
0.25
 21
-0.3399999999999999
 31
0.0
  0
ATTDEF
  5
62
  8
ASHADE
  6
CONTINUOUS
 62
     1
 10
0.0
 20
-0.1
 30
0.0
 40
0.2
  1

  7
ASHADE
 72
     1
 11
0.0
 21
-0.1
 31
0.0
  3
Light Name
  2
SNAME
 70
     0
  0
LINE
  5
63
  8
ASHADE
  6
CONTINUOUS
 62
     7
 10
-0.25
 20
-0.13
 30
0.0
 11
-0.25
 21
-0.3399999999999999
 31
0.0
  0
LINE
  5
64
  8
ASHADE
  6
CONTINUOUS
 62
     7
 10
-0.25
 20
-0.18
 30
0.0
 11
-0.29
 21
-0.18
 31
0.0
  0
LINE
  5
65
  8
ASHADE
  6
CONTINUOUS
 62
     7
 10
-0.29
 20
-0.22
 30
0.0
 11
-0.25
 21
-0.22
 31
0.0
  0
LINE
  5
66
  8
ASHADE
  6
CONTINUOUS
 62
     7
 10
-0.29
 20
-0.18
 30
0.0
 11
-0.29
 21
-0.22
 31
0.0
  0
LINE
  5
67
  8
ASHADE
  6
CONTINUOUS
 62
     7
 10
-0.1045454545454545
 20
0.26
 30
0.0
 11
-0.15
 21
0.46
 31
0.0
  0
LINE
  5
68
  8
ASHADE
  6
CONTINUOUS
 62
     7
 10
-0.21
 20
0.26
 30
0.0
 11
-0.301304347826087
 21
0.46
 31
0.0
  0
LINE
  5
69
  8
ASHADE
  6
CONTINUOUS
 62
     7
 10
-0.25
 20
0.26
 30
0.0
 11
-0.25
 21
0.13
 31
0.0
  0
LINE
  5
6A
  8
ASHADE
  6
CONTINUOUS
 62
     7
 10
-0.25
 20
0.22
 30
0.0
 11
-0.29
 21
0.22
 31
0.0
  0
LINE
  5
6B
  8
ASHADE
  6
CONTINUOUS
 62
     7
 10
-0.29
 20
0.1799999999999999
 30
0.0
 11
-0.25
 21
0.1799999999999999
 31
0.0
  0
LINE
  5
6C
  8
ASHADE
  6
CONTINUOUS
 62
     7
 10
-0.29
 20
0.22
 30
0.0
 11
-0.29
 21
0.1799999999999999
 31
0.0
  0
ATTDEF
  5
6D
  8
ASHADE
  6
CONTINUOUS
 62
     7
 10
0.0
 20
-0.24
 30
0.0
 40
0.01
  1
0
  3
Depth Map Size
  2
ZSIZE
 70
     1
  0
ATTDEF
  5
6E
  8
ASHADE
  6
CONTINUOUS
 62
     7
 10
0.0
 20
-0.3300000000000001
 30
0.0
 40
0.01
  1
0,0,0
  3
Look-from XYZ
  2
LFXYZ
 70
     1
  0
ATTDEF
  5
6F
  8
ASHADE
  6
CONTINUOUS
 62
     7
 10
0.0
 20
-0.315
 30
0.0
 40
0.01
  1
0.0
  3
Beam Distribution
  2
BEAMDI
 70
     1
  0
ATTDEF
  5
70
  8
ASHADE
  6
CONTINUOUS
 62
     7
 10
0.0
 20
-0.3
 30
0.0
 40
0.01
  1
0.0
  3
Cone Delta
  2
CONEDE
 70
     1
  0
ATTDEF
  5
71
  8
ASHADE
  6
CONTINUOUS
 62
     7
 10
0.0
 20
-0.2850000000000001
 30
0.0
 40
0.01
  1
10.0
  3
Cone Angle
  2
CONEAN
 70
     1
  0
ATTDEF
  5
72
  8
ASHADE
  6
CONTINUOUS
 62
     7
 10
0.0
 20
-0.27
 30
0.0
 40
0.01
  1
-1
  3
*not used*
  2
BIASMAX
 70
     1
  0
ATTDEF
  5
73
  8
ASHADE
  6
CONTINUOUS
 62
     7
 10
0.0
 20
-0.255
 30
0.0
 40
0.01
  1
-1
  3
*not used*
  2
BIASMIN
 70
     1
  0
ATTDEF
  5
74
  8
ASHADE
  6
CONTINUOUS
 62
     7
 10
0.0
 20
-0.225
 30
0.0
 40
0.01
  1
1,1,1
  3
Light Color (RGB)
  2
COLOR
 70
     1
  0
ATTDEF
  5
75
  8
ASHADE
  6
CONTINUOUS
 62
     7
 10
0.0
 20
-0.21
 30
0.0
 40
0.01
  1
1
  3
Light Intensity
  2
INTENSITY
 70
     1
  0
ATTDEF
  5
76
  8
ASHADE
  6
CONTINUOUS
 62
     7
 10
0.0
 20
-0.15
 30
0.0
 40
0.01
  1

  3

  2
GNAME
 70
     1
  0
ATTDEF
  5
77
  8
ASHADE
  6
CONTINUOUS
 62
     7
 10
0.0
 20
-0.195
 30
0.0
 40
0.01
  1

  3
Look-at Z
  2
LAZ
 70
     1
  0
ATTDEF
  5
78
  8
ASHADE
  6
CONTINUOUS
 62
     7
 10
0.0
 20
-0.18
 30
0.0
 40
0.01
  1

  3
Look-at Y
  2
LAY
 70
     1
  0
ATTDEF
  5
79
  8
ASHADE
  6
CONTINUOUS
 62
     7
 10
0.0
 20
-0.165
 30
0.0
 40
0.01
  1

  3
Look-at X
  2
LAX
 70
     1
  0
LINE
  5
7A
  8
ASHADE
  6
CONTINUOUS
 62
     7
 10
0.25
 20
-0.3399999999999999
 30
0.0
 11
0.25
 21
-0.13
 31
0.0
  0
LINE
  5
7B
  8
ASHADE
  6
CONTINUOUS
 62
     7
 10
0.25
 20
-0.18
 30
0.0
 11
0.29
 21
-0.18
 31
0.0
  0
LINE
  5
7C
  8
ASHADE
  6
CONTINUOUS
 62
     7
 10
0.29
 20
-0.22
 30
0.0
 11
0.25
 21
-0.22
 31
0.0
  0
LINE
  5
7D
  8
ASHADE
  6
CONTINUOUS
 62
     7
 10
0.29
 20
-0.18
 30
0.0
 11
0.29
 21
-0.22
 31
0.0
  0
LINE
  5
7E
  8
ASHADE
  6
CONTINUOUS
 62
     7
 10
0.21
 20
0.26
 30
0.0
 11
0.301304347826087
 21
0.46
 31
0.0
  0
LINE
  5
7F
  8
ASHADE
  6
CONTINUOUS
 62
     7
 10
0.1045454545454545
 20
0.26
 30
0.0
 11
0.15
 21
0.46
 31
0.0
  0
LINE
  5
80
  8
ASHADE
  6
CONTINUOUS
 62
     7
 10
0.0
 20
0.26
 30
0.0
 11
0.0
 21
0.46
 31
0.0
  0
LINE
  5
81
  8
ASHADE
  6
CONTINUOUS
 62
     7
 10
0.25
 20
0.13
 30
0.0
 11
0.25
 21
0.26
 31
0.0
  0
LINE
  5
82
  8
ASHADE
  6
CONTINUOUS
 62
     7
 10
0.25
 20
0.22
 30
0.0
 11
0.29
 21
0.22
 31
0.0
  0
LINE
  5
83
  8
ASHADE
  6
CONTINUOUS
 62
     7
 10
0.29
 20
0.1799999999999999
 30
0.0
 11
0.25
 21
0.1799999999999999
 31
0.0
  0
LINE
  5
84
  8
ASHADE
  6
CONTINUOUS
 62
     7
 10
0.29
 20
0.22
 30
0.0
 11
0.29
 21
0.1799999999999999
 31
0.0
  0
ENDBLK
  5
86
  8
0
  0
BLOCK
  8
ASHADE
  2
AVE_RENDER
 70
     0
 10
0.0
 20
0.0
 30
0.0
  3
AVE_RENDER
  1
AVE_RENDER
  0
ENDBLK
  5
93
  8
0
  0
BLOCK
  8
ASHADE
  2
AVE_GLOBAL
 70
     0
 10
0.0
 20
0.0
 30
0.0
  3
AVE_GLOBAL
  1
AVE_GLOBAL
  0
ENDBLK
  5
A1
  8
0
  0
ENDSEC
  0
SECTION
  2
ENTITIES
  0
INSERT
  5
94
  8
ASHADE
 62
     1
  2
AVE_RENDER
 10
0.0
 20
0.0
 30
0.0
1001
AVE_RENDER
1002
{
1070
     7
1000
Pref
1070
    30
1070
    20
1070
     1
1070
     0
1000

1070
    10
1070
     1
1070
    10
1040
1.0
1070
     1
1040
0.3
1040
0.7
1040
0.0
1040
10.0
1010
-1.0
1020
-1.0
1030
-1.0
1040
0.3
1070
    49
1070
     0
1070
     0
1010
1.0
1020
1.0
1030
1.0
1040
45.0
1070
     1
1070
     0
1000
WCS
1040
0.0
1070
     0
1040
10.0
1002
}
  0
INSERT
  5
95
  8
ASHADE
 62
     3
  2
AVE_RENDER
 10
0.0
 20
0.0
 30
0.0
1001
AVE_RENDER
1002
{
1070
     0
1000
Full Opt
1070
     0
1070
     1
1070
     1
1070
     1
1070
     0
1070
     0
1070
     0
1070
     1
1070
     1
1040
0.0001
1040
0.0001
1002
}
  0
INSERT
  5
96
  8
ASHADE
 62
     4
  2
AVE_RENDER
 10
0.0
 20
0.0
 30
0.0
1001
AVE_RENDER
1002
{
1070
     0
1000
Quick Opt
1070
     0
1070
     1
1070
     1
1070
     1
1070
     0
1070
     0
1070
     1
1002
}
  0
INSERT
  5
97
  8
ASHADE
 62
     5
  2
AVE_RENDER
 10
0.0
 20
0.0
 30
0.0
1001
AVE_RENDER
1002
{
1070
     1
1000
Scanl Opt
1070
     2
1070
     0
1070
     2
1040
2.0
1040
4.0
1070
     0
1070
     1
1070
     0
1040
0.03
1002
}
  0
INSERT
  5
98
  8
ASHADE
 62
     6
  2
AVE_RENDER
 10
0.0
 20
0.0
 30
0.0
1001
AVE_RENDER
1002
{
1070
     2
1000
Raytr Opt
1070
     2
1070
     0
1070
     2
1040
2.0
1040
4.0
1070
     0
1070
     1
1070
     1
1040
0.03
1070
     3
1040
0.03
1002
}
  0
INSERT
  5
99
  8
ASHADE
 62
     7
  2
AVE_RENDER
 10
0.0
 20
0.0
 30
0.0
1001
AVE_RENDER
1002
{
1070
     0
1000
RFile Opt
1070
     1
1070
   640
1070
   480
1070
 10000
1070
     1
1070
     8
1070
     8
1070
     0
1070
     0
1070
     0
1070
     0
1070
     0
1070
     0
1070
     0
1002
}
  0
INSERT
  5
9A
  8
ASHADE
 62
     8
  2
AVE_RENDER
 10
0.0
 20
0.0
 30
0.0
1001
AVE_RENDER
1002
{
1070
     0
1000
Fog Opt
1070
     0
1070
     0
1040
0.0
1040
1.0
1040
0.0
1040
1.0
1010
0.5
1020
0.5
1030
0.5
1002
}
  0
INSERT
  5
9B
  8
ASHADE
 62
     9
  2
AVE_RENDER
 10
0.0
 20
0.0
 30
0.0
1001
AVE_RENDER
1002
{
1070
     0
1000
BG Opt
1070
     0
1070
     1
1010
0.0
1020
0.0
1030
0.0
1010
1.0
1020
0.0
1030
0.0
1010
0.0
1020
1.0
1030
0.0
1010
0.0
1020
0.0
1030
1.0
1040
0.5
1040
0.33
1040
0.0
1000

1070
     1
1000

1070
     1
1070
     1
1040
1.0
1040
1.0
1040
0.0
1040
0.0
1070
     0
1002
}
  0
INSERT
  5
A2
  8
ASHADE
 62
     1
  2
AVE_GLOBAL
 10
0.0
 20
0.0
 30
0.0
1001
AVE_MATERIAL
1002
{
1000
*GLOBAL*
1000
2
1000
Global finish.
1002
{
1002
}
1002
{
1070
    63
1002
{
1002
{
1010
-1.0
1020
-1.0
1030
-1.0
1002
}
1040
0.1000000014901161
1000

1040
0.0
1002
{
1002
}
1040
0.0
1002
{
1002
}
1040
0.0
1002
}
1002
{
1002
{
1010
-1.0
1020
-1.0
1030
-1.0
1002
}
1040
0.699999988079071
1000

1040
0.0
1002
{
1002
}
1040
0.0
1002
{
1002
}
1040
0.0
1002
}
1002
{
1002
{
1010
-1.0
1020
-1.0
1030
-1.0
1002
}
1040
0.2000000029802322
1000

1040
0.0
1002
{
1002
}
1040
0.0
1002
{
1002
}
1040
0.0
1002
}
1002
{
1070
     0
1002
{
1070
     1
1002
{
1040
1.0
1040
1.0
1000

1040
0.0
1002
{
1002
}
1040
0.0
1002
{
1002
}
1040
0.0
1002
}
1002
}
1040
1.0
1040
0.0
1040
0.0
1002
}
1002
{
1040
1.0
1040
1.0
1000

1040
0.0
1002
{
1002
}
1040
0.0
1002
{
1002
}
1040
0.0
1002
}
1002
{
1040
0.5
1040
1.0
1000

1040
0.0
1002
{
1002
}
1040
0.0
1002
{
1002
}
1040
0.0
1002
}
1002
{
1070
     0
1040
0.0
1002
{
1002
}
1040
1.0
1002
{
1002
}
1040
0.0
1002
}
1002
{
1040
0.0
1002
{
1002
{
1010
0.0
1020
0.0
1030
0.0
1002
}
1040
1.0
1000

1040
0.0
1002
{
1002
}
1040
0.0
1002
{
1002
}
1040
0.0
1002
}
1002
}
1002
{
1002
{
1070
     1
1002
{
1040
0.0
1040
1.0
1000

1040
0.0
1002
{
1002
}
1040
0.0
1002
{
1002
}
1040
0.0
1002
}
1002
}
1040
0.0
1002
{
1002
}
1010
1.0
1020
0.0
1030
0.0
1010
0.0
1020
1.0
1030
0.0
1010
0.0
1020
0.0
1030
1.0
1070
     0
1002
}
1002
{
1002
{
1040
1.0
1040
1.0
1002
{
1070
     1
1002
{
1040
1.0
1040
1.0
1000

1040
0.0
1002
{
1002
}
1040
0.0
1002
{
1002
}
1040
0.0
1002
}
1002
}
1002
}
1070
     0
1040
0.0
1002
{
1002
}
1002
}
1002
{
1002
}
1002
}
1002
{
1071
        3
1070
     3
1070
     0
1002
{
1070
     2
1070
     0
1070
     0
1040
0.0
1002
}
1070
     0
1070
     2
1002
{
1002
}
1002
}
1002
{
1040
8030.0
1040
190.30000305175781
1040
0.3050000071525574
1040
228.0
1040
545.0
1040
14.0
1040
17.39999961853027
1040
0.4560000002384186
1002
}
1002
}
  0
POLYLINE
  5
FC
  8
0
 62
   136
 66
     1
 10
0.0
 20
0.0
 30
0.0
 70
    64
 71
   595
 72
  1170
  0
VERTEX
  5
FD
  8
0
 62
   136
 10
-10.825747489929199
 20
10.209390640258791
 30
0.4061044752597809
 70
   192
  0
VERTEX
  5
FE
  8
0
 62
   136
 10
-7.8517580032348633
 20
10.209390640258791
 30
0.4061044752597809
 70
   192
  0
VERTEX
  5
FF
  8
0
 62
   136
 10
-2.9892230033874512
 20
10.209390640258791
 30
0.4061044752597809
 70
   192
  0
VERTEX
  5
100
  8
0
 62
   136
 10
0.9290390014648438
 20
10.209390640258791
 30
0.4061044752597809
 70
   192
  0
VERTEX
  5
101
  8
0
 62
   136
 10
4.847301483154296
 20
10.209390640258791
 30
0.4061044752597809
 70
   192
  0
VERTEX
  5
102
  8
0
 62
   136
 10
9.4443168640136719
 20
10.209390640258791
 30
0.4061044752597809
 70
   192
  0
VERTEX
  5
103
  8
0
 62
   136
 10
12.68382549285888
 20
10.209390640258791
 30
0.4061044752597809
 70
   192
  0
VERTEX
  5
104
  8
0
 62
   136
 10
-10.825747489929199
 20
5.5959029197692871
 30
0.4061044752597809
 70
   192
  0
VERTEX
  5
105
  8
0
 62
   136
 10
-7.8517580032348633
 20
5.8965034484863281
 30
0.4061044752597809
 70
   192
  0
VERTEX
  5
106
  8
0
 62
   136
 10
-2.9892230033874512
 20
5.8965034484863281
 30
0.4061044752597809
 70
   192
  0
VERTEX
  5
107
  8
0
 62
   136
 10
0.9290390014648438
 20
5.8965034484863281
 30
0.4061044752597809
 70
   192
  0
VERTEX
  5
108
  8
0
 62
   136
 10
4.847301483154296
 20
5.8965034484863281
 30
0.4061044752597809
 70
   192
  0
VERTEX
  5
109
  8
0
 62
   136
 10
9.4469814300537092
 20
5.8940129280090332
 30
0.4061044752597809
 70
   192
  0
VERTEX
  5
10A
  8
0
 62
   136
 10
12.68382549285888
 20
5.5959029197692871
 30
0.4061044752597809
 70
   192
  0
VERTEX
  5
10B
  8
0
 62
   136
 10
-10.825747489929199
 20
2.813126564025878
 30
0.4061044752597809
 70
   192
  0
VERTEX
  5
10C
  8
0
 62
   136
 10
-8.1508979797363281
 20
2.813126564025878
 30
0.4061044752597809
 70
   192
  0
VERTEX
  5
10D
  8
0
 62
   136
 10
-0.0573070049285889
 20
0.4079734683036805
 30
-4.9782309532165518
 70
   192
  0
VERTEX
  5
10E
  8
0
 62
   136
 10
0.9262593984603881
 20
0.4079734683036805
 30
-4.9782309532165518
 70
   192
  0
VERTEX
  5
10F
  8
0
 62
   136
 10
1.9098255634307859
 20
0.4079734683036805
 30
-4.9782309532165518
 70
   192
  0
VERTEX
  5
110
  8
0
 62
   136
 10
9.290679931640625
 20
2.717609167098999
 30
0.149617075920105
 70
   192
  0
VERTEX
  5
111
  8
0
 62
   136
 10
12.68382549285888
 20
2.813126564025878
 30
0.4061044752597809
 70
   192
  0
VERTEX
  5
112
  8
0
 62
   136
 10
-10.7373104095459
 20
-1.0244510173797601
 30
0.4061044752597809
 70
   192
  0
VERTEX
  5
113
  8
0
 62
   136
 10
-8.0624847412109375
 20
-1.0244510173797601
 30
0.4061044752597809
 70
   192
  0
VERTEX
  5
114
  8
0
 62
   136
 10
-0.0351071953773499
 20
-0.4325809478759766
 30
-4.9782309532165518
 70
   192
  0
VERTEX
  5
115
  8
0
 62
   136
 10
0.9484590291976928
 20
-0.4325809478759766
 30
-4.9782309532165518
 70
   192
  0
VERTEX
  5
116
  8
0
 62
   136
 10
1.9320251941680899
 20
-0.4325808286666871
 30
-4.9782309532165518
 70
   192
  0
VERTEX
  5
117
  8
0
 62
   136
 10
9.3776741027832031
 20
-1.054451465606689
 30
0.1498682796955109
 70
   192
  0
VERTEX
  5
118
  8
0
 62
   136
 10
12.772262573242189
 20
-1.0244510173797601
 30
0.4061044752597809
 70
   192
  0
VERTEX
  5
119
  8
0
 62
   136
 10
-10.825747489929199
 20
-5.2668423652648917
 30
0.4061044752597809
 70
   192
  0
VERTEX
  5
11A
  8
0
 62
   136
 10
-8.1496238708496094
 20
-5.912649154663085
 30
0.4061044752597809
 70
   192
  0
VERTEX
  5
11B
  8
0
 62
   136
 10
-2.9892230033874512
 20
-6.9815702438354492
 30
0.4061044752597809
 70
   192
  0
VERTEX
  5
11C
  8
0
 62
   136
 10
0.9290390014648438
 20
-7.2630772590637198
 30
0.4061044752597809
 70
   192
  0
VERTEX
  5
11D
  8
0
 62
   136
 10
4.847301483154296
 20
-7.046724796295166
 30
0.4061044752597809
 70
   192
  0
VERTEX
  5
11E
  8
0
 62
   136
 10
9.282017707824707
 20
-6.0574913024902344
 30
0.1351545751094818
 70
   192
  0
VERTEX
  5
11F
  8
0
 62
   136
 10
12.68382549285888
 20
-5.2668423652648917
 30
0.4061044752597809
 70
   192
  0
VERTEX
  5
120
  8
0
 62
   136
 10
-10.825747489929199
 20
-8.1552944183349592
 30
0.4061044752597809
 70
   192
  0
VERTEX
  5
121
  8
0
 62
   136
 10
-7.8517580032348633
 20
-8.9727993011474592
 30
0.4061045050621033
 70
   192
  0
VERTEX
  5
122
  8
0
 62
   136
 10
-2.9892230033874512
 20
-9.6594753265380842
 30
0.4061044752597809
 70
   192
  0
VERTEX
  5
123
  8
0
 62
   136
 10
0.9290390014648438
 20
-9.8291301727294922
 30
0.4061044752597809
 70
   192
  0
VERTEX
  5
124
  8
0
 62
   136
 10
4.847301483154296
 20
-9.6594753265380842
 30
0.4061044752597809
 70
   192
  0
VERTEX
  5
125
  8
0
 62
   136
 10
9.4443168640136719
 20
-8.9727993011474592
 30
0.4061045050621033
 70
   192
  0
VERTEX
  5
126
  8
0
 62
   136
 10
12.68382549285888
 20
-8.1552944183349592
 30
0.4061044752597809
 70
   192
  0
VERTEX
  5
127
  8
0
 62
   136
 10
-10.825747489929199
 20
10.4097900390625
 30
0.2063044756650925
 70
   192
  0
VERTEX
  5
128
  8
0
 62
   136
 10
-11.025146484375
 20
10.209390640258791
 30
0.2063044756650925
 70
   192
  0
VERTEX
  5
129
  8
0
 62
   136
 10
-11.025146484375
 20
5.5959029197692871
 30
0.2063044160604477
 70
   192
  0
VERTEX
  5
12A
  8
0
 62
   136
 10
-11.025146484375
 20
2.813126564025878
 30
0.2063044756650925
 70
   192
  0
VERTEX
  5
12B
  8
0
 62
   136
 10
-10.93671035766601
 20
-1.0244510173797601
 30
0.2063044160604477
 70
   192
  0
VERTEX
  5
12C
  8
0
 62
   136
 10
-11.025146484375
 20
-5.2668423652648917
 30
0.2063044756650925
 70
   192
  0
VERTEX
  5
12D
  8
0
 62
   136
 10
-11.025146484375
 20
-8.1552944183349592
 30
0.2063044756650925
 70
   192
  0
VERTEX
  5
12E
  8
0
 62
   136
 10
-10.825747489929199
 20
-8.3556957244873047
 30
0.2063044756650925
 70
   192
  0
VERTEX
  5
12F
  8
0
 62
   136
 10
-7.8517580032348633
 20
-9.1731986999511719
 30
0.2063045352697372
 70
   192
  0
VERTEX
  5
130
  8
0
 62
   136
 10
-2.9892230033874512
 20
-9.8598747253417969
 30
0.2063044756650925
 70
   192
  0
VERTEX
  5
131
  8
0
 62
   136
 10
0.9290390014648438
 20
-10.029531478881831
 30
0.2063044756650925
 70
   192
  0
VERTEX
  5
132
  8
0
 62
   136
 10
4.847301483154296
 20
-9.8598747253417969
 30
0.2063044756650925
 70
   192
  0
VERTEX
  5
133
  8
0
 62
   136
 10
9.4443168640136719
 20
-9.1731986999511719
 30
0.2063045352697372
 70
   192
  0
VERTEX
  5
134
  8
0
 62
   136
 10
12.68382549285888
 20
-8.3556957244873047
 30
0.2063044756650925
 70
   192
  0
VERTEX
  5
135
  8
0
 62
   136
 10
12.88322448730468
 20
-8.1552944183349592
 30
0.2063044756650925
 70
   192
  0
VERTEX
  5
136
  8
0
 62
   136
 10
12.88322448730468
 20
-5.2668423652648917
 30
0.2063044756650925
 70
   192
  0
VERTEX
  5
137
  8
0
 62
   136
 10
12.97166156768799
 20
-1.0244505405426021
 30
0.2063044160604477
 70
   192
  0
VERTEX
  5
138
  8
0
 62
   136
 10
12.88322448730468
 20
2.8131270408630371
 30
0.2063044756650925
 70
   192
  0
VERTEX
  5
139
  8
0
 62
   136
 10
12.88322448730468
 20
5.5959029197692871
 30
0.2063044160604477
 70
   192
  0
VERTEX
  5
13A
  8
0
 62
   136
 10
12.88322448730468
 20
10.209390640258791
 30
0.2063044756650925
 70
   192
  0
VERTEX
  5
13B
  8
0
 62
   136
 10
12.68382549285888
 20
10.4097900390625
 30
0.2063044756650925
 70
   192
  0
VERTEX
  5
13C
  8
0
 62
   136
 10
9.4443159103393555
 20
10.4097900390625
 30
0.2063045352697372
 70
   192
  0
VERTEX
  5
13D
  8
0
 62
   136
 10
4.847301483154296
 20
10.4097900390625
 30
0.2063044756650925
 70
   192
  0
VERTEX
  5
13E
  8
0
 62
   136
 10
0.9290390014648438
 20
10.4097900390625
 30
0.2063044756650925
 70
   192
  0
VERTEX
  5
13F
  8
0
 62
   136
 10
-2.9892230033874512
 20
10.4097900390625
 30
0.2063044756650925
 70
   192
  0
VERTEX
  5
140
  8
0
 62
   136
 10
-7.8517580032348633
 20
10.4097900390625
 30
0.2063045352697372
 70
   192
  0
VERTEX
  5
141
  8
0
 62
   136
 10
-10.471393585205069
 20
10.4097900390625
 30
-0.4098002314567566
 70
   192
  0
VERTEX
  5
142
  8
0
 62
   136
 10
-10.66580009460449
 20
10.209390640258791
 30
-0.4098002314567566
 70
   192
  0
VERTEX
  5
143
  8
0
 62
   136
 10
-10.66580009460449
 20
5.5959029197692871
 30
-0.4098001122474671
 70
   192
  0
VERTEX
  5
144
  8
0
 62
   136
 10
-10.66580009460449
 20
2.813126802444458
 30
-0.4098001122474671
 70
   192
  0
VERTEX
  5
145
  8
0
 62
   136
 10
-10.57957744598388
 20
-1.0244510173797601
 30
-0.4098002314567566
 70
   192
  0
VERTEX
  5
146
  8
0
 62
   136
 10
-10.66580009460449
 20
-5.2668423652648917
 30
-0.4097999930381775
 70
   192
  0
VERTEX
  5
147
  8
0
 62
   136
 10
-10.66580009460449
 20
-8.1552944183349592
 30
-0.4098001122474671
 70
   192
  0
VERTEX
  5
148
  8
0
 62
   136
 10
-10.471393585205069
 20
-8.3556957244873047
 30
-0.4098001122474671
 70
   192
  0
VERTEX
  5
149
  8
0
 62
   136
 10
-7.8517580032348633
 20
-9.1731986999511719
 30
-0.4098002314567566
 70
   192
  0
VERTEX
  5
14A
  8
0
 62
   136
 10
-2.9892230033874512
 20
-9.8598747253417969
 30
-0.4098001122474671
 70
   192
  0
VERTEX
  5
14B
  8
0
 62
   136
 10
0.9290390014648438
 20
-10.029531478881831
 30
-0.4098002314567566
 70
   192
  0
VERTEX
  5
14C
  8
0
 62
   136
 10
4.847301483154296
 20
-9.8598747253417969
 30
-0.4098001122474671
 70
   192
  0
VERTEX
  5
14D
  8
0
 62
   136
 10
9.4443168640136719
 20
-9.1731986999511719
 30
-0.4098002314567566
 70
   192
  0
VERTEX
  5
14E
  8
0
 62
   136
 10
12.310537338256831
 20
-8.3556957244873047
 30
-0.4098001122474671
 70
   192
  0
VERTEX
  5
14F
  8
0
 62
   136
 10
12.504944801330559
 20
-8.1552944183349592
 30
-0.4098001122474671
 70
   192
  0
VERTEX
  5
150
  8
0
 62
   136
 10
12.504944801330559
 20
-5.2668423652648917
 30
-0.4097999930381775
 70
   192
  0
VERTEX
  5
151
  8
0
 62
   136
 10
12.59116744995117
 20
-1.0244505405426021
 30
-0.4098002314567566
 70
   192
  0
VERTEX
  5
152
  8
0
 62
   136
 10
12.504944801330559
 20
2.8131270408630371
 30
-0.4098001122474671
 70
   192
  0
VERTEX
  5
153
  8
0
 62
   136
 10
12.504944801330559
 20
5.5959029197692871
 30
-0.4098001122474671
 70
   192
  0
VERTEX
  5
154
  8
0
 62
   136
 10
12.504944801330559
 20
10.209390640258791
 30
-0.4098002314567566
 70
   192
  0
VERTEX
  5
155
  8
0
 62
   136
 10
12.310537338256831
 20
10.409791946411129
 30
-0.4098002314567566
 70
   192
  0
VERTEX
  5
156
  8
0
 62
   136
 10
9.4443159103393555
 20
10.4097900390625
 30
-0.4098002314567566
 70
   192
  0
VERTEX
  5
157
  8
0
 62
   136
 10
4.847301483154296
 20
10.4097900390625
 30
-0.4098002314567566
 70
   192
  0
VERTEX
  5
158
  8
0
 62
   136
 10
0.9290390014648438
 20
10.4097900390625
 30
-0.4098002314567566
 70
   192
  0
VERTEX
  5
159
  8
0
 62
   136
 10
-2.9892230033874512
 20
10.4097900390625
 30
-0.4098002314567566
 70
   192
  0
VERTEX
  5
15A
  8
0
 62
   136
 10
-7.8517580032348633
 20
10.4097900390625
 30
-0.4098002314567566
 70
   192
  0
VERTEX
  5
15B
  8
0
 62
   136
 10
-10.172505378723139
 20
10.4097900390625
 30
-1.3462331295013421
 70
   192
  0
VERTEX
  5
15C
  8
0
 62
   136
 10
-10.36184787750244
 20
10.209390640258791
 30
-1.346233367919921
 70
   192
  0
VERTEX
  5
15D
  8
0
 62
   136
 10
-10.36184787750244
 20
5.5959038734436026
 30
-1.346233367919921
 70
   192
  0
VERTEX
  5
15E
  8
0
 62
   136
 10
-10.36184787750244
 20
2.813126564025878
 30
-1.346233367919921
 70
   192
  0
VERTEX
  5
15F
  8
0
 62
   136
 10
-10.277871131896971
 20
-1.0244510173797601
 30
-1.346233367919921
 70
   192
  0
VERTEX
  5
160
  8
0
 62
   136
 10
-10.36184787750244
 20
-5.2668414115905762
 30
-1.346233367919921
 70
   192
  0
VERTEX
  5
161
  8
0
 62
   136
 10
-10.36184787750244
 20
-8.1552944183349592
 30
-1.346233367919921
 70
   192
  0
VERTEX
  5
162
  8
0
 62
   136
 10
-10.172505378723139
 20
-8.3556957244873047
 30
-1.346233367919921
 70
   192
  0
VERTEX
  5
163
  8
0
 62
   136
 10
-7.8517580032348633
 20
-9.1731986999511719
 30
-1.346233367919921
 70
   192
  0
VERTEX
  5
164
  8
0
 62
   136
 10
-2.9892230033874512
 20
-9.8598747253417969
 30
-1.346233367919921
 70
   192
  0
VERTEX
  5
165
  8
0
 62
   136
 10
0.9290390014648438
 20
-10.029531478881831
 30
-1.346233367919921
 70
   192
  0
VERTEX
  5
166
  8
0
 62
   136
 10
4.8473010063171378
 20
-9.8598747253417969
 30
-1.346233367919921
 70
   192
  0
VERTEX
  5
167
  8
0
 62
   136
 10
9.4443168640136719
 20
-9.1731986999511719
 30
-1.346233367919921
 70
   192
  0
VERTEX
  5
168
  8
0
 62
   136
 10
12.012289047241209
 20
-8.3556957244873047
 30
-1.346233367919921
 70
   192
  0
VERTEX
  5
169
  8
0
 62
   136
 10
12.20163154602051
 20
-8.1552944183349592
 30
-1.346233367919921
 70
   192
  0
VERTEX
  5
16A
  8
0
 62
   136
 10
12.20163154602051
 20
-5.2668414115905762
 30
-1.346233367919921
 70
   192
  0
VERTEX
  5
16B
  8
0
 62
   136
 10
12.28560733795166
 20
-1.0244505405426021
 30
-1.346233367919921
 70
   192
  0
VERTEX
  5
16C
  8
0
 62
   136
 10
12.20163154602051
 20
2.8131270408630371
 30
-1.346233367919921
 70
   192
  0
VERTEX
  5
16D
  8
0
 62
   136
 10
12.20163154602051
 20
5.5959038734436026
 30
-1.346233367919921
 70
   192
  0
VERTEX
  5
16E
  8
0
 62
   136
 10
12.20163154602051
 20
10.209390640258791
 30
-1.346233367919921
 70
   192
  0
VERTEX
  5
16F
  8
0
 62
   136
 10
12.012289047241209
 20
10.409791946411129
 30
-1.3462331295013421
 70
   192
  0
VERTEX
  5
170
  8
0
 62
   136
 10
9.4443159103393555
 20
10.4097900390625
 30
-1.346233367919921
 70
   192
  0
VERTEX
  5
171
  8
0
 62
   136
 10
4.8473010063171378
 20
10.4097900390625
 30
-1.346233367919921
 70
   192
  0
VERTEX
  5
172
  8
0
 62
   136
 10
0.9290390014648438
 20
10.4097900390625
 30
-1.346233367919921
 70
   192
  0
VERTEX
  5
173
  8
0
 62
   136
 10
-2.9892230033874512
 20
10.4097900390625
 30
-1.346233367919921
 70
   192
  0
VERTEX
  5
174
  8
0
 62
   136
 10
-7.8517580032348633
 20
10.4097900390625
 30
-1.346233367919921
 70
   192
  0
VERTEX
  5
175
  8
0
 62
   136
 10
-10.091465950012211
 20
10.4097900390625
 30
-1.9623380899429319
 70
   192
  0
VERTEX
  5
176
  8
0
 62
   136
 10
-10.27842330932617
 20
10.209390640258791
 30
-1.9623380899429319
 70
   192
  0
VERTEX
  5
177
  8
0
 62
   136
 10
-10.27842330932617
 20
5.5959038734436026
 30
-1.9623380899429319
 70
   192
  0
VERTEX
  5
178
  8
0
 62
   136
 10
-10.27842330932617
 20
2.813126564025878
 30
-1.9623380899429319
 70
   192
  0
VERTEX
  5
179
  8
0
 62
   136
 10
-10.195504188537599
 20
-1.0244510173797601
 30
-1.9623380899429319
 70
   192
  0
VERTEX
  5
17A
  8
0
 62
   136
 10
-10.27842330932617
 20
-5.2668414115905762
 30
-1.9623380899429319
 70
   192
  0
VERTEX
  5
17B
  8
0
 62
   136
 10
-10.27842330932617
 20
-8.1552944183349592
 30
-1.9623380899429319
 70
   192
  0
VERTEX
  5
17C
  8
0
 62
   136
 10
-10.091465950012211
 20
-8.3556957244873047
 30
-1.9623380899429319
 70
   192
  0
VERTEX
  5
17D
  8
0
 62
   136
 10
-7.8517580032348633
 20
-9.1731986999511719
 30
-2.205719947814941
 70
   192
  0
VERTEX
  5
17E
  8
0
 62
   136
 10
-2.9892230033874512
 20
-9.8598747253417969
 30
-2.205719947814941
 70
   192
  0
VERTEX
  5
17F
  8
0
 62
   136
 10
0.9290390014648438
 20
-10.0295295715332
 30
-2.205719947814941
 70
   192
  0
VERTEX
  5
180
  8
0
 62
   136
 10
4.8473010063171378
 20
-9.8598747253417969
 30
-2.205719947814941
 70
   192
  0
VERTEX
  5
181
  8
0
 62
   136
 10
9.4443168640136719
 20
-9.1731986999511719
 30
-2.205719947814941
 70
   192
  0
VERTEX
  5
182
  8
0
 62
   136
 10
11.951057434082029
 20
-8.3556957244873047
 30
-1.9623380899429319
 70
   192
  0
VERTEX
  5
183
  8
0
 62
   136
 10
12.138014793395991
 20
-8.1552944183349592
 30
-1.9623380899429319
 70
   192
  0
VERTEX
  5
184
  8
0
 62
   136
 10
12.138014793395991
 20
-5.2668414115905762
 30
-1.9623380899429319
 70
   192
  0
VERTEX
  5
185
  8
0
 62
   136
 10
12.22093296051025
 20
-1.0244505405426021
 30
-1.9623380899429319
 70
   192
  0
VERTEX
  5
186
  8
0
 62
   136
 10
12.138014793395991
 20
2.8131270408630371
 30
-1.9623380899429319
 70
   192
  0
VERTEX
  5
187
  8
0
 62
   136
 10
12.138014793395991
 20
5.5959038734436026
 30
-1.9623380899429319
 70
   192
  0
VERTEX
  5
188
  8
0
 62
   136
 10
12.138014793395991
 20
10.209390640258791
 30
-1.9623380899429319
 70
   192
  0
VERTEX
  5
189
  8
0
 62
   136
 10
11.951057434082029
 20
10.4097900390625
 30
-1.9623380899429319
 70
   192
  0
VERTEX
  5
18A
  8
0
 62
   136
 10
9.4443149566650391
 20
10.409791946411129
 30
-2.205719947814941
 70
   192
  0
VERTEX
  5
18B
  8
0
 62
   136
 10
4.8473010063171378
 20
10.409791946411129
 30
-2.205719947814941
 70
   192
  0
VERTEX
  5
18C
  8
0
 62
   136
 10
0.9290390014648438
 20
10.409791946411129
 30
-2.205719947814941
 70
   192
  0
VERTEX
  5
18D
  8
0
 62
   136
 10
-2.9892230033874512
 20
10.409791946411129
 30
-2.205719947814941
 70
   192
  0
VERTEX
  5
18E
  8
0
 62
   136
 10
-7.8517580032348633
 20
10.409791946411129
 30
-2.205719947814941
 70
   192
  0
VERTEX
  5
18F
  8
0
 62
   136
 10
11.951057434082029
 20
-8.1552944183349592
 30
-2.1621379852294922
 70
   192
  0
VERTEX
  5
190
  8
0
 62
   136
 10
9.4443168640136719
 20
-8.9727973937988281
 30
-2.405519962310791
 70
   192
  0
VERTEX
  5
191
  8
0
 62
   136
 10
4.8473010063171378
 20
-9.6594753265380842
 30
-2.405519962310791
 70
   192
  0
VERTEX
  5
192
  8
0
 62
   136
 10
0.9290390014648438
 20
-9.8291301727294922
 30
-2.405519962310791
 70
   192
  0
VERTEX
  5
193
  8
0
 62
   136
 10
-2.9892230033874512
 20
-9.6594753265380842
 30
-2.405519962310791
 70
   192
  0
VERTEX
  5
194
  8
0
 62
   136
 10
-7.8517580032348633
 20
-8.9727973937988281
 30
-2.405519962310791
 70
   192
  0
VERTEX
  5
195
  8
0
 62
   136
 10
-10.091465950012211
 20
-8.1552944183349592
 30
-2.1621379852294922
 70
   192
  0
VERTEX
  5
196
  8
0
 62
   136
 10
11.951057434082029
 20
-5.2668414115905762
 30
-2.1621379852294922
 70
   192
  0
VERTEX
  5
197
  8
0
 62
   136
 10
9.4443168640136719
 20
-6.1175818443298331
 30
-2.405519962310791
 70
   192
  0
VERTEX
  5
198
  8
0
 62
   136
 10
4.8473010063171378
 20
-6.7445220947265616
 30
-2.405519962310791
 70
   192
  0
VERTEX
  5
199
  8
0
 62
   136
 10
0.9290390014648438
 20
-6.9618611335754386
 30
-2.405519962310791
 70
   192
  0
VERTEX
  5
19A
  8
0
 62
   136
 10
-2.9892230033874512
 20
-6.6790766716003409
 30
-2.405519962310791
 70
   192
  0
VERTEX
  5
19B
  8
0
 62
   136
 10
-7.8517580032348633
 20
-5.9845304489135742
 30
-2.405519962310791
 70
   192
  0
VERTEX
  5
19C
  8
0
 62
   136
 10
-10.091465950012211
 20
-5.2668414115905762
 30
-2.1621379852294922
 70
   192
  0
VERTEX
  5
19D
  8
0
 62
   136
 10
12.0339765548706
 20
-1.0244510173797601
 30
-2.1621379852294922
 70
   192
  0
VERTEX
  5
19E
  8
0
 62
   136
 10
9.5327539443969727
 20
-1.0244510173797601
 30
-2.405519962310791
 70
   192
  0
VERTEX
  5
19F
  8
0
 62
   136
 10
2.9370110034942618
 20
-1.039003133773803
 30
-7.36856985092163
 70
   192
  0
VERTEX
  5
1A0
  8
0
 62
   136
 10
0.9681225419044494
 20
-1.0390026569366451
 30
-7.36856985092163
 70
   192
  0
VERTEX
  5
1A1
  8
0
 62
   136
 10
-1.000766277313232
 20
-1.0390026569366451
 30
-7.36856985092163
 70
   192
  0
VERTEX
  5
1A2
  8
0
 62
   136
 10
-7.7633209228515616
 20
-1.0244510173797601
 30
-2.405519962310791
 70
   192
  0
VERTEX
  5
1A3
  8
0
 62
   136
 10
-10.008547782897949
 20
-1.0244510173797601
 30
-2.1621379852294922
 70
   192
  0
VERTEX
  5
1A4
  8
0
 62
   136
 10
11.951057434082029
 20
2.813126564025878
 30
-2.1621379852294922
 70
   192
  0
VERTEX
  5
1A5
  8
0
 62
   136
 10
9.4443168640136719
 20
2.8131260871887198
 30
-2.4055194854736319
 70
   192
  0
VERTEX
  5
1A6
  8
0
 62
   136
 10
2.8925724029541011
 20
1.157371282577514
 30
-7.3685693740844718
 70
   192
  0
VERTEX
  5
1A7
  8
0
 62
   136
 10
0.9236837029457092
 20
1.1573721170425411
 30
-7.3685693740844718
 70
   192
  0
VERTEX
  5
1A8
  8
0
 62
   136
 10
-1.0452049970626831
 20
1.1573722362518311
 30
-7.3685693740844718
 70
   192
  0
VERTEX
  5
1A9
  8
0
 62
   136
 10
-7.8517580032348633
 20
2.813126564025878
 30
-2.4055194854736319
 70
   192
  0
VERTEX
  5
1AA
  8
0
 62
   136
 10
-10.091465950012211
 20
2.813126564025878
 30
-2.1621379852294922
 70
   192
  0
VERTEX
  5
1AB
  8
0
 62
   136
 10
11.951057434082029
 20
5.5959038734436026
 30
-2.1621379852294922
 70
   192
  0
VERTEX
  5
1AC
  8
0
 62
   136
 10
9.4443168640136719
 20
5.5959033966064453
 30
-2.405519962310791
 70
   192
  0
VERTEX
  5
1AD
  8
0
 62
   136
 10
4.8473010063171378
 20
5.5959033966064453
 30
-2.405519962310791
 70
   192
  0
VERTEX
  5
1AE
  8
0
 62
   136
 10
0.9290390014648438
 20
5.5959033966064453
 30
-2.405519962310791
 70
   192
  0
VERTEX
  5
1AF
  8
0
 62
   136
 10
-2.9892230033874512
 20
5.5959033966064453
 30
-2.405519962310791
 70
   192
  0
VERTEX
  5
1B0
  8
0
 62
   136
 10
-7.8517580032348633
 20
5.5959033966064453
 30
-2.405519962310791
 70
   192
  0
VERTEX
  5
1B1
  8
0
 62
   136
 10
-10.091465950012211
 20
5.5959038734436026
 30
-2.1621379852294922
 70
   192
  0
VERTEX
  5
1B2
  8
0
 62
   136
 10
11.951057434082029
 20
10.209390640258791
 30
-2.1621379852294922
 70
   192
  0
VERTEX
  5
1B3
  8
0
 62
   136
 10
9.4443168640136719
 20
10.209390640258791
 30
-2.405519962310791
 70
   192
  0
VERTEX
  5
1B4
  8
0
 62
   136
 10
4.8473010063171378
 20
10.209390640258791
 30
-2.405519962310791
 70
   192
  0
VERTEX
  5
1B5
  8
0
 62
   136
 10
0.9290390014648438
 20
10.209390640258791
 30
-2.405519962310791
 70
   192
  0
VERTEX
  5
1B6
  8
0
 62
   136
 10
-2.9892230033874512
 20
10.209390640258791
 30
-2.405519962310791
 70
   192
  0
VERTEX
  5
1B7
  8
0
 62
   136
 10
-7.8517580032348633
 20
10.209390640258791
 30
-2.405519962310791
 70
   192
  0
VERTEX
  5
1B8
  8
0
 62
   136
 10
-10.091465950012211
 20
10.209390640258791
 30
-2.1621379852294922
 70
   192
  0
VERTEX
  5
1B9
  8
0
 62
   136
 10
8.1044406890869141
 20
-5.9133853912353507
 30
-2.5054197311401358
 70
   192
  0
VERTEX
  5
1BA
  8
0
 62
   136
 10
4.3798923492431641
 20
-6.4379167556762686
 30
-2.5054197311401358
 70
   192
  0
VERTEX
  5
1BB
  8
0
 62
   136
 10
0.9277584552764892
 20
-6.6327929496765128
 30
-2.5054197311401358
 70
   192
  0
VERTEX
  5
1BC
  8
0
 62
   136
 10
-2.5243749618530269
 20
-6.4379167556762686
 30
-2.5054197311401358
 70
   192
  0
VERTEX
  5
1BD
  8
0
 62
   136
 10
-6.5325698852539062
 20
-5.9133853912353507
 30
-2.5054197311401358
 70
   192
  0
VERTEX
  5
1BE
  8
0
 62
   136
 10
8.1823577880859375
 20
-1.5234913825988761
 30
-2.5054197311401358
 70
   192
  0
VERTEX
  5
1BF
  8
0
 62
   136
 10
-6.4546537399291992
 20
-1.523491144180297
 30
-2.5054197311401358
 70
   192
  0
VERTEX
  5
1C0
  8
0
 62
   136
 10
8.1044406890869141
 20
1.934655427932739
 30
-2.5054192543029781
 70
   192
  0
VERTEX
  5
1C1
  8
0
 62
   136
 10
-6.5325698852539062
 20
1.9346551895141599
 30
-2.5054192543029781
 70
   192
  0
VERTEX
  5
1C2
  8
0
 62
   136
 10
8.1044406890869141
 20
4.3592696189880371
 30
-2.5054197311401358
 70
   192
  0
VERTEX
  5
1C3
  8
0
 62
   136
 10
4.3798923492431641
 20
4.3592705726623526
 30
-2.5054197311401358
 70
   192
  0
VERTEX
  5
1C4
  8
0
 62
   136
 10
0.9277583956718444
 20
4.3592705726623526
 30
-2.5054197311401358
 70
   192
  0
VERTEX
  5
1C5
  8
0
 62
   136
 10
-2.5243749618530269
 20
4.3592700958251953
 30
-2.5054197311401358
 70
   192
  0
VERTEX
  5
1C6
  8
0
 62
   136
 10
-6.5325698852539062
 20
4.3592710494995108
 30
-2.5054197311401358
 70
   192
  0
VERTEX
  5
1C7
  8
0
 62
   136
 10
7.2519989013671866
 20
-5.3560051918029776
 30
-4.5313282012939453
 70
   192
  0
VERTEX
  5
1C8
  8
0
 62
   136
 10
3.9692659378051749
 20
-5.8294029235839844
 30
-4.5313291549682608
 70
   192
  0
VERTEX
  5
1C9
  8
0
 62
   136
 10
0.9266334772109985
 20
-6.0052828788757324
 30
-4.5313291549682608
 70
   192
  0
VERTEX
  5
1CA
  8
0
 62
   136
 10
-2.1159980297088619
 20
-5.8294029235839844
 30
-4.5313291549682608
 70
   192
  0
VERTEX
  5
1CB
  8
0
 62
   136
 10
-5.6487302780151358
 20
-5.3560051918029776
 30
-4.5313282012939453
 70
   192
  0
VERTEX
  5
1CC
  8
0
 62
   136
 10
7.3206715583801261
 20
-1.3940503597259519
 30
-4.5313291549682608
 70
   192
  0
VERTEX
  5
1CD
  8
0
 62
   136
 10
-5.58005666732788
 20
-1.3940498828887931
 30
-4.5313291549682608
 70
   192
  0
VERTEX
  5
1CE
  8
0
 62
   136
 10
7.2519984245300293
 20
1.7269876003265381
 30
-4.5313286781311026
 70
   192
  0
VERTEX
  5
1CF
  8
0
 62
   136
 10
-5.648730754852294
 20
1.7269876003265381
 30
-4.5313286781311026
 70
   192
  0
VERTEX
  5
1D0
  8
0
 62
   136
 10
7.2519984245300293
 20
3.9152438640594478
 30
-4.5313291549682608
 70
   192
  0
VERTEX
  5
1D1
  8
0
 62
   136
 10
3.9692659378051749
 20
3.915245294570922
 30
-4.5313291549682608
 70
   192
  0
VERTEX
  5
1D2
  8
0
 62
   136
 10
0.9266334176063537
 20
3.915245294570922
 30
-4.5313291549682608
 70
   192
  0
VERTEX
  5
1D3
  8
0
 62
   136
 10
-2.1159980297088619
 20
3.915244340896606
 30
-4.5313291549682608
 70
   192
  0
VERTEX
  5
1D4
  8
0
 62
   136
 10
-5.648730754852294
 20
3.9152457714080811
 30
-4.5313291549682608
 70
   192
  0
VERTEX
  5
1D5
  8
0
 62
   136
 10
7.0932745933532706
 20
-5.1566414833068839
 30
-4.6312270164489737
 70
   192
  0
VERTEX
  5
1D6
  8
0
 62
   136
 10
3.8928072452545162
 20
-5.6117506027221671
 30
-4.631227970123291
 70
   192
  0
VERTEX
  5
1D7
  8
0
 62
   136
 10
0.9264240264892578
 20
-5.7808361053466788
 30
-4.6312289237976074
 70
   192
  0
VERTEX
  5
1D8
  8
0
 62
   136
 10
-2.0399584770202628
 20
-5.6117506027221671
 30
-4.631227970123291
 70
   192
  0
VERTEX
  5
1D9
  8
0
 62
   136
 10
-5.4841585159301749
 20
-5.1566414833068839
 30
-4.6312270164489737
 70
   192
  0
VERTEX
  5
1DA
  8
0
 62
   136
 10
7.160226345062255
 20
-1.3477520942687979
 30
-4.6312289237976074
 70
   192
  0
VERTEX
  5
1DB
  8
0
 62
   136
 10
-5.4172067642211914
 20
-1.34775161743164
 30
-4.6312289237976074
 70
   192
  0
VERTEX
  5
1DC
  8
0
 62
   136
 10
7.0932736396789551
 20
1.652709245681762
 30
-4.6312284469604492
 70
   192
  0
VERTEX
  5
1DD
  8
0
 62
   136
 10
-5.4841594696044922
 20
1.652709245681762
 30
-4.6312284469604492
 70
   192
  0
VERTEX
  5
1DE
  8
0
 62
   136
 10
7.0932736396789551
 20
3.756425142288208
 30
-4.6312289237976074
 70
   192
  0
VERTEX
  5
1DF
  8
0
 62
   136
 10
3.8928072452545162
 20
3.7564265727996822
 30
-4.6312289237976074
 70
   192
  0
VERTEX
  5
1E0
  8
0
 62
   136
 10
0.926423966884613
 20
3.7564270496368399
 30
-4.6312289237976074
 70
   192
  0
VERTEX
  5
1E1
  8
0
 62
   136
 10
-2.0399584770202628
 20
3.7564256191253662
 30
-4.6312289237976074
 70
   192
  0
VERTEX
  5
1E2
  8
0
 62
   136
 10
-5.4841594696044922
 20
3.7564270496368399
 30
-4.6312289237976074
 70
   192
  0
VERTEX
  5
1E3
  8
0
 62
   136
 10
5.829606056213378
 20
-4.4646735191345206
 30
-4.9710426330566397
 70
   192
  0
VERTEX
  5
1E4
  8
0
 62
   136
 10
3.2840900421142569
 20
-4.8563022613525391
 30
-4.9710431098937979
 70
   192
  0
VERTEX
  5
1E5
  8
0
 62
   136
 10
0.9247564077377319
 20
-5.001802921295166
 30
-4.9710440635681152
 70
   192
  0
VERTEX
  5
1E6
  8
0
 62
   136
 10
-1.434576988220214
 20
-4.8563022613525391
 30
-4.9710431098937979
 70
   192
  0
VERTEX
  5
1E7
  8
0
 62
   136
 10
-4.1739444732666007
 20
-4.4646725654602051
 30
-4.9710426330566397
 70
   192
  0
VERTEX
  5
1E8
  8
0
 62
   136
 10
5.8828549385070801
 20
-1.1870548725128169
 30
-4.971045494079589
 70
   192
  0
VERTEX
  5
1E9
  8
0
 62
   136
 10
-4.1206955909729004
 20
-1.1870541572570801
 30
-4.971045494079589
 70
   192
  0
VERTEX
  5
1EA
  8
0
 62
   136
 10
5.829603672027587
 20
1.394896388053894
 30
-4.9710450172424308
 70
   192
  0
VERTEX
  5
1EB
  8
0
 62
   136
 10
-4.1739468574523917
 20
1.394896268844604
 30
-4.9710450172424308
 70
   192
  0
VERTEX
  5
1EC
  8
0
 62
   136
 10
5.829603672027587
 20
3.2051815986633301
 30
-4.971045494079589
 70
   192
  0
VERTEX
  5
1ED
  8
0
 62
   136
 10
3.2840900421142569
 20
3.205182552337646
 30
-4.971045494079589
 70
   192
  0
VERTEX
  5
1EE
  8
0
 62
   136
 10
0.9247562885284423
 20
3.2051832675933829
 30
-4.971045494079589
 70
   192
  0
VERTEX
  5
1EF
  8
0
 62
   136
 10
-1.434576988220214
 20
3.205182552337646
 30
-4.971045494079589
 70
   192
  0
VERTEX
  5
1F0
  8
0
 62
   136
 10
-4.1739468574523917
 20
3.205183506011962
 30
-4.971045494079589
 70
   192
  0
VERTEX
  5
1F1
  8
0
 62
   136
 10
5.0168318748474121
 20
-3.82715892791748
 30
-7.3685665130615234
 70
   192
  0
VERTEX
  5
1F2
  8
0
 62
   136
 10
2.8925719261169429
 20
-4.1603035926818839
 30
-7.368565559387207
 70
   192
  0
VERTEX
  5
1F3
  8
0
 62
   136
 10
0.9236838221549987
 20
-4.2840757369995108
 30
-7.368567466735839
 70
   192
  0
VERTEX
  5
1F4
  8
0
 62
   136
 10
-1.045204758644104
 20
-4.1603035926818839
 30
-7.368565559387207
 70
   192
  0
VERTEX
  5
1F5
  8
0
 62
   136
 10
-3.3312358856201172
 20
-3.8271570205688472
 30
-7.3685665130615234
 70
   192
  0
VERTEX
  5
1F6
  8
0
 62
   136
 10
5.0612688064575186
 20
-1.039003133773803
 30
-7.36856985092163
 70
   192
  0
VERTEX
  5
1F7
  8
0
 62
   136
 10
-3.2867989540100089
 20
-1.0390026569366451
 30
-7.36856985092163
 70
   192
  0
VERTEX
  5
1F8
  8
0
 62
   136
 10
5.0168294906616211
 20
1.1573716402053831
 30
-7.3685693740844718
 70
   192
  0
VERTEX
  5
1F9
  8
0
 62
   136
 10
-3.33123779296875
 20
1.1573716402053831
 30
-7.3685693740844718
 70
   192
  0
VERTEX
  5
1FA
  8
0
 62
   136
 10
5.0168294906616211
 20
2.6973180770874019
 30
-7.36856985092163
 70
   192
  0
VERTEX
  5
1FB
  8
0
 62
   136
 10
2.8925724029541011
 20
2.6973185539245601
 30
-7.36856985092163
 70
   192
  0
VERTEX
  5
1FC
  8
0
 62
   136
 10
0.9236836433410645
 20
2.6973190307617179
 30
-7.36856985092163
 70
   192
  0
VERTEX
  5
1FD
  8
0
 62
   136
 10
-1.045204520225524
 20
2.6973180770874019
 30
-7.36856985092163
 70
   192
  0
VERTEX
  5
1FE
  8
0
 62
   136
 10
-3.33123779296875
 20
2.6973195075988761
 30
-7.36856985092163
 70
   192
  0
VERTEX
  5
1FF
  8
0
 62
   136
 10
-6.2881026268005371
 20
4.183258056640625
 30
-2.1753516197204581
 70
   192
  0
VERTEX
  5
200
  8
0
 62
   136
 10
-2.2918379306793208
 20
4.183258056640625
 30
-2.1753516197204581
 70
   192
  0
VERTEX
  5
201
  8
0
 62
   136
 10
0.9283778667449951
 20
4.183258056640625
 30
-2.1753516197204581
 70
   192
  0
VERTEX
  5
202
  8
0
 62
   136
 10
4.1485939025878897
 20
4.183258056640625
 30
-2.1753516197204581
 70
   192
  0
VERTEX
  5
203
  8
0
 62
   136
 10
7.926642417907714
 20
4.183258056640625
 30
-2.1753516197204581
 70
   192
  0
VERTEX
  5
204
  8
0
 62
   136
 10
-6.2881026268005371
 20
1.8695771694183341
 30
-2.1753520965576172
 70
   192
  0
VERTEX
  5
205
  8
0
 62
   136
 10
7.926642417907714
 20
1.8695766925811761
 30
-2.1753520965576172
 70
   192
  0
VERTEX
  5
206
  8
0
 62
   136
 10
-6.2154216766357422
 20
-1.321095705032348
 30
-2.1753516197204581
 70
   192
  0
VERTEX
  5
207
  8
0
 62
   136
 10
7.9993238449096671
 20
-1.3210954666137691
 30
-2.1753516197204581
 70
   192
  0
VERTEX
  5
208
  8
0
 62
   136
 10
-6.2881026268005371
 20
-5.4450483322143546
 30
-2.1753516197204581
 70
   192
  0
VERTEX
  5
209
  8
0
 62
   136
 10
-2.2918379306793208
 20
-6.0225143432617179
 30
-2.1753516197204581
 70
   192
  0
VERTEX
  5
20A
  8
0
 62
   136
 10
0.9283779263496398
 20
-6.25762939453125
 30
-2.1753516197204581
 70
   192
  0
VERTEX
  5
20B
  8
0
 62
   136
 10
4.1485939025878897
 20
-6.0769281387329102
 30
-2.1753516197204581
 70
   192
  0
VERTEX
  5
20C
  8
0
 62
   136
 10
7.926642417907714
 20
-5.555671215057373
 30
-2.1753516197204581
 70
   192
  0
VERTEX
  5
20D
  8
0
 62
   136
 10
-4.2036805152893058
 20
2.8558292388916011
 30
-4.4408464431762686
 70
   192
  0
VERTEX
  5
20E
  8
0
 62
   136
 10
-1.3621928691864009
 20
2.8558287620544429
 30
-4.4408464431762686
 70
   192
  0
VERTEX
  5
20F
  8
0
 62
   136
 10
0.9274964928627014
 20
2.8558287620544429
 30
-4.4408464431762686
 70
   192
  0
VERTEX
  5
210
  8
0
 62
   136
 10
3.217185258865356
 20
2.8558287620544429
 30
-4.4408464431762686
 70
   192
  0
VERTEX
  5
211
  8
0
 62
   136
 10
5.9035139083862296
 20
2.8558287620544429
 30
-4.4408464431762686
 70
   192
  0
VERTEX
  5
212
  8
0
 62
   136
 10
-4.2036805152893058
 20
1.256716012954711
 30
-4.4408464431762686
 70
   192
  0
VERTEX
  5
213
  8
0
 62
   136
 10
5.9035139083862296
 20
1.2567157745361319
 30
-4.4408464431762686
 70
   192
  0
VERTEX
  5
214
  8
0
 62
   136
 10
-4.1520013809204102
 20
-0.948534607887268
 30
-4.4408464431762686
 70
   192
  0
VERTEX
  5
215
  8
0
 62
   136
 10
5.9551930427551261
 20
-0.948534607887268
 30
-4.4408464431762686
 70
   192
  0
VERTEX
  5
216
  8
0
 62
   136
 10
-4.2036800384521484
 20
-3.7988271713256831
 30
-4.4408454895019531
 70
   192
  0
VERTEX
  5
217
  8
0
 62
   136
 10
-1.3621928691864009
 20
-4.1979451179504386
 30
-4.4408459663391113
 70
   192
  0
VERTEX
  5
218
  8
0
 62
   136
 10
0.9274967312812805
 20
-4.3604464530944824
 30
-4.4408459663391113
 70
   192
  0
VERTEX
  5
219
  8
0
 62
   136
 10
3.217185258865356
 20
-4.2355537414550781
 30
-4.4408459663391113
 70
   192
  0
VERTEX
  5
21A
  8
0
 62
   136
 10
5.9035143852233878
 20
-3.875285148620605
 30
-4.4408454895019531
 70
   192
  0
VERTEX
  5
21B
  8
0
 62
   136
 10
-3.486377239227294
 20
2.060559749603271
 30
-4.878331184387207
 70
   192
  0
VERTEX
  5
21C
  8
0
 62
   136
 10
-1.0422776937484739
 20
2.0605587959289551
 30
-4.878331184387207
 70
   192
  0
VERTEX
  5
21D
  8
0
 62
   136
 10
0.9271932244300842
 20
2.0605587959289551
 30
-4.878331184387207
 70
   192
  0
VERTEX
  5
21E
  8
0
 62
   136
 10
2.896663904190063
 20
2.0605592727661128
 30
-4.878331184387207
 70
   192
  0
VERTEX
  5
21F
  8
0
 62
   136
 10
5.2073030471801749
 20
2.0605587959289551
 30
-4.878331184387207
 70
   192
  0
VERTEX
  5
220
  8
0
 62
   136
 10
-3.486377239227294
 20
0.8895477056503295
 30
-4.878331184387207
 70
   192
  0
VERTEX
  5
221
  8
0
 62
   136
 10
5.2073030471801749
 20
0.8895472288131713
 30
-4.878331184387207
 70
   192
  0
VERTEX
  5
222
  8
0
 62
   136
 10
-3.4419255256652832
 20
-0.7253315448760987
 30
-4.878331184387207
 70
   192
  0
VERTEX
  5
223
  8
0
 62
   136
 10
5.2517547607421866
 20
-0.7253315448760987
 30
-4.878331184387207
 70
   192
  0
VERTEX
  5
224
  8
0
 62
   136
 10
-3.486377239227294
 20
-2.8125665187835689
 30
-4.8783302307128897
 70
   192
  0
VERTEX
  5
225
  8
0
 62
   136
 10
-1.0422775745391839
 20
-3.1048364639282222
 30
-4.8783307075500479
 70
   192
  0
VERTEX
  5
226
  8
0
 62
   136
 10
0.9271934628486633
 20
-3.2238340377807608
 30
-4.8783307075500479
 70
   192
  0
VERTEX
  5
227
  8
0
 62
   136
 10
2.8966641426086421
 20
-3.1323766708374019
 30
-4.8783307075500479
 70
   192
  0
VERTEX
  5
228
  8
0
 62
   136
 10
5.2073030471801749
 20
-2.8685564994812012
 30
-4.8783302307128897
 70
   192
  0
VERTEX
  5
229
  8
0
 62
   136
 10
-1.2779057025909419
 20
1.0174926519393921
 30
-4.9782309532165518
 70
   192
  0
VERTEX
  5
22A
  8
0
 62
   136
 10
-0.0573070049285889
 20
1.017492175102233
 30
-4.9782309532165518
 70
   192
  0
VERTEX
  5
22B
  8
0
 62
   136
 10
0.9262593388557434
 20
1.017492175102233
 30
-4.9782309532165518
 70
   192
  0
VERTEX
  5
22C
  8
0
 62
   136
 10
1.9098255634307859
 20
1.017492175102233
 30
-4.9782309532165518
 70
   192
  0
VERTEX
  5
22D
  8
0
 62
   136
 10
3.063773393630981
 20
1.017492175102233
 30
-4.9782309532165518
 70
   192
  0
VERTEX
  5
22E
  8
0
 62
   136
 10
-1.2779057025909419
 20
0.4079737067222596
 30
-4.9782309532165518
 70
   192
  0
VERTEX
  5
22F
  8
0
 62
   136
 10
3.063773393630981
 20
0.4079734683036805
 30
-4.9782309532165518
 70
   192
  0
VERTEX
  5
230
  8
0
 62
   136
 10
-1.255706787109375
 20
-0.4325809478759766
 30
-4.9782309532165518
 70
   192
  0
VERTEX
  5
231
  8
0
 62
   136
 10
3.0859730243682861
 20
-0.4325809478759766
 30
-4.9782309532165518
 70
   192
  0
VERTEX
  5
232
  8
0
 62
   136
 10
-1.2779057025909419
 20
-1.518999338150024
 30
-4.9782299995422363
 70
   192
  0
VERTEX
  5
233
  8
0
 62
   136
 10
-0.0573070049285889
 20
-1.6711280345916739
 30
-4.9782304763793936
 70
   192
  0
VERTEX
  5
234
  8
0
 62
   136
 10
0.9262595772743225
 20
-1.7330667972564691
 30
-4.9782304763793936
 70
   192
  0
VERTEX
  5
235
  8
0
 62
   136
 10
1.9098255634307859
 20
-1.6854627132415769
 30
-4.9782304763793936
 70
   192
  0
VERTEX
  5
236
  8
0
 62
   136
 10
3.063773393630981
 20
-1.548143148422241
 30
-4.9782299995422363
 70
   192
  0
VERTEX
  5
237
  8
0
 62
   136
 10
-8.1508579254150391
 20
5.5959029197692871
 30
0.4061044752597809
 70
   192
  0
VERTEX
  5
238
  8
0
 62
   136
 10
-7.6923007965087891
 20
5.4518451690673819
 30
0.1477285474538803
 70
   192
  0
VERTEX
  5
239
  8
0
 62
   136
 10
-2.9171221256256099
 20
5.4498534202575684
 30
0.1441558748483658
 70
   192
  0
VERTEX
  5
23A
  8
0
 62
   136
 10
0.9289706349372863
 20
5.4498534202575684
 30
0.1441558748483658
 70
   192
  0
VERTEX
  5
23B
  8
0
 62
   136
 10
4.7750635147094718
 20
5.4498534202575684
 30
0.1441558450460434
 70
   192
  0
VERTEX
  5
23C
  8
0
 62
   136
 10
9.2889156341552734
 20
5.4512553215026847
 30
0.1466704308986664
 70
   192
  0
VERTEX
  5
23D
  8
0
 62
   136
 10
9.7434177398681641
 20
5.5959029197692871
 30
0.4061044752597809
 70
   192
  0
VERTEX
  5
23E
  8
0
 62
   136
 10
-7.694138526916503
 20
2.7180151939392081
 30
0.1507071107625961
 70
   192
  0
VERTEX
  5
23F
  8
0
 62
   136
 10
9.7434577941894531
 20
2.813126564025878
 30
0.4061044752597809
 70
   192
  0
VERTEX
  5
240
  8
0
 62
   136
 10
-7.6071290969848633
 20
-1.054383993148803
 30
0.1504459232091904
 70
   192
  0
VERTEX
  5
241
  8
0
 62
   136
 10
9.8319168090820312
 20
-1.0244510173797601
 30
0.4061044752597809
 70
   192
  0
VERTEX
  5
242
  8
0
 62
   136
 10
-7.8517580032348633
 20
-6.288151741027832
 30
0.4061044752597809
 70
   192
  0
VERTEX
  5
243
  8
0
 62
   136
 10
-7.6848955154418936
 20
-5.9269614219665518
 30
0.135731428861618
 70
   192
  0
VERTEX
  5
244
  8
0
 62
   136
 10
-2.9099140167236319
 20
-6.6044111251831046
 30
0.1179683655500412
 70
   192
  0
VERTEX
  5
245
  8
0
 62
   136
 10
0.9289636611938476
 20
-6.8815736770629883
 30
0.1172468364238739
 70
   192
  0
VERTEX
  5
246
  8
0
 62
   136
 10
4.767873764038085
 20
-6.6686320304870597
 30
0.1180842965841293
 70
   192
  0
VERTEX
  5
247
  8
0
 62
   136
 10
9.4443168640136719
 20
-6.4209375381469718
 30
0.4061044752597809
 70
   192
  0
VERTEX
  5
248
  8
0
 62
   136
 10
9.7448329925537092
 20
-6.0386624336242667
 30
0.4061044752597809
 70
   192
  0
VERTEX
  5
249
  8
0
 62
   136
 10
-8.0013074874877912
 20
5.7462034225463858
 30
0.4061044752597809
 70
   192
  0
VERTEX
  5
24A
  8
0
 62
   136
 10
-7.9215784072875968
 20
5.5238742828369141
 30
0.27691650390625
 70
   192
  0
VERTEX
  5
24B
  8
0
 62
   136
 10
-7.7720289230346671
 20
5.6741743087768546
 30
0.27691650390625
 70
   192
  0
VERTEX
  5
24C
  8
0
 62
   136
 10
-2.9711978435516349
 20
5.6345405578613281
 30
0.3406173288822174
 70
   192
  0
VERTEX
  5
24D
  8
0
 62
   136
 10
0.9290218949317932
 20
5.6345405578613281
 30
0.3406173288822174
 70
   192
  0
VERTEX
  5
24E
  8
0
 62
   136
 10
4.8292417526245108
 20
5.6345405578613281
 30
0.3406173288822174
 70
   192
  0
VERTEX
  5
24F
  8
0
 62
   136
 10
9.3666162490844727
 20
5.6738791465759268
 30
0.2763874530792236
 70
   192
  0
VERTEX
  5
250
  8
0
 62
   136
 10
9.5161666870117187
 20
5.5235791206359863
 30
0.2763874530792236
 70
   192
  0
VERTEX
  5
251
  8
0
 62
   136
 10
-7.8871374130249023
 20
2.789348602294921
 30
0.3422551155090332
 70
   192
  0
VERTEX
  5
252
  8
0
 62
   136
 10
9.4806928634643555
 20
2.7892470359802242
 30
0.3419826030731201
 70
   192
  0
VERTEX
  5
253
  8
0
 62
   136
 10
-7.7990636825561523
 20
-1.031934261322021
 30
0.3421898186206818
 70
   192
  0
VERTEX
  5
254
  8
0
 62
   136
 10
9.5687751770019531
 20
-1.031951189041137
 30
0.3420454263687134
 70
   192
  0
VERTEX
  5
255
  8
0
 62
   136
 10
-8.0006914138793945
 20
-6.1004004478454581
 30
0.4061044752597809
 70
   192
  0
VERTEX
  5
256
  8
0
 62
   136
 10
-7.768326759338378
 20
-6.1075563430786133
 30
0.2709179520606995
 70
   192
  0
VERTEX
  5
257
  8
0
 62
   136
 10
-7.9172601699829102
 20
-5.9198055267333984
 30
0.2709179520606995
 70
   192
  0
VERTEX
  5
258
  8
0
 62
   136
 10
-2.969395637512207
 20
-6.7360339164733878
 30
0.3340704441070557
 70
   192
  0
VERTEX
  5
259
  8
0
 62
   136
 10
0.9290201663970947
 20
-7.0170931816101074
 30
0.3338900804519653
 70
   192
  0
VERTEX
  5
25A
  8
0
 62
   136
 10
4.8274445533752441
 20
-6.8011007308959961
 30
0.3340994417667389
 70
   192
  0
VERTEX
  5
25B
  8
0
 62
   136
 10
9.3631668090820312
 20
-6.2392144203186026
 30
0.2706295251846313
 70
   192
  0
VERTEX
  5
25C
  8
0
 62
   136
 10
9.5945749282836914
 20
-6.2298002243041992
 30
0.4061045050621033
 70
   192
  0
VERTEX
  5
25D
  8
0
 62
   136
 10
9.5134248733520508
 20
-6.0480771064758301
 30
0.2706295251846313
 70
   192
  0
VERTEX
  5
25E
  8
0
 62
   136
 10
-7.8866682052612296
 20
5.7101888656616211
 30
0.3415104746818542
 70
   192
  0
VERTEX
  5
25F
  8
0
 62
   136
 10
9.4802417755126953
 20
5.7100410461425781
 30
0.3412459492683411
 70
   192
  0
VERTEX
  5
260
  8
0
 62
   136
 10
-7.958974838256835
 20
-6.0101027488708487
 30
0.338511198759079
 70
   192
  0
VERTEX
  5
261
  8
0
 62
   136
 10
9.4788703918457031
 20
-6.2345070838928223
 30
0.3383669853210449
 70
   192
  0
VERTEX
  5
262
  8
0
 62
   136
 10
-7.2054271697998038
 20
4.4751243591308594
 30
-2.210824489593505
 70
   192
  0
VERTEX
  5
263
  8
0
 62
   136
 10
-3.166171550750732
 20
4.4751243591308594
 30
-2.210824489593505
 70
   192
  0
VERTEX
  5
264
  8
0
 62
   136
 10
0.873084306716919
 20
4.4751243591308594
 30
-2.210824489593505
 70
   192
  0
VERTEX
  5
265
  8
0
 62
   136
 10
4.9123401641845703
 20
4.4751243591308594
 30
-2.210824489593505
 70
   192
  0
VERTEX
  5
266
  8
0
 62
   136
 10
8.9515962600708008
 20
4.4751243591308594
 30
-2.210824489593505
 70
   192
  0
VERTEX
  5
267
  8
0
 62
   136
 10
-7.2054271697998038
 20
7.6401195526123038
 30
-2.210824489593505
 70
   192
  0
VERTEX
  5
268
  8
0
 62
   136
 10
-3.166171550750732
 20
7.6401195526123038
 30
-2.210824489593505
 70
   192
  0
VERTEX
  5
269
  8
0
 62
   136
 10
0.873084306716919
 20
7.6401195526123038
 30
-2.210824489593505
 70
   192
  0
VERTEX
  5
26A
  8
0
 62
   136
 10
4.9123401641845703
 20
7.6401195526123038
 30
-2.210824489593505
 70
   192
  0
VERTEX
  5
26B
  8
0
 62
   136
 10
8.9515962600708008
 20
7.6401195526123038
 30
-2.210824489593505
 70
   192
  0
VERTEX
  5
26C
  8
0
 62
   136
 10
-7.2054271697998038
 20
10.380178451538081
 30
-2.210824489593505
 70
   192
  0
VERTEX
  5
26D
  8
0
 62
   136
 10
-3.166171550750732
 20
10.380178451538081
 30
-2.210824489593505
 70
   192
  0
VERTEX
  5
26E
  8
0
 62
   136
 10
0.873084306716919
 20
10.380178451538081
 30
-2.210824489593505
 70
   192
  0
VERTEX
  5
26F
  8
0
 62
   136
 10
4.9123401641845703
 20
10.380178451538081
 30
-2.210824489593505
 70
   192
  0
VERTEX
  5
270
  8
0
 62
   136
 10
8.9515962600708008
 20
10.380178451538081
 30
-2.210824489593505
 70
   192
  0
VERTEX
  5
271
  8
0
 62
   136
 10
-6.9917817115783691
 20
3.5547873973846431
 30
-4.7733721733093262
 70
   192
  0
VERTEX
  5
272
  8
0
 62
   136
 10
-3.166171550750732
 20
3.5547864437103271
 30
-4.7733721733093262
 70
   192
  0
VERTEX
  5
273
  8
0
 62
   136
 10
0.8730842471122741
 20
3.5547864437103271
 30
-4.7733721733093262
 70
   192
  0
VERTEX
  5
274
  8
0
 62
   136
 10
4.9123401641845703
 20
3.5547869205474849
 30
-4.7733721733093262
 70
   192
  0
VERTEX
  5
275
  8
0
 62
   136
 10
8.745697021484375
 20
3.5547864437103271
 30
-4.7733721733093262
 70
   192
  0
VERTEX
  5
276
  8
0
 62
   136
 10
-6.9917817115783691
 20
7.6401195526123038
 30
-4.7733721733093262
 70
   192
  0
VERTEX
  5
277
  8
0
 62
   136
 10
-3.166171550750732
 20
7.6401195526123038
 30
-4.7733721733093262
 70
   192
  0
VERTEX
  5
278
  8
0
 62
   136
 10
0.873084306716919
 20
7.6401195526123038
 30
-4.7733721733093262
 70
   192
  0
VERTEX
  5
279
  8
0
 62
   136
 10
4.9123401641845703
 20
7.6401195526123038
 30
-4.7733721733093262
 70
   192
  0
VERTEX
  5
27A
  8
0
 62
   136
 10
8.745697021484375
 20
7.6401195526123038
 30
-4.7733721733093262
 70
   192
  0
VERTEX
  5
27B
  8
0
 62
   136
 10
-6.9917817115783691
 20
10.380178451538081
 30
-4.7733721733093262
 70
   192
  0
VERTEX
  5
27C
  8
0
 62
   136
 10
-3.166171550750732
 20
10.380178451538081
 30
-4.7733721733093262
 70
   192
  0
VERTEX
  5
27D
  8
0
 62
   136
 10
0.873084306716919
 20
10.380178451538081
 30
-4.7733721733093262
 70
   192
  0
VERTEX
  5
27E
  8
0
 62
   136
 10
4.9123401641845703
 20
10.380178451538081
 30
-4.7733721733093262
 70
   192
  0
VERTEX
  5
27F
  8
0
 62
   136
 10
8.745697021484375
 20
10.380178451538081
 30
-4.7733721733093262
 70
   192
  0
VERTEX
  5
280
  8
0
 62
   136
 10
-7.0904188156127921
 20
4.2417392730712891
 30
-3.3121309280395499
 70
   192
  0
VERTEX
  5
281
  8
0
 62
   136
 10
-3.166171550750732
 20
4.24173879623413
 30
-3.3121309280395499
 70
   192
  0
VERTEX
  5
282
  8
0
 62
   136
 10
0.8730842471122741
 20
4.24173879623413
 30
-3.3121309280395499
 70
   192
  0
VERTEX
  5
283
  8
0
 62
   136
 10
4.9123401641845703
 20
4.24173879623413
 30
-3.3121309280395499
 70
   192
  0
VERTEX
  5
284
  8
0
 62
   136
 10
8.8459424972534162
 20
4.2417383193969718
 30
-3.3121309280395499
 70
   192
  0
VERTEX
  5
285
  8
0
 62
   136
 10
8.8459424972534162
 20
7.6401195526123038
 30
-3.3121309280395499
 70
   192
  0
VERTEX
  5
286
  8
0
 62
   136
 10
8.8459424972534162
 20
10.380178451538081
 30
-3.3121309280395499
 70
   192
  0
VERTEX
  5
287
  8
0
 62
   136
 10
4.9123401641845703
 20
10.380178451538081
 30
-3.3121309280395499
 70
   192
  0
VERTEX
  5
288
  8
0
 62
   136
 10
0.873084306716919
 20
10.380178451538081
 30
-3.3121309280395499
 70
   192
  0
VERTEX
  5
289
  8
0
 62
   136
 10
-3.166171550750732
 20
10.380178451538081
 30
-3.3121309280395499
 70
   192
  0
VERTEX
  5
28A
  8
0
 62
   136
 10
-7.0904188156127921
 20
10.380178451538081
 30
-3.3121309280395499
 70
   192
  0
VERTEX
  5
28B
  8
0
 62
   136
 10
-7.0904188156127921
 20
7.6401195526123038
 30
-3.3121309280395499
 70
   192
  0
VERTEX
  5
28C
  8
0
 62
   136
 10
-2.4746825695037842
 20
-3.001498699188232
 30
-7.279552459716796
 70
   192
  0
VERTEX
  5
28D
  8
0
 62
   136
 10
-2.0732941627502441
 20
-2.930763721466064
 30
-7.279552459716796
 70
   192
  0
VERTEX
  5
28E
  8
0
 62
   136
 10
-0.708145022392273
 20
-3.158519744873046
 30
-7.279552459716796
 70
   192
  0
VERTEX
  5
28F
  8
0
 62
   136
 10
0.8452844619750976
 20
-3.2892622947692871
 30
-7.279552459716796
 70
   192
  0
VERTEX
  5
290
  8
0
 62
   136
 10
2.3034167289733878
 20
-3.158519744873046
 30
-7.279552459716796
 70
   192
  0
VERTEX
  5
291
  8
0
 62
   136
 10
3.7388815879821768
 20
-2.930763721466064
 30
-7.279552459716796
 70
   192
  0
VERTEX
  5
292
  8
0
 62
   136
 10
4.1650638580322257
 20
-3.0025978088378902
 30
-7.279552459716796
 70
   192
  0
VERTEX
  5
293
  8
0
 62
   136
 10
-2.6882364749908438
 20
-0.6588003635406495
 30
-7.279552459716796
 70
   192
  0
VERTEX
  5
294
  8
0
 62
   136
 10
-2.0732941627502441
 20
-0.6588003635406495
 30
-7.279552459716796
 70
   192
  0
VERTEX
  5
295
  8
0
 62
   136
 10
-0.708145022392273
 20
-0.6588003635406495
 30
-7.279552459716796
 70
   192
  0
VERTEX
  5
296
  8
0
 62
   136
 10
0.8452844619750976
 20
-0.6588003635406495
 30
-7.279552459716796
 70
   192
  0
VERTEX
  5
297
  8
0
 62
   136
 10
2.3034167289733878
 20
-0.6588003635406495
 30
-7.279552459716796
 70
   192
  0
VERTEX
  5
298
  8
0
 62
   136
 10
3.7388815879821768
 20
-0.6588003635406495
 30
-7.279552459716796
 70
   192
  0
VERTEX
  5
299
  8
0
 62
   136
 10
4.4182519912719718
 20
-0.6588003635406495
 30
-7.279552459716796
 70
   192
  0
VERTEX
  5
29A
  8
0
 62
   136
 10
-2.6219851970672599
 20
2.7605521678924561
 30
-7.279552459716796
 70
   192
  0
VERTEX
  5
29B
  8
0
 62
   136
 10
-2.0732941627502441
 20
2.7605526447296138
 30
-7.279552459716796
 70
   192
  0
VERTEX
  5
29C
  8
0
 62
   136
 10
-0.7081451416015625
 20
2.7605524063110352
 30
-7.279552459716796
 70
   192
  0
VERTEX
  5
29D
  8
0
 62
   136
 10
0.8452845215797424
 20
2.7605524063110352
 30
-7.279552459716796
 70
   192
  0
VERTEX
  5
29E
  8
0
 62
   136
 10
2.3034167289733878
 20
2.7605524063110352
 30
-7.279552459716796
 70
   192
  0
VERTEX
  5
29F
  8
0
 62
   136
 10
3.7388815879821768
 20
2.7605521678924561
 30
-7.279552459716796
 70
   192
  0
VERTEX
  5
2A0
  8
0
 62
   136
 10
4.3125543594360352
 20
2.7605526447296138
 30
-7.279552459716796
 70
   192
  0
VERTEX
  5
2A1
  8
0
 62
   136
 10
-2.781630039215087
 20
-3.4501218795776358
 30
-32.715480804443359
 70
   192
  0
VERTEX
  5
2A2
  8
0
 62
   136
 10
-2.3877670764923091
 20
-3.380713462829589
 30
-32.715480804443359
 70
   192
  0
VERTEX
  5
2A3
  8
0
 62
   136
 10
-0.7081449031829834
 20
-3.608468532562255
 30
-32.715480804443359
 70
   192
  0
VERTEX
  5
2A4
  8
0
 62
   136
 10
0.8452844619750976
 20
-3.7392120361328121
 30
-32.715480804443359
 70
   192
  0
VERTEX
  5
2A5
  8
0
 62
   136
 10
2.3034169673919669
 20
-3.608468532562255
 30
-32.715480804443359
 70
   192
  0
VERTEX
  5
2A6
  8
0
 62
   136
 10
4.0943841934204102
 20
-3.380713462829589
 30
-32.715480804443359
 70
   192
  0
VERTEX
  5
2A7
  8
0
 62
   136
 10
4.5102238655090332
 20
-3.4508037567138672
 30
-32.715480804443359
 70
   192
  0
VERTEX
  5
2A8
  8
0
 62
   136
 10
-3.0027091503143311
 20
-0.6588002443313599
 30
-32.715480804443359
 70
   192
  0
VERTEX
  5
2A9
  8
0
 62
   136
 10
-2.9501631259918208
 20
-0.6588001251220704
 30
-34.59796142578125
 70
   192
  0
VERTEX
  5
2AA
  8
0
 62
   136
 10
-0.7081447839736939
 20
-0.6588001251220704
 30
-34.59796142578125
 70
   192
  0
VERTEX
  5
2AB
  8
0
 62
   136
 10
0.8452844619750976
 20
-0.6588001251220704
 30
-34.59796142578125
 70
   192
  0
VERTEX
  5
2AC
  8
0
 62
   136
 10
2.3034167289733878
 20
-0.6588001251220704
 30
-34.59796142578125
 70
   192
  0
VERTEX
  5
2AD
  8
0
 62
   136
 10
4.7974700927734366
 20
-0.6588001251220704
 30
-34.59796142578125
 70
   192
  0
VERTEX
  5
2AE
  8
0
 62
   136
 10
4.7737550735473633
 20
-0.6588001251220704
 30
-32.715480804443359
 70
   192
  0
VERTEX
  5
2AF
  8
0
 62
   136
 10
-2.9364576339721671
 20
2.7605526447296138
 30
-32.715480804443359
 70
   192
  0
VERTEX
  5
2B0
  8
0
 62
   136
 10
-2.3877665996551509
 20
2.760553121566772
 30
-32.715480804443359
 70
   192
  0
VERTEX
  5
2B1
  8
0
 62
   136
 10
-0.7081451416015625
 20
2.7605528831481929
 30
-32.715480804443359
 70
   192
  0
VERTEX
  5
2B2
  8
0
 62
   136
 10
0.8452845215797424
 20
2.7605528831481929
 30
-32.715480804443359
 70
   192
  0
VERTEX
  5
2B3
  8
0
 62
   136
 10
2.3034167289733878
 20
2.7605528831481929
 30
-32.715480804443359
 70
   192
  0
VERTEX
  5
2B4
  8
0
 62
   136
 10
4.0943846702575684
 20
2.7605526447296138
 30
-32.715480804443359
 70
   192
  0
VERTEX
  5
2B5
  8
0
 62
   136
 10
4.6680574417114249
 20
2.760553121566772
 30
-32.715480804443359
 70
   192
  0
VERTEX
  5
2B6
  8
0
 62
   136
 10
-2.6261873245239249
 20
-2.8772168159484859
 30
-12.275631904602051
 70
   192
  0
VERTEX
  5
2B7
  8
0
 62
   136
 10
-2.0732941627502441
 20
-2.930763721466064
 30
-12.275631904602051
 70
   192
  0
VERTEX
  5
2B8
  8
0
 62
   136
 10
-0.708145022392273
 20
-3.158519744873046
 30
-12.275631904602051
 70
   192
  0
VERTEX
  5
2B9
  8
0
 62
   136
 10
0.8452844619750976
 20
-3.2892622947692871
 30
-12.275631904602051
 70
   192
  0
VERTEX
  5
2BA
  8
0
 62
   136
 10
2.3034167289733878
 20
-3.158519744873046
 30
-12.275631904602051
 70
   192
  0
VERTEX
  5
2BB
  8
0
 62
   136
 10
3.7388815879821768
 20
-2.930763721466064
 30
-12.275631904602051
 70
   192
  0
VERTEX
  5
2BC
  8
0
 62
   136
 10
4.1650638580322257
 20
-3.0025978088378902
 30
-12.275631904602051
 70
   192
  0
VERTEX
  5
2BD
  8
0
 62
   136
 10
4.4182519912719718
 20
-0.6588003635406495
 30
-12.275631904602051
 70
   192
  0
VERTEX
  5
2BE
  8
0
 62
   136
 10
4.3125534057617179
 20
2.7605526447296138
 30
-12.275631904602051
 70
   192
  0
VERTEX
  5
2BF
  8
0
 62
   136
 10
3.7388811111450191
 20
2.7605521678924561
 30
-12.275631904602051
 70
   192
  0
VERTEX
  5
2C0
  8
0
 62
   136
 10
2.30341625213623
 20
2.7605524063110352
 30
-12.275631904602051
 70
   192
  0
VERTEX
  5
2C1
  8
0
 62
   136
 10
0.8452840447425842
 20
2.7605524063110352
 30
-12.275631904602051
 70
   192
  0
VERTEX
  5
2C2
  8
0
 62
   136
 10
-0.7081456184387207
 20
2.7605524063110352
 30
-12.275631904602051
 70
   192
  0
VERTEX
  5
2C3
  8
0
 62
   136
 10
-2.0732946395874019
 20
2.7605526447296138
 30
-12.275631904602051
 70
   192
  0
VERTEX
  5
2C4
  8
0
 62
   136
 10
-2.6219851970672599
 20
2.7605521678924561
 30
-12.275631904602051
 70
   192
  0
VERTEX
  5
2C5
  8
0
 62
   136
 10
-2.6882364749908438
 20
-0.6588003635406495
 30
-12.275631904602051
 70
   192
  0
VERTEX
  5
2C6
  8
0
 62
   136
 10
-2.6261882781982422
 20
-2.877202033996582
 30
-21.63137245178223
 70
   192
  0
VERTEX
  5
2C7
  8
0
 62
   136
 10
-2.0732941627502441
 20
-2.9307634830474849
 30
-21.63137245178223
 70
   192
  0
VERTEX
  5
2C8
  8
0
 62
   136
 10
-0.708145022392273
 20
-3.1585192680358878
 30
-21.63137245178223
 70
   192
  0
VERTEX
  5
2C9
  8
0
 62
   136
 10
0.8452844619750976
 20
-3.2892622947692871
 30
-21.63137245178223
 70
   192
  0
VERTEX
  5
2CA
  8
0
 62
   136
 10
2.3034167289733878
 20
-3.1585192680358878
 30
-21.63137245178223
 70
   192
  0
VERTEX
  5
2CB
  8
0
 62
   136
 10
3.7388815879821768
 20
-2.9307634830474849
 30
-21.63137245178223
 70
   192
  0
VERTEX
  5
2CC
  8
0
 62
   136
 10
4.1650629043579102
 20
-3.002597332000732
 30
-21.63137245178223
 70
   192
  0
VERTEX
  5
2CD
  8
0
 62
   136
 10
4.4182519912719718
 20
-0.6588001251220704
 30
-21.63137245178223
 70
   192
  0
VERTEX
  5
2CE
  8
0
 62
   136
 10
4.3125534057617179
 20
2.7605528831481929
 30
-21.63137054443359
 70
   192
  0
VERTEX
  5
2CF
  8
0
 62
   136
 10
3.7388811111450191
 20
2.7605524063110352
 30
-21.63137054443359
 70
   192
  0
VERTEX
  5
2D0
  8
0
 62
   136
 10
2.30341625213623
 20
2.7605526447296138
 30
-21.63137054443359
 70
   192
  0
VERTEX
  5
2D1
  8
0
 62
   136
 10
0.8452840447425842
 20
2.7605526447296138
 30
-21.63137054443359
 70
   192
  0
VERTEX
  5
2D2
  8
0
 62
   136
 10
-0.7081456184387207
 20
2.7605526447296138
 30
-21.63137054443359
 70
   192
  0
VERTEX
  5
2D3
  8
0
 62
   136
 10
-2.0732946395874019
 20
2.7605528831481929
 30
-21.63137054443359
 70
   192
  0
VERTEX
  5
2D4
  8
0
 62
   136
 10
-2.6219851970672599
 20
2.7605524063110352
 30
-21.63137054443359
 70
   192
  0
VERTEX
  5
2D5
  8
0
 62
   136
 10
-2.6882364749908438
 20
-0.6588002443313599
 30
-21.63137245178223
 70
   192
  0
VERTEX
  5
2D6
  8
0
 62
   136
 10
-2.4726285934448242
 20
-3.1904311180114742
 30
-31.246210098266602
 70
   192
  0
VERTEX
  5
2D7
  8
0
 62
   136
 10
-2.0732941627502441
 20
-3.1200580596923819
 30
-31.246210098266602
 70
   192
  0
VERTEX
  5
2D8
  8
0
 62
   136
 10
-0.708145022392273
 20
-3.3478131294250479
 30
-31.246210098266602
 70
   192
  0
VERTEX
  5
2D9
  8
0
 62
   136
 10
0.8452844619750976
 20
-3.4785561561584468
 30
-31.246210098266602
 70
   192
  0
VERTEX
  5
2DA
  8
0
 62
   136
 10
2.3034167289733878
 20
-3.3478131294250479
 30
-31.246210098266602
 70
   192
  0
VERTEX
  5
2DB
  8
0
 62
   136
 10
3.7388815879821768
 20
-3.1200575828552242
 30
-31.246210098266602
 70
   192
  0
VERTEX
  5
2DC
  8
0
 62
   136
 10
4.3187990188598633
 20
-3.0655975341796871
 30
-31.246210098266602
 70
   192
  0
VERTEX
  5
2DD
  8
0
 62
   136
 10
4.4182519912719718
 20
-0.6588000059127808
 30
-31.246210098266602
 70
   192
  0
VERTEX
  5
2DE
  8
0
 62
   136
 10
4.3125538825988761
 20
2.7605528831481929
 30
-31.246210098266602
 70
   192
  0
VERTEX
  5
2DF
  8
0
 62
   136
 10
3.7388813495635982
 20
2.7605524063110352
 30
-31.246210098266602
 70
   192
  0
VERTEX
  5
2E0
  8
0
 62
   136
 10
2.30341625213623
 20
2.7605526447296138
 30
-31.246210098266602
 70
   192
  0
VERTEX
  5
2E1
  8
0
 62
   136
 10
0.8452840447425842
 20
2.7605526447296138
 30
-31.246210098266602
 70
   192
  0
VERTEX
  5
2E2
  8
0
 62
   136
 10
-0.7081454992294312
 20
2.7605526447296138
 30
-31.246210098266602
 70
   192
  0
VERTEX
  5
2E3
  8
0
 62
   136
 10
-2.0732944011688228
 20
2.7605528831481929
 30
-31.246210098266602
 70
   192
  0
VERTEX
  5
2E4
  8
0
 62
   136
 10
-2.6219849586486812
 20
2.7605524063110352
 30
-31.246210098266602
 70
   192
  0
VERTEX
  5
2E5
  8
0
 62
   136
 10
-2.6882364749908438
 20
-0.6588000059127808
 30
-31.246210098266602
 70
   192
  0
VERTEX
  5
2E6
  8
0
 62
   136
 10
-3.5020852088928218
 20
-3.9021501541137691
 30
-34.309722900390632
 70
   192
  0
VERTEX
  5
2E7
  8
0
 62
   136
 10
-2.9501640796661368
 20
-3.9717187881469722
 30
-34.309722900390632
 70
   192
  0
VERTEX
  5
2E8
  8
0
 62
   136
 10
-0.7081446647644043
 20
-4.1994748115539551
 30
-34.309722900390632
 70
   192
  0
VERTEX
  5
2E9
  8
0
 62
   136
 10
0.8452844619750976
 20
-4.3302173614501953
 30
-34.309722900390632
 70
   192
  0
VERTEX
  5
2EA
  8
0
 62
   136
 10
2.303417205810546
 20
-4.1994748115539551
 30
-34.309722900390632
 70
   192
  0
VERTEX
  5
2EB
  8
0
 62
   136
 10
4.7974691390991211
 20
-3.971718311309814
 30
-34.309722900390632
 70
   192
  0
VERTEX
  5
2EC
  8
0
 62
   136
 10
5.2158074378967276
 20
-4.0422306060791007
 30
-34.309722900390632
 70
   192
  0
VERTEX
  5
2ED
  8
0
 62
   136
 10
-3.565105438232421
 20
-0.6588001251220704
 30
-34.309722900390632
 70
   192
  0
VERTEX
  5
2EE
  8
0
 62
   136
 10
5.4768404960632324
 20
-0.6588001251220704
 30
-34.309722900390632
 70
   192
  0
VERTEX
  5
2EF
  8
0
 62
   136
 10
-3.4988536834716788
 20
2.7605524063110352
 30
-34.309722900390632
 70
   192
  0
VERTEX
  5
2F0
  8
0
 62
   136
 10
-2.9501631259918208
 20
2.7605528831481929
 30
-34.309722900390632
 70
   192
  0
VERTEX
  5
2F1
  8
0
 62
   136
 10
-0.7081449031829834
 20
2.7605526447296138
 30
-34.309722900390632
 70
   192
  0
VERTEX
  5
2F2
  8
0
 62
   136
 10
0.8452845215797424
 20
2.7605526447296138
 30
-34.309722900390632
 70
   192
  0
VERTEX
  5
2F3
  8
0
 62
   136
 10
2.3034167289733878
 20
2.7605526447296138
 30
-34.309722900390632
 70
   192
  0
VERTEX
  5
2F4
  8
0
 62
   136
 10
4.7974700927734366
 20
2.7605524063110352
 30
-34.309722900390632
 70
   192
  0
VERTEX
  5
2F5
  8
0
 62
   136
 10
5.3711423873901358
 20
2.7605528831481929
 30
-34.309722900390632
 70
   192
  0
VERTEX
  5
2F6
  8
0
 62
   136
 10
-3.5024232864379878
 20
-3.723254680633544
 30
-34.59796142578125
 70
   192
  0
VERTEX
  5
2F7
  8
0
 62
   136
 10
-2.9501640796661368
 20
-3.8010478019714351
 30
-34.59796142578125
 70
   192
  0
VERTEX
  5
2F8
  8
0
 62
   136
 10
-0.7081447839736939
 20
-4.0288028717041007
 30
-34.59796142578125
 70
   192
  0
VERTEX
  5
2F9
  8
0
 62
   136
 10
0.8452844619750976
 20
-4.1595463752746582
 30
-34.59796142578125
 70
   192
  0
VERTEX
  5
2FA
  8
0
 62
   136
 10
2.303417205810546
 20
-4.0288028717041007
 30
-34.59796142578125
 70
   192
  0
VERTEX
  5
2FB
  8
0
 62
   136
 10
4.7974691390991211
 20
-3.8010468482971191
 30
-34.59796142578125
 70
   192
  0
VERTEX
  5
2FC
  8
0
 62
   136
 10
5.2231268882751456
 20
-3.8727927207946768
 30
-34.59796142578125
 70
   192
  0
VERTEX
  5
2FD
  8
0
 62
   136
 10
-3.565105438232421
 20
-0.6588001251220704
 30
-34.59796142578125
 70
   192
  0
VERTEX
  5
2FE
  8
0
 62
   136
 10
5.4768404960632324
 20
-0.6588001251220704
 30
-34.59796142578125
 70
   192
  0
VERTEX
  5
2FF
  8
0
 62
   136
 10
-3.4988536834716788
 20
2.7605524063110352
 30
-34.59796142578125
 70
   192
  0
VERTEX
  5
300
  8
0
 62
   136
 10
-2.9501631259918208
 20
2.7605528831481929
 30
-34.59796142578125
 70
   192
  0
VERTEX
  5
301
  8
0
 62
   136
 10
-0.708145022392273
 20
2.7605526447296138
 30
-34.59796142578125
 70
   192
  0
VERTEX
  5
302
  8
0
 62
   136
 10
0.8452845215797424
 20
2.7605526447296138
 30
-34.59796142578125
 70
   192
  0
VERTEX
  5
303
  8
0
 62
   136
 10
2.3034167289733878
 20
2.7605526447296138
 30
-34.59796142578125
 70
   192
  0
VERTEX
  5
304
  8
0
 62
   136
 10
4.7974700927734366
 20
2.7605524063110352
 30
-34.59796142578125
 70
   192
  0
VERTEX
  5
305
  8
0
 62
   136
 10
5.3711423873901358
 20
2.7605528831481929
 30
-34.59796142578125
 70
   192
  0
VERTEX
  5
306
  8
0
 62
   136
 10
-2.6261873245239249
 20
-2.8772168159484859
 30
-7.279552459716796
 70
   192
  0
VERTEX
  5
307
  8
0
 62
   136
 10
-2.940112590789794
 20
-3.3219490051269531
 30
-32.715480804443359
 70
   192
  0
VERTEX
  5
308
  8
0
 62
   136
 10
-2.4746825695037842
 20
-3.001498699188232
 30
-12.275631904602051
 70
   192
  0
VERTEX
  5
309
  8
0
 62
   136
 10
-2.4746825695037842
 20
-3.0014984607696529
 30
-21.63137245178223
 70
   192
  0
VERTEX
  5
30A
  8
0
 62
   136
 10
-2.62590479850769
 20
-3.0654511451721191
 30
-31.246210098266602
 70
   192
  0
VERTEX
  5
30B
  8
0
 62
   136
 10
-3.3459267616271968
 20
-4.0414624214172363
 30
-34.309722900390632
 70
   192
  0
VERTEX
  5
30C
  8
0
 62
   136
 10
-3.3509807586669922
 20
-3.871681690216064
 30
-34.59796142578125
 70
   192
  0
VERTEX
  5
30D
  8
0
 62
   136
 10
4.3192543983459473
 20
-2.8773083686828609
 30
-7.279552459716796
 70
   192
  0
VERTEX
  5
30E
  8
0
 62
   136
 10
4.673865318298339
 20
-3.3225030899047852
 30
-32.715480804443359
 70
   192
  0
VERTEX
  5
30F
  8
0
 62
   136
 10
4.3192539215087891
 20
-2.8773083686828609
 30
-12.275631904602051
 70
   192
  0
VERTEX
  5
310
  8
0
 62
   136
 10
4.3192539215087891
 20
-2.8772938251495361
 30
-21.63137245178223
 70
   192
  0
VERTEX
  5
311
  8
0
 62
   136
 10
4.1625423431396484
 20
-3.1914668083190909
 30
-31.246210098266602
 70
   192
  0
VERTEX
  5
312
  8
0
 62
   136
 10
5.3762803077697754
 20
-3.902654647827148
 30
-34.309722900390632
 70
   192
  0
VERTEX
  5
313
  8
0
 62
   136
 10
5.3768329620361319
 20
-3.7233314514160152
 30
-34.59796142578125
 70
   192
  0
VERTEX
  5
314
  8
0
 62
   136
 10
0.9534584879875183
 20
-0.2369651794433594
 30
-4.9493145942687979
 70
   192
  0
VERTEX
  5
315
  8
0
 62
   136
 10
1.9608277082443231
 20
-0.2369651794433594
 30
-4.9493145942687979
 70
   192
  0
VERTEX
  5
316
  8
0
 62
   136
 10
1.861066818237304
 20
-0.6762382984161377
 30
-4.9493145942687979
 70
   192
  0
VERTEX
  5
317
  8
0
 62
   136
 10
1.58154296875
 20
-1.028507947921752
 30
-4.9493145942687979
 70
   192
  0
VERTEX
  5
318
  8
0
 62
   136
 10
1.1776192188262931
 20
-1.2240030765533441
 30
-4.9493145942687979
 70
   192
  0
VERTEX
  5
319
  8
0
 62
   136
 10
0.7292977571487427
 20
-1.2240030765533441
 30
-4.9493145942687979
 70
   192
  0
VERTEX
  5
31A
  8
0
 62
   136
 10
0.3253740668296814
 20
-1.028507947921752
 30
-4.9493145942687979
 70
   192
  0
VERTEX
  5
31B
  8
0
 62
   136
 10
0.0458502769470215
 20
-0.6762384176254273
 30
-4.9493145942687979
 70
   192
  0
VERTEX
  5
31C
  8
0
 62
   136
 10
-0.0539106726646423
 20
-0.2369652986526489
 30
-4.9493145942687979
 70
   192
  0
VERTEX
  5
31D
  8
0
 62
   136
 10
0.0458500981330872
 20
0.2023078203201294
 30
-4.9493145942687979
 70
   192
  0
VERTEX
  5
31E
  8
0
 62
   136
 10
0.3253738284111023
 20
0.5545774698257447
 30
-4.9493145942687979
 70
   192
  0
VERTEX
  5
31F
  8
0
 62
   136
 10
0.7292976975440979
 20
0.7500725984573365
 30
-4.9493145942687979
 70
   192
  0
VERTEX
  5
320
  8
0
 62
   136
 10
1.1776193380355831
 20
0.7500725984573365
 30
-4.9493145942687979
 70
   192
  0
VERTEX
  5
321
  8
0
 62
   136
 10
1.5815432071685791
 20
0.5545774698257447
 30
-4.9493145942687979
 70
   192
  0
VERTEX
  5
322
  8
0
 62
   136
 10
1.8610670566558829
 20
0.2023075819015503
 30
-4.9493145942687979
 70
   192
  0
VERTEX
  5
323
  8
0
 62
   136
 10
1.9608277082443231
 20
-0.2369651794433594
 30
-5.301278591156005
 70
   192
  0
VERTEX
  5
324
  8
0
 62
   136
 10
1.861066818237304
 20
-0.6762382984161377
 30
-5.301278591156005
 70
   192
  0
VERTEX
  5
325
  8
0
 62
   136
 10
1.58154296875
 20
-1.028507947921752
 30
-5.301278591156005
 70
   192
  0
VERTEX
  5
326
  8
0
 62
   136
 10
1.1776192188262931
 20
-1.2240030765533441
 30
-5.301278591156005
 70
   192
  0
VERTEX
  5
327
  8
0
 62
   136
 10
0.7292977571487427
 20
-1.2240030765533441
 30
-5.301278591156005
 70
   192
  0
VERTEX
  5
328
  8
0
 62
   136
 10
0.3253740668296814
 20
-1.028507947921752
 30
-5.301278591156005
 70
   192
  0
VERTEX
  5
329
  8
0
 62
   136
 10
0.0458502769470215
 20
-0.6762384176254273
 30
-5.301278591156005
 70
   192
  0
VERTEX
  5
32A
  8
0
 62
   136
 10
-0.0539106726646423
 20
-0.2369652986526489
 30
-5.301278591156005
 70
   192
  0
VERTEX
  5
32B
  8
0
 62
   136
 10
0.0458500981330872
 20
0.2023078203201294
 30
-5.301278591156005
 70
   192
  0
VERTEX
  5
32C
  8
0
 62
   136
 10
0.3253738284111023
 20
0.5545774698257447
 30
-5.301278591156005
 70
   192
  0
VERTEX
  5
32D
  8
0
 62
   136
 10
0.7292976975440979
 20
0.7500725984573365
 30
-5.301278591156005
 70
   192
  0
VERTEX
  5
32E
  8
0
 62
   136
 10
1.1776193380355831
 20
0.7500725984573365
 30
-5.301278591156005
 70
   192
  0
VERTEX
  5
32F
  8
0
 62
   136
 10
1.5815432071685791
 20
0.5545774698257447
 30
-5.301278591156005
 70
   192
  0
VERTEX
  5
330
  8
0
 62
   136
 10
1.8610670566558829
 20
0.2023075819015503
 30
-5.301278591156005
 70
   192
  0
VERTEX
  5
331
  8
0
 62
   136
 10
0.9534584879875183
 20
-0.2369651794433594
 30
-5.301278591156005
 70
   192
  0
VERTEX
  5
332
  8
0
 62
   136
 10
0.9535037875175476
 20
-0.2369651794433594
 30
-4.9475984573364249
 70
   192
  0
VERTEX
  5
333
  8
0
 62
   136
 10
1.592070817947387
 20
-0.2369651794433594
 30
-4.9475984573364249
 70
   192
  0
VERTEX
  5
334
  8
0
 62
   136
 10
1.528832674026489
 20
-0.5154184103012085
 30
-4.9475984573364249
 70
   192
  0
VERTEX
  5
335
  8
0
 62
   136
 10
1.351643800735473
 20
-0.7387206554412842
 30
-4.9475984573364249
 70
   192
  0
VERTEX
  5
336
  8
0
 62
   136
 10
1.0955982208251951
 20
-0.862644076347351
 30
-4.9475984573364249
 70
   192
  0
VERTEX
  5
337
  8
0
 62
   136
 10
0.8114092350006104
 20
-0.862644076347351
 30
-4.9475984573364249
 70
   192
  0
VERTEX
  5
338
  8
0
 62
   136
 10
0.5553637742996216
 20
-0.7387207746505738
 30
-4.9475984573364249
 70
   192
  0
VERTEX
  5
339
  8
0
 62
   136
 10
0.378174901008606
 20
-0.5154185295104981
 30
-4.9475984573364249
 70
   192
  0
VERTEX
  5
33A
  8
0
 62
   136
 10
0.3149368166923523
 20
-0.2369652986526489
 30
-4.9475984573364249
 70
   192
  0
VERTEX
  5
33B
  8
0
 62
   136
 10
0.3781747817993164
 20
0.0414880514144898
 30
-4.9475984573364249
 70
   192
  0
VERTEX
  5
33C
  8
0
 62
   136
 10
0.5553636550903321
 20
0.2647902965545654
 30
-4.9475984573364249
 70
   192
  0
VERTEX
  5
33D
  8
0
 62
   136
 10
0.8114092350006104
 20
0.3887137770652771
 30
-4.9475984573364249
 70
   192
  0
VERTEX
  5
33E
  8
0
 62
   136
 10
1.095598340034484
 20
0.3887137770652771
 30
-4.9475984573364249
 70
   192
  0
VERTEX
  5
33F
  8
0
 62
   136
 10
1.351643919944763
 20
0.2647902369499206
 30
-4.9475984573364249
 70
   192
  0
VERTEX
  5
340
  8
0
 62
   136
 10
1.5288329124450679
 20
0.0414878726005554
 30
-4.9475984573364249
 70
   192
  0
VERTEX
  5
341
  8
0
 62
   136
 10
1.592070817947387
 20
-0.2369651794433594
 30
-5.2655010223388672
 70
   192
  0
VERTEX
  5
342
  8
0
 62
   136
 10
1.528832674026489
 20
-0.5154184103012085
 30
-5.2655010223388672
 70
   192
  0
VERTEX
  5
343
  8
0
 62
   136
 10
1.351643800735473
 20
-0.7387206554412842
 30
-5.2655010223388672
 70
   192
  0
VERTEX
  5
344
  8
0
 62
   136
 10
1.0955982208251951
 20
-0.862644076347351
 30
-5.2655010223388672
 70
   192
  0
VERTEX
  5
345
  8
0
 62
   136
 10
0.8114092350006104
 20
-0.862644076347351
 30
-5.2655010223388672
 70
   192
  0
VERTEX
  5
346
  8
0
 62
   136
 10
0.5553637742996216
 20
-0.7387207746505738
 30
-5.2655010223388672
 70
   192
  0
VERTEX
  5
347
  8
0
 62
   136
 10
0.378174901008606
 20
-0.5154185295104981
 30
-5.2655010223388672
 70
   192
  0
VERTEX
  5
348
  8
0
 62
   136
 10
0.3149368166923523
 20
-0.2369652986526489
 30
-5.2655010223388672
 70
   192
  0
VERTEX
  5
349
  8
0
 62
   136
 10
0.3781747817993164
 20
0.0414880514144898
 30
-5.2655010223388672
 70
   192
  0
VERTEX
  5
34A
  8
0
 62
   136
 10
0.5553636550903321
 20
0.2647902965545654
 30
-5.2655010223388672
 70
   192
  0
VERTEX
  5
34B
  8
0
 62
   136
 10
0.8114092350006104
 20
0.3887137770652771
 30
-5.2655010223388672
 70
   192
  0
VERTEX
  5
34C
  8
0
 62
   136
 10
1.095598340034484
 20
0.3887137770652771
 30
-5.2655010223388672
 70
   192
  0
VERTEX
  5
34D
  8
0
 62
   136
 10
1.351643919944763
 20
0.2647902369499206
 30
-5.2655010223388672
 70
   192
  0
VERTEX
  5
34E
  8
0
 62
   136
 10
1.5288329124450679
 20
0.0414878726005554
 30
-5.2655010223388672
 70
   192
  0
VERTEX
  5
34F
  8
0
 62
   136
 10
0.9535037875175476
 20
-0.2369651794433594
 30
-5.2655010223388672
 70
   192
  0
VERTEX
  5
350
  8
0
 62
   136
 10
0.0
 20
0.0
 30
0.0
 70
   128
 71
     8
 72
   315
 73
  -333
 74
    -8
  0
VERTEX
  5
351
  8
0
 62
   136
 10
0.0
 20
0.0
 30
0.0
 70
   128
 71
    -8
 72
   333
 73
    -9
 74
    -8
  0
VERTEX
  5
352
  8
0
 62
   136
 10
0.0
 20
0.0
 30
0.0
 70
   128
 71
     1
 72
    -8
 73
    -9
 74
    -1
  0
VERTEX
  5
353
  8
0
 62
   136
 10
0.0
 20
0.0
 30
0.0
 70
   128
 71
    -1
 72
     9
 73
     2
 74
    -1
  0
VERTEX
  5
354
  8
0
 62
   136
 10
0.0
 20
0.0
 30
0.0
 70
   128
 71
    10
 72
     3
 73
    -2
 74
   -10
  0
VERTEX
  5
355
  8
0
 62
   136
 10
0.0
 20
0.0
 30
0.0
 70
   128
 71
     2
 72
     9
 73
   -10
 74
    -2
  0
VERTEX
  5
356
  8
0
 62
   136
 10
0.0
 20
0.0
 30
0.0
 70
   128
 71
    11
 72
     4
 73
    -3
 74
   -11
  0
VERTEX
  5
357
  8
0
 62
   136
 10
0.0
 20
0.0
 30
0.0
 70
   128
 71
     3
 72
    10
 73
   -11
 74
    -3
  0
VERTEX
  5
358
  8
0
 62
   136
 10
0.0
 20
0.0
 30
0.0
 70
   128
 71
    12
 72
     5
 73
    -4
 74
   -12
  0
VERTEX
  5
359
  8
0
 62
   136
 10
0.0
 20
0.0
 30
0.0
 70
   128
 71
     4
 72
    11
 73
   -12
 74
    -4
  0
VERTEX
  5
35A
  8
0
 62
   136
 10
0.0
 20
0.0
 30
0.0
 70
   128
 71
    13
 72
     6
 73
    -5
 74
   -13
  0
VERTEX
  5
35B
  8
0
 62
   136
 10
0.0
 20
0.0
 30
0.0
 70
   128
 71
     5
 72
    12
 73
   -13
 74
    -5
  0
VERTEX
  5
35C
  8
0
 62
   136
 10
0.0
 20
0.0
 30
0.0
 70
   128
 71
     6
 72
    13
 73
  -321
 74
    -6
  0
VERTEX
  5
35D
  8
0
 62
   136
 10
0.0
 20
0.0
 30
0.0
 70
   128
 71
    -6
 72
   321
 73
   -14
 74
    -6
  0
VERTEX
  5
35E
  8
0
 62
   136
 10
0.0
 20
0.0
 30
0.0
 70
   128
 71
    -6
 72
    14
 73
     7
 74
    -6
  0
VERTEX
  5
35F
  8
0
 62
   136
 10
0.0
 20
0.0
 30
0.0
 70
   128
 71
    16
 72
   315
 73
    -8
 74
   -16
  0
VERTEX
  5
360
  8
0
 62
   136
 10
0.0
 20
0.0
 30
0.0
 70
   128
 71
     8
 72
    15
 73
   -16
 74
    -8
  0
VERTEX
  5
361
  8
0
 62
   136
 10
0.0
 20
0.0
 30
0.0
 70
   128
 71
    17
 72
   302
 73
  -301
 74
   -17
  0
VERTEX
  5
362
  8
0
 62
   136
 10
0.0
 20
0.0
 30
0.0
 70
   128
 71
   301
 72
   306
 73
   -17
 74
  -301
  0
VERTEX
  5
363
  8
0
 62
   136
 10
0.0
 20
0.0
 30
0.0
 70
   128
 71
    18
 72
   303
 73
  -302
 74
   -18
  0
VERTEX
  5
364
  8
0
 62
   136
 10
0.0
 20
0.0
 30
0.0
 70
   128
 71
   302
 72
    17
 73
   -18
 74
  -302
  0
VERTEX
  5
365
  8
0
 62
   136
 10
0.0
 20
0.0
 30
0.0
 70
   128
 71
    19
 72
   304
 73
  -303
 74
   -19
  0
VERTEX
  5
366
  8
0
 62
   136
 10
0.0
 20
0.0
 30
0.0
 70
   128
 71
   303
 72
    18
 73
   -19
 74
  -303
  0
VERTEX
  5
367
  8
0
 62
   136
 10
0.0
 20
0.0
 30
0.0
 70
   128
 71
   307
 72
   305
 73
  -304
 74
  -307
  0
VERTEX
  5
368
  8
0
 62
   136
 10
0.0
 20
0.0
 30
0.0
 70
   128
 71
   304
 72
    19
 73
  -307
 74
  -304
  0
VERTEX
  5
369
  8
0
 62
   136
 10
0.0
 20
0.0
 30
0.0
 70
   128
 71
    21
 72
    14
 73
  -321
 74
   -21
  0
VERTEX
  5
36A
  8
0
 62
   136
 10
0.0
 20
0.0
 30
0.0
 70
   128
 71
   321
 72
   323
 73
   -21
 74
  -321
  0
VERTEX
  5
36B
  8
0
 62
   136
 10
0.0
 20
0.0
 30
0.0
 70
   128
 71
    23
 72
    16
 73
   -15
 74
   -23
  0
VERTEX
  5
36C
  8
0
 62
   136
 10
0.0
 20
0.0
 30
0.0
 70
   128
 71
    15
 72
    22
 73
   -23
 74
   -15
  0
VERTEX
  5
36D
  8
0
 62
   136
 10
0.0
 20
0.0
 30
0.0
 70
   128
 71
    24
 72
    17
 73
  -306
 74
   -24
  0
VERTEX
  5
36E
  8
0
 62
   136
 10
0.0
 20
0.0
 30
0.0
 70
   128
 71
   306
 72
   308
 73
   -24
 74
  -306
  0
VERTEX
  5
36F
  8
0
 62
   136
 10
0.0
 20
0.0
 30
0.0
 70
   128
 71
    25
 72
    18
 73
   -17
 74
   -25
  0
VERTEX
  5
370
  8
0
 62
   136
 10
0.0
 20
0.0
 30
0.0
 70
   128
 71
    17
 72
    24
 73
   -25
 74
   -17
  0
VERTEX
  5
371
  8
0
 62
   136
 10
0.0
 20
0.0
 30
0.0
 70
   128
 71
    26
 72
    19
 73
   -18
 74
   -26
  0
VERTEX
  5
372
  8
0
 62
   136
 10
0.0
 20
0.0
 30
0.0
 70
   128
 71
    18
 72
    25
 73
   -26
 74
   -18
  0
VERTEX
  5
373
  8
0
 62
   136
 10
0.0
 20
0.0
 30
0.0
 70
   128
 71
   309
 72
   307
 73
   -19
 74
  -309
  0
VERTEX
  5
374
  8
0
 62
   136
 10
0.0
 20
0.0
 30
0.0
 70
   128
 71
    19
 72
    26
 73
  -309
 74
   -19
  0
VERTEX
  5
375
  8
0
 62
   136
 10
0.0
 20
0.0
 30
0.0
 70
   128
 71
    28
 72
    21
 73
  -323
 74
   -28
  0
VERTEX
  5
376
  8
0
 62
   136
 10
0.0
 20
0.0
 30
0.0
 70
   128
 71
   323
 72
   325
 73
   -28
 74
  -323
  0
VERTEX
  5
377
  8
0
 62
   136
 10
0.0
 20
0.0
 30
0.0
 70
   128
 71
    30
 72
    23
 73
   -22
 74
   -30
  0
VERTEX
  5
378
  8
0
 62
   136
 10
0.0
 20
0.0
 30
0.0
 70
   128
 71
    22
 72
    29
 73
   -30
 74
   -22
  0
VERTEX
  5
379
  8
0
 62
   136
 10
0.0
 20
0.0
 30
0.0
 70
   128
 71
   311
 72
    24
 73
  -308
 74
  -311
  0
VERTEX
  5
37A
  8
0
 62
   136
 10
0.0
 20
0.0
 30
0.0
 70
   128
 71
   308
 72
   310
 73
  -311
 74
  -308
  0
VERTEX
  5
37B
  8
0
 62
   136
 10
0.0
 20
0.0
 30
0.0
 70
   128
 71
   312
 72
    25
 73
   -24
 74
  -312
  0
VERTEX
  5
37C
  8
0
 62
   136
 10
0.0
 20
0.0
 30
0.0
 70
   128
 71
    24
 72
   311
 73
  -312
 74
   -24
  0
VERTEX
  5
37D
  8
0
 62
   136
 10
0.0
 20
0.0
 30
0.0
 70
   128
 71
   313
 72
    26
 73
   -25
 74
  -313
  0
VERTEX
  5
37E
  8
0
 62
   136
 10
0.0
 20
0.0
 30
0.0
 70
   128
 71
    25
 72
   312
 73
  -313
 74
   -25
  0
VERTEX
  5
37F
  8
0
 62
   136
 10
0.0
 20
0.0
 30
0.0
 70
   128
 71
   314
 72
   309
 73
   -26
 74
  -314
  0
VERTEX
  5
380
  8
0
 62
   136
 10
0.0
 20
0.0
 30
0.0
 70
   128
 71
    26
 72
   313
 73
  -314
 74
   -26
  0
VERTEX
  5
381
  8
0
 62
   136
 10
0.0
 20
0.0
 30
0.0
 70
   128
 71
    35
 72
    28
 73
  -325
 74
   -35
  0
VERTEX
  5
382
  8
0
 62
   136
 10
0.0
 20
0.0
 30
0.0
 70
   128
 71
   325
 72
   332
 73
   -35
 74
  -325
  0
VERTEX
  5
383
  8
0
 62
   136
 10
0.0
 20
0.0
 30
0.0
 70
   128
 71
    29
 72
    36
 73
   -37
 74
   -29
  0
VERTEX
  5
384
  8
0
 62
   136
 10
0.0
 20
0.0
 30
0.0
 70
   128
 71
    37
 72
   326
 73
  -345
 74
   -37
  0
VERTEX
  5
385
  8
0
 62
   136
 10
0.0
 20
0.0
 30
0.0
 70
   128
 71
   -37
 72
   345
 73
   -30
 74
   -37
  0
VERTEX
  5
386
  8
0
 62
   136
 10
0.0
 20
0.0
 30
0.0
 70
   128
 71
   -29
 72
   -37
 73
    30
 74
   -29
  0
VERTEX
  5
387
  8
0
 62
   136
 10
0.0
 20
0.0
 30
0.0
 70
   128
 71
    38
 72
    31
 73
  -326
 74
   -38
  0
VERTEX
  5
388
  8
0
 62
   136
 10
0.0
 20
0.0
 30
0.0
 70
   128
 71
   326
 72
    37
 73
   -38
 74
  -326
  0
VERTEX
  5
389
  8
0
 62
   136
 10
0.0
 20
0.0
 30
0.0
 70
   128
 71
    39
 72
    32
 73
   -31
 74
   -39
  0
VERTEX
  5
38A
  8
0
 62
   136
 10
0.0
 20
0.0
 30
0.0
 70
   128
 71
    31
 72
    38
 73
   -39
 74
   -31
  0
VERTEX
  5
38B
  8
0
 62
   136
 10
0.0
 20
0.0
 30
0.0
 70
   128
 71
    40
 72
    33
 73
   -32
 74
   -40
  0
VERTEX
  5
38C
  8
0
 62
   136
 10
0.0
 20
0.0
 30
0.0
 70
   128
 71
    32
 72
    39
 73
   -40
 74
   -32
  0
VERTEX
  5
38D
  8
0
 62
   136
 10
0.0
 20
0.0
 30
0.0
 70
   128
 71
    41
 72
   331
 73
   -33
 74
   -41
  0
VERTEX
  5
38E
  8
0
 62
   136
 10
0.0
 20
0.0
 30
0.0
 70
   128
 71
    33
 72
    40
 73
   -41
 74
   -33
  0
VERTEX
  5
38F
  8
0
 62
   136
 10
0.0
 20
0.0
 30
0.0
 70
   128
 71
   331
 72
    41
 73
   -42
 74
  -331
  0
VERTEX
  5
390
  8
0
 62
   136
 10
0.0
 20
0.0
 30
0.0
 70
   128
 71
  -331
 72
    42
 73
   -35
 74
  -331
  0
VERTEX
  5
391
  8
0
 62
   136
 10
0.0
 20
0.0
 30
0.0
 70
   128
 71
   352
 72
  -331
 73
   -35
 74
  -352
  0
VERTEX
  5
392
  8
0
 62
   136
 10
0.0
 20
0.0
 30
0.0
 70
   128
 71
   332
 72
  -352
 73
    35
 74
  -332
  0
VERTEX
  5
393
  8
0
 62
   136
 10
0.0
 20
0.0
 30
0.0
 70
   128
 71
     1
 72
    43
 73
    44
 74
    -1
  0
VERTEX
  5
394
  8
0
 62
   136
 10
0.0
 20
0.0
 30
0.0
 70
   128
 71
    45
 72
     8
 73
    -1
 74
   -45
  0
VERTEX
  5
395
  8
0
 62
   136
 10
0.0
 20
0.0
 30
0.0
 70
   128
 71
     1
 72
    44
 73
   -45
 74
    -1
  0
VERTEX
  5
396
  8
0
 62
   136
 10
0.0
 20
0.0
 30
0.0
 70
   128
 71
    46
 72
    15
 73
    -8
 74
   -46
  0
VERTEX
  5
397
  8
0
 62
   136
 10
0.0
 20
0.0
 30
0.0
 70
   128
 71
     8
 72
    45
 73
   -46
 74
    -8
  0
VERTEX
  5
398
  8
0
 62
   136
 10
0.0
 20
0.0
 30
0.0
 70
   128
 71
    47
 72
    22
 73
   -15
 74
   -47
  0
VERTEX
  5
399
  8
0
 62
   136
 10
0.0
 20
0.0
 30
0.0
 70
   128
 71
    15
 72
    46
 73
   -47
 74
   -15
  0
VERTEX
  5
39A
  8
0
 62
   136
 10
0.0
 20
0.0
 30
0.0
 70
   128
 71
    48
 72
    29
 73
   -22
 74
   -48
  0
VERTEX
  5
39B
  8
0
 62
   136
 10
0.0
 20
0.0
 30
0.0
 70
   128
 71
    22
 72
    47
 73
   -48
 74
   -22
  0
VERTEX
  5
39C
  8
0
 62
   136
 10
0.0
 20
0.0
 30
0.0
 70
   128
 71
    49
 72
    36
 73
   -29
 74
   -49
  0
VERTEX
  5
39D
  8
0
 62
   136
 10
0.0
 20
0.0
 30
0.0
 70
   128
 71
    29
 72
    48
 73
   -49
 74
   -29
  0
VERTEX
  5
39E
  8
0
 62
   136
 10
0.0
 20
0.0
 30
0.0
 70
   128
 71
    36
 72
    49
 73
    50
 74
   -36
  0
VERTEX
  5
39F
  8
0
 62
   136
 10
0.0
 20
0.0
 30
0.0
 70
   128
 71
    51
 72
    37
 73
   -36
 74
   -51
  0
VERTEX
  5
3A0
  8
0
 62
   136
 10
0.0
 20
0.0
 30
0.0
 70
   128
 71
    36
 72
    50
 73
   -51
 74
   -36
  0
VERTEX
  5
3A1
  8
0
 62
   136
 10
0.0
 20
0.0
 30
0.0
 70
   128
 71
    52
 72
    38
 73
   -37
 74
   -52
  0
VERTEX
  5
3A2
  8
0
 62
   136
 10
0.0
 20
0.0
 30
0.0
 70
   128
 71
    37
 72
    51
 73
   -52
 74
   -37
  0
VERTEX
  5
3A3
  8
0
 62
   136
 10
0.0
 20
0.0
 30
0.0
 70
   128
 71
    53
 72
    39
 73
   -38
 74
   -53
  0
VERTEX
  5
3A4
  8
0
 62
   136
 10
0.0
 20
0.0
 30
0.0
 70
   128
 71
    38
 72
    52
 73
   -53
 74
   -38
  0
VERTEX
  5
3A5
  8
0
 62
   136
 10
0.0
 20
0.0
 30
0.0
 70
   128
 71
    54
 72
    40
 73
   -39
 74
   -54
  0
VERTEX
  5
3A6
  8
0
 62
   136
 10
0.0
 20
0.0
 30
0.0
 70
   128
 71
    39
 72
    53
 73
   -54
 74
   -39
  0
VERTEX
  5
3A7
  8
0
 62
   136
 10
0.0
 20
0.0
 30
0.0
 70
   128
 71
    55
 72
    41
 73
   -40
 74
   -55
  0
VERTEX
  5
3A8
  8
0
 62
   136
 10
0.0
 20
0.0
 30
0.0
 70
   128
 71
    40
 72
    54
 73
   -55
 74
   -40
  0
VERTEX
  5
3A9
  8
0
 62
   136
 10
0.0
 20
0.0
 30
0.0
 70
   128
 71
    56
 72
    42
 73
   -41
 74
   -56
  0
VERTEX
  5
3AA
  8
0
 62
   136
 10
0.0
 20
0.0
 30
0.0
 70
   128
 71
    41
 72
    55
 73
   -56
 74
   -41
  0
VERTEX
  5
3AB
  8
0
 62
   136
 10
0.0
 20
0.0
 30
0.0
 70
   128
 71
    42
 72
    56
 73
    57
 74
   -42
  0
VERTEX
  5
3AC
  8
0
 62
   136
 10
0.0
 20
0.0
 30
0.0
 70
   128
 71
    58
 72
    35
 73
   -42
 74
   -58
  0
VERTEX
  5
3AD
  8
0
 62
   136
 10
0.0
 20
0.0
 30
0.0
 70
   128
 71
    42
 72
    57
 73
   -58
 74
   -42
  0
VERTEX
  5
3AE
  8
0
 62
   136
 10
0.0
 20
0.0
 30
0.0
 70
   128
 71
    59
 72
    28
 73
   -35
 74
   -59
  0
VERTEX
  5
3AF
  8
0
 62
   136
 10
0.0
 20
0.0
 30
0.0
 70
   128
 71
    35
 72
    58
 73
   -59
 74
   -35
  0
VERTEX
  5
3B0
  8
0
 62
   136
 10
0.0
 20
0.0
 30
0.0
 70
   128
 71
    60
 72
    21
 73
   -28
 74
   -60
  0
VERTEX
  5
3B1
  8
0
 62
   136
 10
0.0
 20
0.0
 30
0.0
 70
   128
 71
    28
 72
    59
 73
   -60
 74
   -28
  0
VERTEX
  5
3B2
  8
0
 62
   136
 10
0.0
 20
0.0
 30
0.0
 70
   128
 71
    61
 72
    14
 73
   -21
 74
   -61
  0
VERTEX
  5
3B3
  8
0
 62
   136
 10
0.0
 20
0.0
 30
0.0
 70
   128
 71
    21
 72
    60
 73
   -61
 74
   -21
  0
VERTEX
  5
3B4
  8
0
 62
   136
 10
0.0
 20
0.0
 30
0.0
 70
   128
 71
    62
 72
     7
 73
   -14
 74
   -62
  0
VERTEX
  5
3B5
  8
0
 62
   136
 10
0.0
 20
0.0
 30
0.0
 70
   128
 71
    14
 72
    61
 73
   -62
 74
   -14
  0
VERTEX
  5
3B6
  8
0
 62
   136
 10
0.0
 20
0.0
 30
0.0
 70
   128
 71
     7
 72
    62
 73
    63
 74
    -7
  0
VERTEX
  5
3B7
  8
0
 62
   136
 10
0.0
 20
0.0
 30
0.0
 70
   128
 71
    64
 72
     6
 73
    -7
 74
   -64
  0
VERTEX
  5
3B8
  8
0
 62
   136
 10
0.0
 20
0.0
 30
0.0
 70
   128
 71
     7
 72
    63
 73
   -64
 74
    -7
  0
VERTEX
  5
3B9
  8
0
 62
   136
 10
0.0
 20
0.0
 30
0.0
 70
   128
 71
    65
 72
     5
 73
    -6
 74
   -65
  0
VERTEX
  5
3BA
  8
0
 62
   136
 10
0.0
 20
0.0
 30
0.0
 70
   128
 71
     6
 72
    64
 73
   -65
 74
    -6
  0
VERTEX
  5
3BB
  8
0
 62
   136
 10
0.0
 20
0.0
 30
0.0
 70
   128
 71
    66
 72
     4
 73
    -5
 74
   -66
  0
VERTEX
  5
3BC
  8
0
 62
   136
 10
0.0
 20
0.0
 30
0.0
 70
   128
 71
     5
 72
    65
 73
   -66
 74
    -5
  0
VERTEX
  5
3BD
  8
0
 62
   136
 10
0.0
 20
0.0
 30
0.0
 70
   128
 71
    67
 72
     3
 73
    -4
 74
   -67
  0
VERTEX
  5
3BE
  8
0
 62
   136
 10
0.0
 20
0.0
 30
0.0
 70
   128
 71
     4
 72
    66
 73
   -67
 74
    -4
  0
VERTEX
  5
3BF
  8
0
 62
   136
 10
0.0
 20
0.0
 30
0.0
 70
   128
 71
    68
 72
     2
 73
    -3
 74
   -68
  0
VERTEX
  5
3C0
  8
0
 62
   136
 10
0.0
 20
0.0
 30
0.0
 70
   128
 71
     3
 72
    67
 73
   -68
 74
    -3
  0
VERTEX
  5
3C1
  8
0
 62
   136
 10
0.0
 20
0.0
 30
0.0
 70
   128
 71
    43
 72
     1
 73
    -2
 74
   -43
  0
VERTEX
  5
3C2
  8
0
 62
   136
 10
0.0
 20
0.0
 30
0.0
 70
   128
 71
     2
 72
    68
 73
   -43
 74
    -2
  0
VERTEX
  5
3C3
  8
0
 62
   136
 10
0.0
 20
0.0
 30
0.0
 70
   128
 71
    70
 72
    44
 73
   -43
 74
   -70
  0
VERTEX
  5
3C4
  8
0
 62
   136
 10
0.0
 20
0.0
 30
0.0
 70
   128
 71
    43
 72
    69
 73
   -70
 74
   -43
  0
VERTEX
  5
3C5
  8
0
 62
   136
 10
0.0
 20
0.0
 30
0.0
 70
   128
 71
    71
 72
    45
 73
   -44
 74
   -71
  0
VERTEX
  5
3C6
  8
0
 62
   136
 10
0.0
 20
0.0
 30
0.0
 70
   128
 71
    44
 72
    70
 73
   -71
 74
   -44
  0
VERTEX
  5
3C7
  8
0
 62
   136
 10
0.0
 20
0.0
 30
0.0
 70
   128
 71
    72
 72
    46
 73
   -45
 74
   -72
  0
VERTEX
  5
3C8
  8
0
 62
   136
 10
0.0
 20
0.0
 30
0.0
 70
   128
 71
    45
 72
    71
 73
   -72
 74
   -45
  0
VERTEX
  5
3C9
  8
0
 62
   136
 10
0.0
 20
0.0
 30
0.0
 70
   128
 71
    73
 72
    47
 73
   -46
 74
   -73
  0
VERTEX
  5
3CA
  8
0
 62
   136
 10
0.0
 20
0.0
 30
0.0
 70
   128
 71
    46
 72
    72
 73
   -73
 74
   -46
  0
VERTEX
  5
3CB
  8
0
 62
   136
 10
0.0
 20
0.0
 30
0.0
 70
   128
 71
    74
 72
    48
 73
   -47
 74
   -74
  0
VERTEX
  5
3CC
  8
0
 62
   136
 10
0.0
 20
0.0
 30
0.0
 70
   128
 71
    47
 72
    73
 73
   -74
 74
   -47
  0
VERTEX
  5
3CD
  8
0
 62
   136
 10
0.0
 20
0.0
 30
0.0
 70
   128
 71
    75
 72
    49
 73
   -48
 74
   -75
  0
VERTEX
  5
3CE
  8
0
 62
   136
 10
0.0
 20
0.0
 30
0.0
 70
   128
 71
    48
 72
    74
 73
   -75
 74
   -48
  0
VERTEX
  5
3CF
  8
0
 62
   136
 10
0.0
 20
0.0
 30
0.0
 70
   128
 71
    76
 72
    50
 73
   -49
 74
   -76
  0
VERTEX
  5
3D0
  8
0
 62
   136
 10
0.0
 20
0.0
 30
0.0
 70
   128
 71
    49
 72
    75
 73
   -76
 74
   -49
  0
VERTEX
  5
3D1
  8
0
 62
   136
 10
0.0
 20
0.0
 30
0.0
 70
   128
 71
    77
 72
    51
 73
   -50
 74
   -77
  0
VERTEX
  5
3D2
  8
0
 62
   136
 10
0.0
 20
0.0
 30
0.0
 70
   128
 71
    50
 72
    76
 73
   -77
 74
   -50
  0
VERTEX
  5
3D3
  8
0
 62
   136
 10
0.0
 20
0.0
 30
0.0
 70
   128
 71
    78
 72
    52
 73
   -51
 74
   -78
  0
VERTEX
  5
3D4
  8
0
 62
   136
 10
0.0
 20
0.0
 30
0.0
 70
   128
 71
    51
 72
    77
 73
   -78
 74
   -51
  0
VERTEX
  5
3D5
  8
0
 62
   136
 10
0.0
 20
0.0
 30
0.0
 70
   128
 71
    79
 72
    53
 73
   -52
 74
   -79
  0
VERTEX
  5
3D6
  8
0
 62
   136
 10
0.0
 20
0.0
 30
0.0
 70
   128
 71
    52
 72
    78
 73
   -79
 74
   -52
  0
VERTEX
  5
3D7
  8
0
 62
   136
 10
0.0
 20
0.0
 30
0.0
 70
   128
 71
    80
 72
    54
 73
   -53
 74
   -80
  0
VERTEX
  5
3D8
  8
0
 62
   136
 10
0.0
 20
0.0
 30
0.0
 70
   128
 71
    53
 72
    79
 73
   -80
 74
   -53
  0
VERTEX
  5
3D9
  8
0
 62
   136
 10
0.0
 20
0.0
 30
0.0
 70
   128
 71
    81
 72
    55
 73
   -54
 74
   -81
  0
VERTEX
  5
3DA
  8
0
 62
   136
 10
0.0
 20
0.0
 30
0.0
 70
   128
 71
    54
 72
    80
 73
   -81
 74
   -54
  0
VERTEX
  5
3DB
  8
0
 62
   136
 10
0.0
 20
0.0
 30
0.0
 70
   128
 71
    82
 72
    56
 73
   -55
 74
   -82
  0
VERTEX
  5
3DC
  8
0
 62
   136
 10
0.0
 20
0.0
 30
0.0
 70
   128
 71
    55
 72
    81
 73
   -82
 74
   -55
  0
VERTEX
  5
3DD
  8
0
 62
   136
 10
0.0
 20
0.0
 30
0.0
 70
   128
 71
    83
 72
    57
 73
   -56
 74
   -83
  0
VERTEX
  5
3DE
  8
0
 62
   136
 10
0.0
 20
0.0
 30
0.0
 70
   128
 71
    56
 72
    82
 73
   -83
 74
   -56
  0
VERTEX
  5
3DF
  8
0
 62
   136
 10
0.0
 20
0.0
 30
0.0
 70
   128
 71
    84
 72
    58
 73
   -57
 74
   -84
  0
VERTEX
  5
3E0
  8
0
 62
   136
 10
0.0
 20
0.0
 30
0.0
 70
   128
 71
    57
 72
    83
 73
   -84
 74
   -57
  0
VERTEX
  5
3E1
  8
0
 62
   136
 10
0.0
 20
0.0
 30
0.0
 70
   128
 71
    85
 72
    59
 73
   -58
 74
   -85
  0
VERTEX
  5
3E2
  8
0
 62
   136
 10
0.0
 20
0.0
 30
0.0
 70
   128
 71
    58
 72
    84
 73
   -85
 74
   -58
  0
VERTEX
  5
3E3
  8
0
 62
   136
 10
0.0
 20
0.0
 30
0.0
 70
   128
 71
    86
 72
    60
 73
   -59
 74
   -86
  0
VERTEX
  5
3E4
  8
0
 62
   136
 10
0.0
 20
0.0
 30
0.0
 70
   128
 71
    59
 72
    85
 73
   -86
 74
   -59
  0
VERTEX
  5
3E5
  8
0
 62
   136
 10
0.0
 20
0.0
 30
0.0
 70
   128
 71
    87
 72
    61
 73
   -60
 74
   -87
  0
VERTEX
  5
3E6
  8
0
 62
   136
 10
0.0
 20
0.0
 30
0.0
 70
   128
 71
    60
 72
    86
 73
   -87
 74
   -60
  0
VERTEX
  5
3E7
  8
0
 62
   136
 10
0.0
 20
0.0
 30
0.0
 70
   128
 71
    88
 72
    62
 73
   -61
 74
   -88
  0
VERTEX
  5
3E8
  8
0
 62
   136
 10
0.0
 20
0.0
 30
0.0
 70
   128
 71
    61
 72
    87
 73
   -88
 74
   -61
  0
VERTEX
  5
3E9
  8
0
 62
   136
 10
0.0
 20
0.0
 30
0.0
 70
   128
 71
    89
 72
    63
 73
   -62
 74
   -89
  0
VERTEX
  5
3EA
  8
0
 62
   136
 10
0.0
 20
0.0
 30
0.0
 70
   128
 71
    62
 72
    88
 73
   -89
 74
   -62
  0
VERTEX
  5
3EB
  8
0
 62
   136
 10
0.0
 20
0.0
 30
0.0
 70
   128
 71
    90
 72
    64
 73
   -63
 74
   -90
  0
VERTEX
  5
3EC
  8
0
 62
   136
 10
0.0
 20
0.0
 30
0.0
 70
   128
 71
    63
 72
    89
 73
   -90
 74
   -63
  0
VERTEX
  5
3ED
  8
0
 62
   136
 10
0.0
 20
0.0
 30
0.0
 70
   128
 71
    91
 72
    65
 73
   -64
 74
   -91
  0
VERTEX
  5
3EE
  8
0
 62
   136
 10
0.0
 20
0.0
 30
0.0
 70
   128
 71
    64
 72
    90
 73
   -91
 74
   -64
  0
VERTEX
  5
3EF
  8
0
 62
   136
 10
0.0
 20
0.0
 30
0.0
 70
   128
 71
    92
 72
    66
 73
   -65
 74
   -92
  0
VERTEX
  5
3F0
  8
0
 62
   136
 10
0.0
 20
0.0
 30
0.0
 70
   128
 71
    65
 72
    91
 73
   -92
 74
   -65
  0
VERTEX
  5
3F1
  8
0
 62
   136
 10
0.0
 20
0.0
 30
0.0
 70
   128
 71
    93
 72
    67
 73
   -66
 74
   -93
  0
VERTEX
  5
3F2
  8
0
 62
   136
 10
0.0
 20
0.0
 30
0.0
 70
   128
 71
    66
 72
    92
 73
   -93
 74
   -66
  0
VERTEX
  5
3F3
  8
0
 62
   136
 10
0.0
 20
0.0
 30
0.0
 70
   128
 71
    94
 72
    68
 73
   -67
 74
   -94
  0
VERTEX
  5
3F4
  8
0
 62
   136
 10
0.0
 20
0.0
 30
0.0
 70
   128
 71
    67
 72
    93
 73
   -94
 74
   -67
  0
VERTEX
  5
3F5
  8
0
 62
   136
 10
0.0
 20
0.0
 30
0.0
 70
   128
 71
    69
 72
    43
 73
   -68
 74
   -69
  0
VERTEX
  5
3F6
  8
0
 62
   136
 10
0.0
 20
0.0
 30
0.0
 70
   128
 71
    68
 72
    94
 73
   -69
 74
   -68
  0
VERTEX
  5
3F7
  8
0
 62
   136
 10
0.0
 20
0.0
 30
0.0
 70
   128
 71
    96
 72
    70
 73
   -69
 74
   -96
  0
VERTEX
  5
3F8
  8
0
 62
   136
 10
0.0
 20
0.0
 30
0.0
 70
   128
 71
    69
 72
    95
 73
   -96
 74
   -69
  0
VERTEX
  5
3F9
  8
0
 62
   136
 10
0.0
 20
0.0
 30
0.0
 70
   128
 71
    97
 72
    71
 73
   -70
 74
   -97
  0
VERTEX
  5
3FA
  8
0
 62
   136
 10
0.0
 20
0.0
 30
0.0
 70
   128
 71
    70
 72
    96
 73
   -97
 74
   -70
  0
VERTEX
  5
3FB
  8
0
 62
   136
 10
0.0
 20
0.0
 30
0.0
 70
   128
 71
    98
 72
    72
 73
   -71
 74
   -98
  0
VERTEX
  5
3FC
  8
0
 62
   136
 10
0.0
 20
0.0
 30
0.0
 70
   128
 71
    71
 72
    97
 73
   -98
 74
   -71
  0
VERTEX
  5
3FD
  8
0
 62
   136
 10
0.0
 20
0.0
 30
0.0
 70
   128
 71
    99
 72
    73
 73
   -72
 74
   -99
  0
VERTEX
  5
3FE
  8
0
 62
   136
 10
0.0
 20
0.0
 30
0.0
 70
   128
 71
    72
 72
    98
 73
   -99
 74
   -72
  0
VERTEX
  5
3FF
  8
0
 62
   136
 10
0.0
 20
0.0
 30
0.0
 70
   128
 71
   100
 72
    74
 73
   -73
 74
  -100
  0
VERTEX
  5
400
  8
0
 62
   136
 10
0.0
 20
0.0
 30
0.0
 70
   128
 71
    73
 72
    99
 73
  -100
 74
   -73
  0
VERTEX
  5
401
  8
0
 62
   136
 10
0.0
 20
0.0
 30
0.0
 70
   128
 71
   101
 72
    75
 73
   -74
 74
  -101
  0
VERTEX
  5
402
  8
0
 62
   136
 10
0.0
 20
0.0
 30
0.0
 70
   128
 71
    74
 72
   100
 73
  -101
 74
   -74
  0
VERTEX
  5
403
  8
0
 62
   136
 10
0.0
 20
0.0
 30
0.0
 70
   128
 71
   102
 72
    76
 73
   -75
 74
  -102
  0
VERTEX
  5
404
  8
0
 62
   136
 10
0.0
 20
0.0
 30
0.0
 70
   128
 71
    75
 72
   101
 73
  -102
 74
   -75
  0
VERTEX
  5
405
  8
0
 62
   136
 10
0.0
 20
0.0
 30
0.0
 70
   128
 71
   103
 72
    77
 73
   -76
 74
  -103
  0
VERTEX
  5
406
  8
0
 62
   136
 10
0.0
 20
0.0
 30
0.0
 70
   128
 71
    76
 72
   102
 73
  -103
 74
   -76
  0
VERTEX
  5
407
  8
0
 62
   136
 10
0.0
 20
0.0
 30
0.0
 70
   128
 71
   104
 72
    78
 73
   -77
 74
  -104
  0
VERTEX
  5
408
  8
0
 62
   136
 10
0.0
 20
0.0
 30
0.0
 70
   128
 71
    77
 72
   103
 73
  -104
 74
   -77
  0
VERTEX
  5
409
  8
0
 62
   136
 10
0.0
 20
0.0
 30
0.0
 70
   128
 71
   105
 72
    79
 73
   -78
 74
  -105
  0
VERTEX
  5
40A
  8
0
 62
   136
 10
0.0
 20
0.0
 30
0.0
 70
   128
 71
    78
 72
   104
 73
  -105
 74
   -78
  0
VERTEX
  5
40B
  8
0
 62
   136
 10
0.0
 20
0.0
 30
0.0
 70
   128
 71
   106
 72
    80
 73
   -79
 74
  -106
  0
VERTEX
  5
40C
  8
0
 62
   136
 10
0.0
 20
0.0
 30
0.0
 70
   128
 71
    79
 72
   105
 73
  -106
 74
   -79
  0
VERTEX
  5
40D
  8
0
 62
   136
 10
0.0
 20
0.0
 30
0.0
 70
   128
 71
   107
 72
    81
 73
   -80
 74
  -107
  0
VERTEX
  5
40E
  8
0
 62
   136
 10
0.0
 20
0.0
 30
0.0
 70
   128
 71
    80
 72
   106
 73
  -107
 74
   -80
  0
VERTEX
  5
40F
  8
0
 62
   136
 10
0.0
 20
0.0
 30
0.0
 70
   128
 71
   108
 72
    82
 73
   -81
 74
  -108
  0
VERTEX
  5
410
  8
0
 62
   136
 10
0.0
 20
0.0
 30
0.0
 70
   128
 71
    81
 72
   107
 73
  -108
 74
   -81
  0
VERTEX
  5
411
  8
0
 62
   136
 10
0.0
 20
0.0
 30
0.0
 70
   128
 71
   109
 72
    83
 73
   -82
 74
  -109
  0
VERTEX
  5
412
  8
0
 62
   136
 10
0.0
 20
0.0
 30
0.0
 70
   128
 71
    82
 72
   108
 73
  -109
 74
   -82
  0
VERTEX
  5
413
  8
0
 62
   136
 10
0.0
 20
0.0
 30
0.0
 70
   128
 71
   110
 72
    84
 73
   -83
 74
  -110
  0
VERTEX
  5
414
  8
0
 62
   136
 10
0.0
 20
0.0
 30
0.0
 70
   128
 71
    83
 72
   109
 73
  -110
 74
   -83
  0
VERTEX
  5
415
  8
0
 62
   136
 10
0.0
 20
0.0
 30
0.0
 70
   128
 71
   111
 72
    85
 73
   -84
 74
  -111
  0
VERTEX
  5
416
  8
0
 62
   136
 10
0.0
 20
0.0
 30
0.0
 70
   128
 71
    84
 72
   110
 73
  -111
 74
   -84
  0
VERTEX
  5
417
  8
0
 62
   136
 10
0.0
 20
0.0
 30
0.0
 70
   128
 71
   112
 72
    86
 73
   -85
 74
  -112
  0
VERTEX
  5
418
  8
0
 62
   136
 10
0.0
 20
0.0
 30
0.0
 70
   128
 71
    85
 72
   111
 73
  -112
 74
   -85
  0
VERTEX
  5
419
  8
0
 62
   136
 10
0.0
 20
0.0
 30
0.0
 70
   128
 71
   113
 72
    87
 73
   -86
 74
  -113
  0
VERTEX
  5
41A
  8
0
 62
   136
 10
0.0
 20
0.0
 30
0.0
 70
   128
 71
    86
 72
   112
 73
  -113
 74
   -86
  0
VERTEX
  5
41B
  8
0
 62
   136
 10
0.0
 20
0.0
 30
0.0
 70
   128
 71
   114
 72
    88
 73
   -87
 74
  -114
  0
VERTEX
  5
41C
  8
0
 62
   136
 10
0.0
 20
0.0
 30
0.0
 70
   128
 71
    87
 72
   113
 73
  -114
 74
   -87
  0
VERTEX
  5
41D
  8
0
 62
   136
 10
0.0
 20
0.0
 30
0.0
 70
   128
 71
   115
 72
    89
 73
   -88
 74
  -115
  0
VERTEX
  5
41E
  8
0
 62
   136
 10
0.0
 20
0.0
 30
0.0
 70
   128
 71
    88
 72
   114
 73
  -115
 74
   -88
  0
VERTEX
  5
41F
  8
0
 62
   136
 10
0.0
 20
0.0
 30
0.0
 70
   128
 71
   116
 72
    90
 73
   -89
 74
  -116
  0
VERTEX
  5
420
  8
0
 62
   136
 10
0.0
 20
0.0
 30
0.0
 70
   128
 71
    89
 72
   115
 73
  -116
 74
   -89
  0
VERTEX
  5
421
  8
0
 62
   136
 10
0.0
 20
0.0
 30
0.0
 70
   128
 71
   117
 72
    91
 73
   -90
 74
  -117
  0
VERTEX
  5
422
  8
0
 62
   136
 10
0.0
 20
0.0
 30
0.0
 70
   128
 71
    90
 72
   116
 73
  -117
 74
   -90
  0
VERTEX
  5
423
  8
0
 62
   136
 10
0.0
 20
0.0
 30
0.0
 70
   128
 71
   118
 72
    92
 73
   -91
 74
  -118
  0
VERTEX
  5
424
  8
0
 62
   136
 10
0.0
 20
0.0
 30
0.0
 70
   128
 71
    91
 72
   117
 73
  -118
 74
   -91
  0
VERTEX
  5
425
  8
0
 62
   136
 10
0.0
 20
0.0
 30
0.0
 70
   128
 71
   119
 72
    93
 73
   -92
 74
  -119
  0
VERTEX
  5
426
  8
0
 62
   136
 10
0.0
 20
0.0
 30
0.0
 70
   128
 71
    92
 72
   118
 73
  -119
 74
   -92
  0
VERTEX
  5
427
  8
0
 62
   136
 10
0.0
 20
0.0
 30
0.0
 70
   128
 71
   120
 72
    94
 73
   -93
 74
  -120
  0
VERTEX
  5
428
  8
0
 62
   136
 10
0.0
 20
0.0
 30
0.0
 70
   128
 71
    93
 72
   119
 73
  -120
 74
   -93
  0
VERTEX
  5
429
  8
0
 62
   136
 10
0.0
 20
0.0
 30
0.0
 70
   128
 71
    95
 72
    69
 73
   -94
 74
   -95
  0
VERTEX
  5
42A
  8
0
 62
   136
 10
0.0
 20
0.0
 30
0.0
 70
   128
 71
    94
 72
   120
 73
   -95
 74
   -94
  0
VERTEX
  5
42B
  8
0
 62
   136
 10
0.0
 20
0.0
 30
0.0
 70
   128
 71
   122
 72
    96
 73
   -95
 74
  -122
  0
VERTEX
  5
42C
  8
0
 62
   136
 10
0.0
 20
0.0
 30
0.0
 70
   128
 71
    95
 72
   121
 73
  -122
 74
   -95
  0
VERTEX
  5
42D
  8
0
 62
   136
 10
0.0
 20
0.0
 30
0.0
 70
   128
 71
   123
 72
    97
 73
   -96
 74
  -123
  0
VERTEX
  5
42E
  8
0
 62
   136
 10
0.0
 20
0.0
 30
0.0
 70
   128
 71
    96
 72
   122
 73
  -123
 74
   -96
  0
VERTEX
  5
42F
  8
0
 62
   136
 10
0.0
 20
0.0
 30
0.0
 70
   128
 71
   124
 72
    98
 73
   -97
 74
  -124
  0
VERTEX
  5
430
  8
0
 62
   136
 10
0.0
 20
0.0
 30
0.0
 70
   128
 71
    97
 72
   123
 73
  -124
 74
   -97
  0
VERTEX
  5
431
  8
0
 62
   136
 10
0.0
 20
0.0
 30
0.0
 70
   128
 71
   125
 72
    99
 73
   -98
 74
  -125
  0
VERTEX
  5
432
  8
0
 62
   136
 10
0.0
 20
0.0
 30
0.0
 70
   128
 71
    98
 72
   124
 73
  -125
 74
   -98
  0
VERTEX
  5
433
  8
0
 62
   136
 10
0.0
 20
0.0
 30
0.0
 70
   128
 71
   126
 72
   100
 73
   -99
 74
  -126
  0
VERTEX
  5
434
  8
0
 62
   136
 10
0.0
 20
0.0
 30
0.0
 70
   128
 71
    99
 72
   125
 73
  -126
 74
   -99
  0
VERTEX
  5
435
  8
0
 62
   136
 10
0.0
 20
0.0
 30
0.0
 70
   128
 71
   127
 72
   101
 73
  -100
 74
  -127
  0
VERTEX
  5
436
  8
0
 62
   136
 10
0.0
 20
0.0
 30
0.0
 70
   128
 71
   100
 72
   126
 73
  -127
 74
  -100
  0
VERTEX
  5
437
  8
0
 62
   136
 10
0.0
 20
0.0
 30
0.0
 70
   128
 71
   128
 72
   102
 73
  -101
 74
  -128
  0
VERTEX
  5
438
  8
0
 62
   136
 10
0.0
 20
0.0
 30
0.0
 70
   128
 71
   101
 72
   127
 73
  -128
 74
  -101
  0
VERTEX
  5
439
  8
0
 62
   136
 10
0.0
 20
0.0
 30
0.0
 70
   128
 71
   129
 72
   103
 73
  -102
 74
  -129
  0
VERTEX
  5
43A
  8
0
 62
   136
 10
0.0
 20
0.0
 30
0.0
 70
   128
 71
   102
 72
   128
 73
  -129
 74
  -102
  0
VERTEX
  5
43B
  8
0
 62
   136
 10
0.0
 20
0.0
 30
0.0
 70
   128
 71
   130
 72
   104
 73
  -103
 74
  -130
  0
VERTEX
  5
43C
  8
0
 62
   136
 10
0.0
 20
0.0
 30
0.0
 70
   128
 71
   103
 72
   129
 73
  -130
 74
  -103
  0
VERTEX
  5
43D
  8
0
 62
   136
 10
0.0
 20
0.0
 30
0.0
 70
   128
 71
   131
 72
   105
 73
  -104
 74
  -131
  0
VERTEX
  5
43E
  8
0
 62
   136
 10
0.0
 20
0.0
 30
0.0
 70
   128
 71
   104
 72
   130
 73
  -131
 74
  -104
  0
VERTEX
  5
43F
  8
0
 62
   136
 10
0.0
 20
0.0
 30
0.0
 70
   128
 71
   132
 72
   106
 73
  -105
 74
  -132
  0
VERTEX
  5
440
  8
0
 62
   136
 10
0.0
 20
0.0
 30
0.0
 70
   128
 71
   105
 72
   131
 73
  -132
 74
  -105
  0
VERTEX
  5
441
  8
0
 62
   136
 10
0.0
 20
0.0
 30
0.0
 70
   128
 71
   133
 72
   107
 73
  -106
 74
  -133
  0
VERTEX
  5
442
  8
0
 62
   136
 10
0.0
 20
0.0
 30
0.0
 70
   128
 71
   106
 72
   132
 73
  -133
 74
  -106
  0
VERTEX
  5
443
  8
0
 62
   136
 10
0.0
 20
0.0
 30
0.0
 70
   128
 71
   134
 72
   108
 73
  -107
 74
  -134
  0
VERTEX
  5
444
  8
0
 62
   136
 10
0.0
 20
0.0
 30
0.0
 70
   128
 71
   107
 72
   133
 73
  -134
 74
  -107
  0
VERTEX
  5
445
  8
0
 62
   136
 10
0.0
 20
0.0
 30
0.0
 70
   128
 71
   135
 72
   109
 73
  -108
 74
  -135
  0
VERTEX
  5
446
  8
0
 62
   136
 10
0.0
 20
0.0
 30
0.0
 70
   128
 71
   108
 72
   134
 73
  -135
 74
  -108
  0
VERTEX
  5
447
  8
0
 62
   136
 10
0.0
 20
0.0
 30
0.0
 70
   128
 71
   136
 72
   110
 73
  -109
 74
  -136
  0
VERTEX
  5
448
  8
0
 62
   136
 10
0.0
 20
0.0
 30
0.0
 70
   128
 71
   109
 72
   135
 73
  -136
 74
  -109
  0
VERTEX
  5
449
  8
0
 62
   136
 10
0.0
 20
0.0
 30
0.0
 70
   128
 71
   137
 72
   111
 73
  -110
 74
  -137
  0
VERTEX
  5
44A
  8
0
 62
   136
 10
0.0
 20
0.0
 30
0.0
 70
   128
 71
   110
 72
   136
 73
  -137
 74
  -110
  0
VERTEX
  5
44B
  8
0
 62
   136
 10
0.0
 20
0.0
 30
0.0
 70
   128
 71
   138
 72
   112
 73
  -111
 74
  -138
  0
VERTEX
  5
44C
  8
0
 62
   136
 10
0.0
 20
0.0
 30
0.0
 70
   128
 71
   111
 72
   137
 73
  -138
 74
  -111
  0
VERTEX
  5
44D
  8
0
 62
   136
 10
0.0
 20
0.0
 30
0.0
 70
   128
 71
   139
 72
   113
 73
  -112
 74
  -139
  0
VERTEX
  5
44E
  8
0
 62
   136
 10
0.0
 20
0.0
 30
0.0
 70
   128
 71
   112
 72
   138
 73
  -139
 74
  -112
  0
VERTEX
  5
44F
  8
0
 62
   136
 10
0.0
 20
0.0
 30
0.0
 70
   128
 71
   140
 72
   114
 73
  -113
 74
  -140
  0
VERTEX
  5
450
  8
0
 62
   136
 10
0.0
 20
0.0
 30
0.0
 70
   128
 71
   113
 72
   139
 73
  -140
 74
  -113
  0
VERTEX
  5
451
  8
0
 62
   136
 10
0.0
 20
0.0
 30
0.0
 70
   128
 71
   141
 72
   115
 73
  -114
 74
  -141
  0
VERTEX
  5
452
  8
0
 62
   136
 10
0.0
 20
0.0
 30
0.0
 70
   128
 71
   114
 72
   140
 73
  -141
 74
  -114
  0
VERTEX
  5
453
  8
0
 62
   136
 10
0.0
 20
0.0
 30
0.0
 70
   128
 71
   142
 72
   116
 73
  -115
 74
  -142
  0
VERTEX
  5
454
  8
0
 62
   136
 10
0.0
 20
0.0
 30
0.0
 70
   128
 71
   115
 72
   141
 73
  -142
 74
  -115
  0
VERTEX
  5
455
  8
0
 62
   136
 10
0.0
 20
0.0
 30
0.0
 70
   128
 71
   143
 72
   117
 73
  -116
 74
  -143
  0
VERTEX
  5
456
  8
0
 62
   136
 10
0.0
 20
0.0
 30
0.0
 70
   128
 71
   116
 72
   142
 73
  -143
 74
  -116
  0
VERTEX
  5
457
  8
0
 62
   136
 10
0.0
 20
0.0
 30
0.0
 70
   128
 71
   144
 72
   118
 73
  -117
 74
  -144
  0
VERTEX
  5
458
  8
0
 62
   136
 10
0.0
 20
0.0
 30
0.0
 70
   128
 71
   117
 72
   143
 73
  -144
 74
  -117
  0
VERTEX
  5
459
  8
0
 62
   136
 10
0.0
 20
0.0
 30
0.0
 70
   128
 71
   145
 72
   119
 73
  -118
 74
  -145
  0
VERTEX
  5
45A
  8
0
 62
   136
 10
0.0
 20
0.0
 30
0.0
 70
   128
 71
   118
 72
   144
 73
  -145
 74
  -118
  0
VERTEX
  5
45B
  8
0
 62
   136
 10
0.0
 20
0.0
 30
0.0
 70
   128
 71
   146
 72
   120
 73
  -119
 74
  -146
  0
VERTEX
  5
45C
  8
0
 62
   136
 10
0.0
 20
0.0
 30
0.0
 70
   128
 71
   119
 72
   145
 73
  -146
 74
  -119
  0
VERTEX
  5
45D
  8
0
 62
   136
 10
0.0
 20
0.0
 30
0.0
 70
   128
 71
   121
 72
    95
 73
  -120
 74
  -121
  0
VERTEX
  5
45E
  8
0
 62
   136
 10
0.0
 20
0.0
 30
0.0
 70
   128
 71
   120
 72
   146
 73
  -121
 74
  -120
  0
VERTEX
  5
45F
  8
0
 62
   136
 10
0.0
 20
0.0
 30
0.0
 70
   128
 71
   121
 72
   188
 73
   122
 74
  -121
  0
VERTEX
  5
460
  8
0
 62
   136
 10
0.0
 20
0.0
 30
0.0
 70
   128
 71
   181
 72
   123
 73
  -122
 74
  -181
  0
VERTEX
  5
461
  8
0
 62
   136
 10
0.0
 20
0.0
 30
0.0
 70
   128
 71
   122
 72
   188
 73
  -181
 74
  -122
  0
VERTEX
  5
462
  8
0
 62
   136
 10
0.0
 20
0.0
 30
0.0
 70
   128
 71
   174
 72
   124
 73
  -123
 74
  -174
  0
VERTEX
  5
463
  8
0
 62
   136
 10
0.0
 20
0.0
 30
0.0
 70
   128
 71
   123
 72
   181
 73
  -174
 74
  -123
  0
VERTEX
  5
464
  8
0
 62
   136
 10
0.0
 20
0.0
 30
0.0
 70
   128
 71
   167
 72
   125
 73
  -124
 74
  -167
  0
VERTEX
  5
465
  8
0
 62
   136
 10
0.0
 20
0.0
 30
0.0
 70
   128
 71
   124
 72
   174
 73
  -167
 74
  -124
  0
VERTEX
  5
466
  8
0
 62
   136
 10
0.0
 20
0.0
 30
0.0
 70
   128
 71
   160
 72
   126
 73
  -125
 74
  -160
  0
VERTEX
  5
467
  8
0
 62
   136
 10
0.0
 20
0.0
 30
0.0
 70
   128
 71
   125
 72
   167
 73
  -160
 74
  -125
  0
VERTEX
  5
468
  8
0
 62
   136
 10
0.0
 20
0.0
 30
0.0
 70
   128
 71
   153
 72
   127
 73
  -126
 74
  -153
  0
VERTEX
  5
469
  8
0
 62
   136
 10
0.0
 20
0.0
 30
0.0
 70
   128
 71
   126
 72
   160
 73
  -153
 74
  -126
  0
VERTEX
  5
46A
  8
0
 62
   136
 10
0.0
 20
0.0
 30
0.0
 70
   128
 71
   127
 72
   153
 73
   128
 74
  -127
  0
VERTEX
  5
46B
  8
0
 62
   136
 10
0.0
 20
0.0
 30
0.0
 70
   128
 71
   152
 72
   129
 73
  -128
 74
  -152
  0
VERTEX
  5
46C
  8
0
 62
   136
 10
0.0
 20
0.0
 30
0.0
 70
   128
 71
   128
 72
   153
 73
  -152
 74
  -128
  0
VERTEX
  5
46D
  8
0
 62
   136
 10
0.0
 20
0.0
 30
0.0
 70
   128
 71
   151
 72
   130
 73
  -129
 74
  -151
  0
VERTEX
  5
46E
  8
0
 62
   136
 10
0.0
 20
0.0
 30
0.0
 70
   128
 71
   129
 72
   152
 73
  -151
 74
  -129
  0
VERTEX
  5
46F
  8
0
 62
   136
 10
0.0
 20
0.0
 30
0.0
 70
   128
 71
   150
 72
   131
 73
  -130
 74
  -150
  0
VERTEX
  5
470
  8
0
 62
   136
 10
0.0
 20
0.0
 30
0.0
 70
   128
 71
   130
 72
   151
 73
  -150
 74
  -130
  0
VERTEX
  5
471
  8
0
 62
   136
 10
0.0
 20
0.0
 30
0.0
 70
   128
 71
   149
 72
   132
 73
  -131
 74
  -149
  0
VERTEX
  5
472
  8
0
 62
   136
 10
0.0
 20
0.0
 30
0.0
 70
   128
 71
   131
 72
   150
 73
  -149
 74
  -131
  0
VERTEX
  5
473
  8
0
 62
   136
 10
0.0
 20
0.0
 30
0.0
 70
   128
 71
   148
 72
   133
 73
  -132
 74
  -148
  0
VERTEX
  5
474
  8
0
 62
   136
 10
0.0
 20
0.0
 30
0.0
 70
   128
 71
   132
 72
   149
 73
  -148
 74
  -132
  0
VERTEX
  5
475
  8
0
 62
   136
 10
0.0
 20
0.0
 30
0.0
 70
   128
 71
   147
 72
   134
 73
  -133
 74
  -147
  0
VERTEX
  5
476
  8
0
 62
   136
 10
0.0
 20
0.0
 30
0.0
 70
   128
 71
   133
 72
   148
 73
  -147
 74
  -133
  0
VERTEX
  5
477
  8
0
 62
   136
 10
0.0
 20
0.0
 30
0.0
 70
   128
 71
   134
 72
   147
 73
   135
 74
  -134
  0
VERTEX
  5
478
  8
0
 62
   136
 10
0.0
 20
0.0
 30
0.0
 70
   128
 71
   154
 72
   136
 73
  -135
 74
  -154
  0
VERTEX
  5
479
  8
0
 62
   136
 10
0.0
 20
0.0
 30
0.0
 70
   128
 71
   135
 72
   147
 73
  -154
 74
  -135
  0
VERTEX
  5
47A
  8
0
 62
   136
 10
0.0
 20
0.0
 30
0.0
 70
   128
 71
   161
 72
   137
 73
  -136
 74
  -161
  0
VERTEX
  5
47B
  8
0
 62
   136
 10
0.0
 20
0.0
 30
0.0
 70
   128
 71
   136
 72
   154
 73
  -161
 74
  -136
  0
VERTEX
  5
47C
  8
0
 62
   136
 10
0.0
 20
0.0
 30
0.0
 70
   128
 71
   168
 72
   138
 73
  -137
 74
  -168
  0
VERTEX
  5
47D
  8
0
 62
   136
 10
0.0
 20
0.0
 30
0.0
 70
   128
 71
   137
 72
   161
 73
  -168
 74
  -137
  0
VERTEX
  5
47E
  8
0
 62
   136
 10
0.0
 20
0.0
 30
0.0
 70
   128
 71
   175
 72
   139
 73
  -138
 74
  -175
  0
VERTEX
  5
47F
  8
0
 62
   136
 10
0.0
 20
0.0
 30
0.0
 70
   128
 71
   138
 72
   168
 73
  -175
 74
  -138
  0
VERTEX
  5
480
  8
0
 62
   136
 10
0.0
 20
0.0
 30
0.0
 70
   128
 71
   182
 72
   140
 73
  -139
 74
  -182
  0
VERTEX
  5
481
  8
0
 62
   136
 10
0.0
 20
0.0
 30
0.0
 70
   128
 71
   139
 72
   175
 73
  -182
 74
  -139
  0
VERTEX
  5
482
  8
0
 62
   136
 10
0.0
 20
0.0
 30
0.0
 70
   128
 71
   140
 72
   182
 73
   141
 74
  -140
  0
VERTEX
  5
483
  8
0
 62
   136
 10
0.0
 20
0.0
 30
0.0
 70
   128
 71
   183
 72
   142
 73
  -141
 74
  -183
  0
VERTEX
  5
484
  8
0
 62
   136
 10
0.0
 20
0.0
 30
0.0
 70
   128
 71
   141
 72
   182
 73
  -183
 74
  -141
  0
VERTEX
  5
485
  8
0
 62
   136
 10
0.0
 20
0.0
 30
0.0
 70
   128
 71
   184
 72
   143
 73
  -142
 74
  -184
  0
VERTEX
  5
486
  8
0
 62
   136
 10
0.0
 20
0.0
 30
0.0
 70
   128
 71
   142
 72
   183
 73
  -184
 74
  -142
  0
VERTEX
  5
487
  8
0
 62
   136
 10
0.0
 20
0.0
 30
0.0
 70
   128
 71
   185
 72
   144
 73
  -143
 74
  -185
  0
VERTEX
  5
488
  8
0
 62
   136
 10
0.0
 20
0.0
 30
0.0
 70
   128
 71
   143
 72
   184
 73
  -185
 74
  -143
  0
VERTEX
  5
489
  8
0
 62
   136
 10
0.0
 20
0.0
 30
0.0
 70
   128
 71
   186
 72
   145
 73
  -144
 74
  -186
  0
VERTEX
  5
48A
  8
0
 62
   136
 10
0.0
 20
0.0
 30
0.0
 70
   128
 71
   144
 72
   185
 73
  -186
 74
  -144
  0
VERTEX
  5
48B
  8
0
 62
   136
 10
0.0
 20
0.0
 30
0.0
 70
   128
 71
   187
 72
   146
 73
  -145
 74
  -187
  0
VERTEX
  5
48C
  8
0
 62
   136
 10
0.0
 20
0.0
 30
0.0
 70
   128
 71
   145
 72
   186
 73
  -187
 74
  -145
  0
VERTEX
  5
48D
  8
0
 62
   136
 10
0.0
 20
0.0
 30
0.0
 70
   128
 71
   188
 72
   121
 73
  -146
 74
  -188
  0
VERTEX
  5
48E
  8
0
 62
   136
 10
0.0
 20
0.0
 30
0.0
 70
   128
 71
   146
 72
   187
 73
  -188
 74
  -146
  0
VERTEX
  5
48F
  8
0
 62
   136
 10
0.0
 20
0.0
 30
0.0
 70
   128
 71
   148
 72
   155
 73
  -154
 74
  -148
  0
VERTEX
  5
490
  8
0
 62
   136
 10
0.0
 20
0.0
 30
0.0
 70
   128
 71
   154
 72
   147
 73
  -148
 74
  -154
  0
VERTEX
  5
491
  8
0
 62
   136
 10
0.0
 20
0.0
 30
0.0
 70
   128
 71
   149
 72
   156
 73
  -155
 74
  -149
  0
VERTEX
  5
492
  8
0
 62
   136
 10
0.0
 20
0.0
 30
0.0
 70
   128
 71
   155
 72
   148
 73
  -149
 74
  -155
  0
VERTEX
  5
493
  8
0
 62
   136
 10
0.0
 20
0.0
 30
0.0
 70
   128
 71
   150
 72
   157
 73
  -156
 74
  -150
  0
VERTEX
  5
494
  8
0
 62
   136
 10
0.0
 20
0.0
 30
0.0
 70
   128
 71
   156
 72
   149
 73
  -150
 74
  -156
  0
VERTEX
  5
495
  8
0
 62
   136
 10
0.0
 20
0.0
 30
0.0
 70
   128
 71
   151
 72
   158
 73
  -157
 74
  -151
  0
VERTEX
  5
496
  8
0
 62
   136
 10
0.0
 20
0.0
 30
0.0
 70
   128
 71
   157
 72
   150
 73
  -151
 74
  -157
  0
VERTEX
  5
497
  8
0
 62
   136
 10
0.0
 20
0.0
 30
0.0
 70
   128
 71
   152
 72
   159
 73
  -158
 74
  -152
  0
VERTEX
  5
498
  8
0
 62
   136
 10
0.0
 20
0.0
 30
0.0
 70
   128
 71
   158
 72
   151
 73
  -152
 74
  -158
  0
VERTEX
  5
499
  8
0
 62
   136
 10
0.0
 20
0.0
 30
0.0
 70
   128
 71
   153
 72
   160
 73
  -159
 74
  -153
  0
VERTEX
  5
49A
  8
0
 62
   136
 10
0.0
 20
0.0
 30
0.0
 70
   128
 71
   159
 72
   152
 73
  -153
 74
  -159
  0
VERTEX
  5
49B
  8
0
 62
   136
 10
0.0
 20
0.0
 30
0.0
 70
   128
 71
   155
 72
   162
 73
  -161
 74
  -155
  0
VERTEX
  5
49C
  8
0
 62
   136
 10
0.0
 20
0.0
 30
0.0
 70
   128
 71
   161
 72
   154
 73
  -155
 74
  -161
  0
VERTEX
  5
49D
  8
0
 62
   136
 10
0.0
 20
0.0
 30
0.0
 70
   128
 71
   246
 72
   163
 73
  -250
 74
  -246
  0
VERTEX
  5
49E
  8
0
 62
   136
 10
0.0
 20
0.0
 30
0.0
 70
   128
 71
   250
 72
   245
 73
  -246
 74
  -250
  0
VERTEX
  5
49F
  8
0
 62
   136
 10
0.0
 20
0.0
 30
0.0
 70
   128
 71
   247
 72
   164
 73
  -163
 74
  -247
  0
VERTEX
  5
4A0
  8
0
 62
   136
 10
0.0
 20
0.0
 30
0.0
 70
   128
 71
   163
 72
   246
 73
  -247
 74
  -163
  0
VERTEX
  5
4A1
  8
0
 62
   136
 10
0.0
 20
0.0
 30
0.0
 70
   128
 71
   248
 72
   165
 73
  -164
 74
  -248
  0
VERTEX
  5
4A2
  8
0
 62
   136
 10
0.0
 20
0.0
 30
0.0
 70
   128
 71
   164
 72
   247
 73
  -248
 74
  -164
  0
VERTEX
  5
4A3
  8
0
 62
   136
 10
0.0
 20
0.0
 30
0.0
 70
   128
 71
   249
 72
   251
 73
  -165
 74
  -249
  0
VERTEX
  5
4A4
  8
0
 62
   136
 10
0.0
 20
0.0
 30
0.0
 70
   128
 71
   165
 72
   248
 73
  -249
 74
  -165
  0
VERTEX
  5
4A5
  8
0
 62
   136
 10
0.0
 20
0.0
 30
0.0
 70
   128
 71
   160
 72
   167
 73
  -166
 74
  -160
  0
VERTEX
  5
4A6
  8
0
 62
   136
 10
0.0
 20
0.0
 30
0.0
 70
   128
 71
   166
 72
   159
 73
  -160
 74
  -166
  0
VERTEX
  5
4A7
  8
0
 62
   136
 10
0.0
 20
0.0
 30
0.0
 70
   128
 71
   162
 72
   169
 73
  -168
 74
  -162
  0
VERTEX
  5
4A8
  8
0
 62
   136
 10
0.0
 20
0.0
 30
0.0
 70
   128
 71
   168
 72
   161
 73
  -162
 74
  -168
  0
VERTEX
  5
4A9
  8
0
 62
   136
 10
0.0
 20
0.0
 30
0.0
 70
   128
 71
   163
 72
   170
 73
  -252
 74
  -163
  0
VERTEX
  5
4AA
  8
0
 62
   136
 10
0.0
 20
0.0
 30
0.0
 70
   128
 71
   252
 72
   250
 73
  -163
 74
  -252
  0
VERTEX
  5
4AB
  8
0
 62
   136
 10
0.0
 20
0.0
 30
0.0
 70
   128
 71
   164
 72
   171
 73
  -170
 74
  -164
  0
VERTEX
  5
4AC
  8
0
 62
   136
 10
0.0
 20
0.0
 30
0.0
 70
   128
 71
   170
 72
   163
 73
  -164
 74
  -170
  0
VERTEX
  5
4AD
  8
0
 62
   136
 10
0.0
 20
0.0
 30
0.0
 70
   128
 71
   165
 72
   172
 73
  -171
 74
  -165
  0
VERTEX
  5
4AE
  8
0
 62
   136
 10
0.0
 20
0.0
 30
0.0
 70
   128
 71
   171
 72
   164
 73
  -165
 74
  -171
  0
VERTEX
  5
4AF
  8
0
 62
   136
 10
0.0
 20
0.0
 30
0.0
 70
   128
 71
   251
 72
   253
 73
  -172
 74
  -251
  0
VERTEX
  5
4B0
  8
0
 62
   136
 10
0.0
 20
0.0
 30
0.0
 70
   128
 71
   172
 72
   165
 73
  -251
 74
  -172
  0
VERTEX
  5
4B1
  8
0
 62
   136
 10
0.0
 20
0.0
 30
0.0
 70
   128
 71
   167
 72
   174
 73
  -173
 74
  -167
  0
VERTEX
  5
4B2
  8
0
 62
   136
 10
0.0
 20
0.0
 30
0.0
 70
   128
 71
   173
 72
   166
 73
  -167
 74
  -173
  0
VERTEX
  5
4B3
  8
0
 62
   136
 10
0.0
 20
0.0
 30
0.0
 70
   128
 71
   169
 72
   176
 73
  -175
 74
  -169
  0
VERTEX
  5
4B4
  8
0
 62
   136
 10
0.0
 20
0.0
 30
0.0
 70
   128
 71
   175
 72
   168
 73
  -169
 74
  -175
  0
VERTEX
  5
4B5
  8
0
 62
   136
 10
0.0
 20
0.0
 30
0.0
 70
   128
 71
   170
 72
   255
 73
  -254
 74
  -170
  0
VERTEX
  5
4B6
  8
0
 62
   136
 10
0.0
 20
0.0
 30
0.0
 70
   128
 71
   254
 72
   252
 73
  -170
 74
  -254
  0
VERTEX
  5
4B7
  8
0
 62
   136
 10
0.0
 20
0.0
 30
0.0
 70
   128
 71
   171
 72
   256
 73
  -255
 74
  -171
  0
VERTEX
  5
4B8
  8
0
 62
   136
 10
0.0
 20
0.0
 30
0.0
 70
   128
 71
   255
 72
   170
 73
  -171
 74
  -255
  0
VERTEX
  5
4B9
  8
0
 62
   136
 10
0.0
 20
0.0
 30
0.0
 70
   128
 71
   172
 72
   257
 73
  -256
 74
  -172
  0
VERTEX
  5
4BA
  8
0
 62
   136
 10
0.0
 20
0.0
 30
0.0
 70
   128
 71
   256
 72
   171
 73
  -172
 74
  -256
  0
VERTEX
  5
4BB
  8
0
 62
   136
 10
0.0
 20
0.0
 30
0.0
 70
   128
 71
   253
 72
   258
 73
  -257
 74
  -253
  0
VERTEX
  5
4BC
  8
0
 62
   136
 10
0.0
 20
0.0
 30
0.0
 70
   128
 71
   257
 72
   172
 73
  -253
 74
  -257
  0
VERTEX
  5
4BD
  8
0
 62
   136
 10
0.0
 20
0.0
 30
0.0
 70
   128
 71
   174
 72
   181
 73
  -180
 74
  -174
  0
VERTEX
  5
4BE
  8
0
 62
   136
 10
0.0
 20
0.0
 30
0.0
 70
   128
 71
   180
 72
   173
 73
  -174
 74
  -180
  0
VERTEX
  5
4BF
  8
0
 62
   136
 10
0.0
 20
0.0
 30
0.0
 70
   128
 71
   176
 72
   183
 73
  -182
 74
  -176
  0
VERTEX
  5
4C0
  8
0
 62
   136
 10
0.0
 20
0.0
 30
0.0
 70
   128
 71
   182
 72
   175
 73
  -176
 74
  -182
  0
VERTEX
  5
4C1
  8
0
 62
   136
 10
0.0
 20
0.0
 30
0.0
 70
   128
 71
   177
 72
   184
 73
  -183
 74
  -177
  0
VERTEX
  5
4C2
  8
0
 62
   136
 10
0.0
 20
0.0
 30
0.0
 70
   128
 71
   183
 72
   176
 73
  -177
 74
  -183
  0
VERTEX
  5
4C3
  8
0
 62
   136
 10
0.0
 20
0.0
 30
0.0
 70
   128
 71
   178
 72
   185
 73
  -184
 74
  -178
  0
VERTEX
  5
4C4
  8
0
 62
   136
 10
0.0
 20
0.0
 30
0.0
 70
   128
 71
   184
 72
   177
 73
  -178
 74
  -184
  0
VERTEX
  5
4C5
  8
0
 62
   136
 10
0.0
 20
0.0
 30
0.0
 70
   128
 71
   179
 72
   186
 73
  -185
 74
  -179
  0
VERTEX
  5
4C6
  8
0
 62
   136
 10
0.0
 20
0.0
 30
0.0
 70
   128
 71
   185
 72
   178
 73
  -179
 74
  -185
  0
VERTEX
  5
4C7
  8
0
 62
   136
 10
0.0
 20
0.0
 30
0.0
 70
   128
 71
   180
 72
   187
 73
  -186
 74
  -180
  0
VERTEX
  5
4C8
  8
0
 62
   136
 10
0.0
 20
0.0
 30
0.0
 70
   128
 71
   186
 72
   179
 73
  -180
 74
  -186
  0
VERTEX
  5
4C9
  8
0
 62
   136
 10
0.0
 20
0.0
 30
0.0
 70
   128
 71
   181
 72
   188
 73
  -187
 74
  -181
  0
VERTEX
  5
4CA
  8
0
 62
   136
 10
0.0
 20
0.0
 30
0.0
 70
   128
 71
   187
 72
   180
 73
  -181
 74
  -187
  0
VERTEX
  5
4CB
  8
0
 62
   136
 10
0.0
 20
0.0
 30
0.0
 70
   128
 71
   190
 72
   189
 73
  -155
 74
  -190
  0
VERTEX
  5
4CC
  8
0
 62
   136
 10
0.0
 20
0.0
 30
0.0
 70
   128
 71
   155
 72
   156
 73
  -190
 74
  -155
  0
VERTEX
  5
4CD
  8
0
 62
   136
 10
0.0
 20
0.0
 30
0.0
 70
   128
 71
   191
 72
   190
 73
  -156
 74
  -191
  0
VERTEX
  5
4CE
  8
0
 62
   136
 10
0.0
 20
0.0
 30
0.0
 70
   128
 71
   156
 72
   157
 73
  -191
 74
  -156
  0
VERTEX
  5
4CF
  8
0
 62
   136
 10
0.0
 20
0.0
 30
0.0
 70
   128
 71
   192
 72
   191
 73
  -157
 74
  -192
  0
VERTEX
  5
4D0
  8
0
 62
   136
 10
0.0
 20
0.0
 30
0.0
 70
   128
 71
   157
 72
   158
 73
  -192
 74
  -157
  0
VERTEX
  5
4D1
  8
0
 62
   136
 10
0.0
 20
0.0
 30
0.0
 70
   128
 71
   193
 72
   192
 73
  -158
 74
  -193
  0
VERTEX
  5
4D2
  8
0
 62
   136
 10
0.0
 20
0.0
 30
0.0
 70
   128
 71
   158
 72
   159
 73
  -193
 74
  -158
  0
VERTEX
  5
4D3
  8
0
 62
   136
 10
0.0
 20
0.0
 30
0.0
 70
   128
 71
   189
 72
   194
 73
  -162
 74
  -189
  0
VERTEX
  5
4D4
  8
0
 62
   136
 10
0.0
 20
0.0
 30
0.0
 70
   128
 71
   162
 72
   155
 73
  -189
 74
  -162
  0
VERTEX
  5
4D5
  8
0
 62
   136
 10
0.0
 20
0.0
 30
0.0
 70
   128
 71
   195
 72
   193
 73
  -159
 74
  -195
  0
VERTEX
  5
4D6
  8
0
 62
   136
 10
0.0
 20
0.0
 30
0.0
 70
   128
 71
   159
 72
   166
 73
  -195
 74
  -159
  0
VERTEX
  5
4D7
  8
0
 62
   136
 10
0.0
 20
0.0
 30
0.0
 70
   128
 71
   194
 72
   196
 73
  -169
 74
  -194
  0
VERTEX
  5
4D8
  8
0
 62
   136
 10
0.0
 20
0.0
 30
0.0
 70
   128
 71
   169
 72
   162
 73
  -194
 74
  -169
  0
VERTEX
  5
4D9
  8
0
 62
   136
 10
0.0
 20
0.0
 30
0.0
 70
   128
 71
   197
 72
   195
 73
  -166
 74
  -197
  0
VERTEX
  5
4DA
  8
0
 62
   136
 10
0.0
 20
0.0
 30
0.0
 70
   128
 71
   166
 72
   173
 73
  -197
 74
  -166
  0
VERTEX
  5
4DB
  8
0
 62
   136
 10
0.0
 20
0.0
 30
0.0
 70
   128
 71
   196
 72
   198
 73
  -176
 74
  -196
  0
VERTEX
  5
4DC
  8
0
 62
   136
 10
0.0
 20
0.0
 30
0.0
 70
   128
 71
   176
 72
   169
 73
  -196
 74
  -176
  0
VERTEX
  5
4DD
  8
0
 62
   136
 10
0.0
 20
0.0
 30
0.0
 70
   128
 71
   198
 72
   199
 73
  -177
 74
  -198
  0
VERTEX
  5
4DE
  8
0
 62
   136
 10
0.0
 20
0.0
 30
0.0
 70
   128
 71
   177
 72
   176
 73
  -198
 74
  -177
  0
VERTEX
  5
4DF
  8
0
 62
   136
 10
0.0
 20
0.0
 30
0.0
 70
   128
 71
   199
 72
   200
 73
  -178
 74
  -199
  0
VERTEX
  5
4E0
  8
0
 62
   136
 10
0.0
 20
0.0
 30
0.0
 70
   128
 71
   178
 72
   177
 73
  -199
 74
  -178
  0
VERTEX
  5
4E1
  8
0
 62
   136
 10
0.0
 20
0.0
 30
0.0
 70
   128
 71
   200
 72
   201
 73
  -179
 74
  -200
  0
VERTEX
  5
4E2
  8
0
 62
   136
 10
0.0
 20
0.0
 30
0.0
 70
   128
 71
   179
 72
   178
 73
  -200
 74
  -179
  0
VERTEX
  5
4E3
  8
0
 62
   136
 10
0.0
 20
0.0
 30
0.0
 70
   128
 71
   202
 72
   197
 73
  -173
 74
  -202
  0
VERTEX
  5
4E4
  8
0
 62
   136
 10
0.0
 20
0.0
 30
0.0
 70
   128
 71
   173
 72
   180
 73
  -202
 74
  -173
  0
VERTEX
  5
4E5
  8
0
 62
   136
 10
0.0
 20
0.0
 30
0.0
 70
   128
 71
   201
 72
   202
 73
  -180
 74
  -201
  0
VERTEX
  5
4E6
  8
0
 62
   136
 10
0.0
 20
0.0
 30
0.0
 70
   128
 71
   180
 72
   179
 73
  -201
 74
  -180
  0
VERTEX
  5
4E7
  8
0
 62
   136
 10
0.0
 20
0.0
 30
0.0
 70
   128
 71
   203
 72
   208
 73
  -194
 74
  -203
  0
VERTEX
  5
4E8
  8
0
 62
   136
 10
0.0
 20
0.0
 30
0.0
 70
   128
 71
   194
 72
   189
 73
  -203
 74
  -194
  0
VERTEX
  5
4E9
  8
0
 62
   136
 10
0.0
 20
0.0
 30
0.0
 70
   128
 71
   204
 72
   203
 73
  -189
 74
  -204
  0
VERTEX
  5
4EA
  8
0
 62
   136
 10
0.0
 20
0.0
 30
0.0
 70
   128
 71
   189
 72
   190
 73
  -204
 74
  -189
  0
VERTEX
  5
4EB
  8
0
 62
   136
 10
0.0
 20
0.0
 30
0.0
 70
   128
 71
   205
 72
   204
 73
  -190
 74
  -205
  0
VERTEX
  5
4EC
  8
0
 62
   136
 10
0.0
 20
0.0
 30
0.0
 70
   128
 71
   190
 72
   191
 73
  -205
 74
  -190
  0
VERTEX
  5
4ED
  8
0
 62
   136
 10
0.0
 20
0.0
 30
0.0
 70
   128
 71
   206
 72
   205
 73
  -191
 74
  -206
  0
VERTEX
  5
4EE
  8
0
 62
   136
 10
0.0
 20
0.0
 30
0.0
 70
   128
 71
   191
 72
   192
 73
  -206
 74
  -191
  0
VERTEX
  5
4EF
  8
0
 62
   136
 10
0.0
 20
0.0
 30
0.0
 70
   128
 71
   207
 72
   206
 73
  -192
 74
  -207
  0
VERTEX
  5
4F0
  8
0
 62
   136
 10
0.0
 20
0.0
 30
0.0
 70
   128
 71
   192
 72
   193
 73
  -207
 74
  -192
  0
VERTEX
  5
4F1
  8
0
 62
   136
 10
0.0
 20
0.0
 30
0.0
 70
   128
 71
   209
 72
   207
 73
  -193
 74
  -209
  0
VERTEX
  5
4F2
  8
0
 62
   136
 10
0.0
 20
0.0
 30
0.0
 70
   128
 71
   193
 72
   195
 73
  -209
 74
  -193
  0
VERTEX
  5
4F3
  8
0
 62
   136
 10
0.0
 20
0.0
 30
0.0
 70
   128
 71
   208
 72
   210
 73
  -196
 74
  -208
  0
VERTEX
  5
4F4
  8
0
 62
   136
 10
0.0
 20
0.0
 30
0.0
 70
   128
 71
   196
 72
   194
 73
  -208
 74
  -196
  0
VERTEX
  5
4F5
  8
0
 62
   136
 10
0.0
 20
0.0
 30
0.0
 70
   128
 71
   211
 72
   209
 73
  -195
 74
  -211
  0
VERTEX
  5
4F6
  8
0
 62
   136
 10
0.0
 20
0.0
 30
0.0
 70
   128
 71
   195
 72
   197
 73
  -211
 74
  -195
  0
VERTEX
  5
4F7
  8
0
 62
   136
 10
0.0
 20
0.0
 30
0.0
 70
   128
 71
   210
 72
   212
 73
  -198
 74
  -210
  0
VERTEX
  5
4F8
  8
0
 62
   136
 10
0.0
 20
0.0
 30
0.0
 70
   128
 71
   198
 72
   196
 73
  -210
 74
  -198
  0
VERTEX
  5
4F9
  8
0
 62
   136
 10
0.0
 20
0.0
 30
0.0
 70
   128
 71
   212
 72
   213
 73
  -199
 74
  -212
  0
VERTEX
  5
4FA
  8
0
 62
   136
 10
0.0
 20
0.0
 30
0.0
 70
   128
 71
   199
 72
   198
 73
  -212
 74
  -199
  0
VERTEX
  5
4FB
  8
0
 62
   136
 10
0.0
 20
0.0
 30
0.0
 70
   128
 71
   213
 72
   214
 73
  -200
 74
  -213
  0
VERTEX
  5
4FC
  8
0
 62
   136
 10
0.0
 20
0.0
 30
0.0
 70
   128
 71
   200
 72
   199
 73
  -213
 74
  -200
  0
VERTEX
  5
4FD
  8
0
 62
   136
 10
0.0
 20
0.0
 30
0.0
 70
   128
 71
   214
 72
   215
 73
  -201
 74
  -214
  0
VERTEX
  5
4FE
  8
0
 62
   136
 10
0.0
 20
0.0
 30
0.0
 70
   128
 71
   201
 72
   200
 73
  -214
 74
  -201
  0
VERTEX
  5
4FF
  8
0
 62
   136
 10
0.0
 20
0.0
 30
0.0
 70
   128
 71
   216
 72
   211
 73
  -197
 74
  -216
  0
VERTEX
  5
500
  8
0
 62
   136
 10
0.0
 20
0.0
 30
0.0
 70
   128
 71
   197
 72
   202
 73
  -216
 74
  -197
  0
VERTEX
  5
501
  8
0
 62
   136
 10
0.0
 20
0.0
 30
0.0
 70
   128
 71
   215
 72
   216
 73
  -202
 74
  -215
  0
VERTEX
  5
502
  8
0
 62
   136
 10
0.0
 20
0.0
 30
0.0
 70
   128
 71
   202
 72
   201
 73
  -215
 74
  -202
  0
VERTEX
  5
503
  8
0
 62
   136
 10
0.0
 20
0.0
 30
0.0
 70
   128
 71
   217
 72
   222
 73
  -208
 74
  -217
  0
VERTEX
  5
504
  8
0
 62
   136
 10
0.0
 20
0.0
 30
0.0
 70
   128
 71
   208
 72
   203
 73
  -217
 74
  -208
  0
VERTEX
  5
505
  8
0
 62
   136
 10
0.0
 20
0.0
 30
0.0
 70
   128
 71
   218
 72
   217
 73
  -203
 74
  -218
  0
VERTEX
  5
506
  8
0
 62
   136
 10
0.0
 20
0.0
 30
0.0
 70
   128
 71
   203
 72
   204
 73
  -218
 74
  -203
  0
VERTEX
  5
507
  8
0
 62
   136
 10
0.0
 20
0.0
 30
0.0
 70
   128
 71
   219
 72
   218
 73
  -204
 74
  -219
  0
VERTEX
  5
508
  8
0
 62
   136
 10
0.0
 20
0.0
 30
0.0
 70
   128
 71
   204
 72
   205
 73
  -219
 74
  -204
  0
VERTEX
  5
509
  8
0
 62
   136
 10
0.0
 20
0.0
 30
0.0
 70
   128
 71
   220
 72
   219
 73
  -205
 74
  -220
  0
VERTEX
  5
50A
  8
0
 62
   136
 10
0.0
 20
0.0
 30
0.0
 70
   128
 71
   205
 72
   206
 73
  -220
 74
  -205
  0
VERTEX
  5
50B
  8
0
 62
   136
 10
0.0
 20
0.0
 30
0.0
 70
   128
 71
   221
 72
   220
 73
  -206
 74
  -221
  0
VERTEX
  5
50C
  8
0
 62
   136
 10
0.0
 20
0.0
 30
0.0
 70
   128
 71
   206
 72
   207
 73
  -221
 74
  -206
  0
VERTEX
  5
50D
  8
0
 62
   136
 10
0.0
 20
0.0
 30
0.0
 70
   128
 71
   223
 72
   221
 73
  -207
 74
  -223
  0
VERTEX
  5
50E
  8
0
 62
   136
 10
0.0
 20
0.0
 30
0.0
 70
   128
 71
   207
 72
   209
 73
  -223
 74
  -207
  0
VERTEX
  5
50F
  8
0
 62
   136
 10
0.0
 20
0.0
 30
0.0
 70
   128
 71
   222
 72
   224
 73
  -210
 74
  -222
  0
VERTEX
  5
510
  8
0
 62
   136
 10
0.0
 20
0.0
 30
0.0
 70
   128
 71
   210
 72
   208
 73
  -222
 74
  -210
  0
VERTEX
  5
511
  8
0
 62
   136
 10
0.0
 20
0.0
 30
0.0
 70
   128
 71
   225
 72
   223
 73
  -209
 74
  -225
  0
VERTEX
  5
512
  8
0
 62
   136
 10
0.0
 20
0.0
 30
0.0
 70
   128
 71
   209
 72
   211
 73
  -225
 74
  -209
  0
VERTEX
  5
513
  8
0
 62
   136
 10
0.0
 20
0.0
 30
0.0
 70
   128
 71
   224
 72
   226
 73
  -212
 74
  -224
  0
VERTEX
  5
514
  8
0
 62
   136
 10
0.0
 20
0.0
 30
0.0
 70
   128
 71
   212
 72
   210
 73
  -224
 74
  -212
  0
VERTEX
  5
515
  8
0
 62
   136
 10
0.0
 20
0.0
 30
0.0
 70
   128
 71
   226
 72
   227
 73
  -213
 74
  -226
  0
VERTEX
  5
516
  8
0
 62
   136
 10
0.0
 20
0.0
 30
0.0
 70
   128
 71
   213
 72
   212
 73
  -226
 74
  -213
  0
VERTEX
  5
517
  8
0
 62
   136
 10
0.0
 20
0.0
 30
0.0
 70
   128
 71
   227
 72
   228
 73
  -214
 74
  -227
  0
VERTEX
  5
518
  8
0
 62
   136
 10
0.0
 20
0.0
 30
0.0
 70
   128
 71
   214
 72
   213
 73
  -227
 74
  -214
  0
VERTEX
  5
519
  8
0
 62
   136
 10
0.0
 20
0.0
 30
0.0
 70
   128
 71
   228
 72
   229
 73
  -215
 74
  -228
  0
VERTEX
  5
51A
  8
0
 62
   136
 10
0.0
 20
0.0
 30
0.0
 70
   128
 71
   215
 72
   214
 73
  -228
 74
  -215
  0
VERTEX
  5
51B
  8
0
 62
   136
 10
0.0
 20
0.0
 30
0.0
 70
   128
 71
   230
 72
   225
 73
  -211
 74
  -230
  0
VERTEX
  5
51C
  8
0
 62
   136
 10
0.0
 20
0.0
 30
0.0
 70
   128
 71
   211
 72
   216
 73
  -230
 74
  -211
  0
VERTEX
  5
51D
  8
0
 62
   136
 10
0.0
 20
0.0
 30
0.0
 70
   128
 71
   229
 72
   230
 73
  -216
 74
  -229
  0
VERTEX
  5
51E
  8
0
 62
   136
 10
0.0
 20
0.0
 30
0.0
 70
   128
 71
   216
 72
   215
 73
  -229
 74
  -216
  0
VERTEX
  5
51F
  8
0
 62
   136
 10
0.0
 20
0.0
 30
0.0
 70
   128
 71
   231
 72
   236
 73
  -222
 74
  -231
  0
VERTEX
  5
520
  8
0
 62
   136
 10
0.0
 20
0.0
 30
0.0
 70
   128
 71
   222
 72
   217
 73
  -231
 74
  -222
  0
VERTEX
  5
521
  8
0
 62
   136
 10
0.0
 20
0.0
 30
0.0
 70
   128
 71
   232
 72
   231
 73
  -217
 74
  -232
  0
VERTEX
  5
522
  8
0
 62
   136
 10
0.0
 20
0.0
 30
0.0
 70
   128
 71
   217
 72
   218
 73
  -232
 74
  -217
  0
VERTEX
  5
523
  8
0
 62
   136
 10
0.0
 20
0.0
 30
0.0
 70
   128
 71
   233
 72
   232
 73
  -218
 74
  -233
  0
VERTEX
  5
524
  8
0
 62
   136
 10
0.0
 20
0.0
 30
0.0
 70
   128
 71
   218
 72
   219
 73
  -233
 74
  -218
  0
VERTEX
  5
525
  8
0
 62
   136
 10
0.0
 20
0.0
 30
0.0
 70
   128
 71
   234
 72
   233
 73
  -219
 74
  -234
  0
VERTEX
  5
526
  8
0
 62
   136
 10
0.0
 20
0.0
 30
0.0
 70
   128
 71
   219
 72
   220
 73
  -234
 74
  -219
  0
VERTEX
  5
527
  8
0
 62
   136
 10
0.0
 20
0.0
 30
0.0
 70
   128
 71
   235
 72
   234
 73
  -220
 74
  -235
  0
VERTEX
  5
528
  8
0
 62
   136
 10
0.0
 20
0.0
 30
0.0
 70
   128
 71
   220
 72
   221
 73
  -235
 74
  -220
  0
VERTEX
  5
529
  8
0
 62
   136
 10
0.0
 20
0.0
 30
0.0
 70
   128
 71
   237
 72
   235
 73
  -221
 74
  -237
  0
VERTEX
  5
52A
  8
0
 62
   136
 10
0.0
 20
0.0
 30
0.0
 70
   128
 71
   221
 72
   223
 73
  -237
 74
  -221
  0
VERTEX
  5
52B
  8
0
 62
   136
 10
0.0
 20
0.0
 30
0.0
 70
   128
 71
   236
 72
   238
 73
  -224
 74
  -236
  0
VERTEX
  5
52C
  8
0
 62
   136
 10
0.0
 20
0.0
 30
0.0
 70
   128
 71
   224
 72
   222
 73
  -236
 74
  -224
  0
VERTEX
  5
52D
  8
0
 62
   136
 10
0.0
 20
0.0
 30
0.0
 70
   128
 71
   239
 72
   237
 73
  -223
 74
  -239
  0
VERTEX
  5
52E
  8
0
 62
   136
 10
0.0
 20
0.0
 30
0.0
 70
   128
 71
   223
 72
   225
 73
  -239
 74
  -223
  0
VERTEX
  5
52F
  8
0
 62
   136
 10
0.0
 20
0.0
 30
0.0
 70
   128
 71
   238
 72
   240
 73
  -226
 74
  -238
  0
VERTEX
  5
530
  8
0
 62
   136
 10
0.0
 20
0.0
 30
0.0
 70
   128
 71
   226
 72
   224
 73
  -238
 74
  -226
  0
VERTEX
  5
531
  8
0
 62
   136
 10
0.0
 20
0.0
 30
0.0
 70
   128
 71
   240
 72
   241
 73
  -227
 74
  -240
  0
VERTEX
  5
532
  8
0
 62
   136
 10
0.0
 20
0.0
 30
0.0
 70
   128
 71
   227
 72
   226
 73
  -240
 74
  -227
  0
VERTEX
  5
533
  8
0
 62
   136
 10
0.0
 20
0.0
 30
0.0
 70
   128
 71
   241
 72
   242
 73
  -228
 74
  -241
  0
VERTEX
  5
534
  8
0
 62
   136
 10
0.0
 20
0.0
 30
0.0
 70
   128
 71
   228
 72
   227
 73
  -241
 74
  -228
  0
VERTEX
  5
535
  8
0
 62
   136
 10
0.0
 20
0.0
 30
0.0
 70
   128
 71
   242
 72
   243
 73
  -229
 74
  -242
  0
VERTEX
  5
536
  8
0
 62
   136
 10
0.0
 20
0.0
 30
0.0
 70
   128
 71
   229
 72
   228
 73
  -242
 74
  -229
  0
VERTEX
  5
537
  8
0
 62
   136
 10
0.0
 20
0.0
 30
0.0
 70
   128
 71
   244
 72
   239
 73
  -225
 74
  -244
  0
VERTEX
  5
538
  8
0
 62
   136
 10
0.0
 20
0.0
 30
0.0
 70
   128
 71
   225
 72
   230
 73
  -244
 74
  -225
  0
VERTEX
  5
539
  8
0
 62
   136
 10
0.0
 20
0.0
 30
0.0
 70
   128
 71
   243
 72
   244
 73
  -230
 74
  -243
  0
VERTEX
  5
53A
  8
0
 62
   136
 10
0.0
 20
0.0
 30
0.0
 70
   128
 71
   230
 72
   229
 73
  -243
 74
  -230
  0
VERTEX
  5
53B
  8
0
 62
   136
 10
0.0
 20
0.0
 30
0.0
 70
   128
 71
   245
 72
   250
 73
  -236
 74
  -245
  0
VERTEX
  5
53C
  8
0
 62
   136
 10
0.0
 20
0.0
 30
0.0
 70
   128
 71
   236
 72
   231
 73
  -245
 74
  -236
  0
VERTEX
  5
53D
  8
0
 62
   136
 10
0.0
 20
0.0
 30
0.0
 70
   128
 71
   246
 72
   245
 73
  -231
 74
  -246
  0
VERTEX
  5
53E
  8
0
 62
   136
 10
0.0
 20
0.0
 30
0.0
 70
   128
 71
   231
 72
   232
 73
  -246
 74
  -231
  0
VERTEX
  5
53F
  8
0
 62
   136
 10
0.0
 20
0.0
 30
0.0
 70
   128
 71
   247
 72
   246
 73
  -232
 74
  -247
  0
VERTEX
  5
540
  8
0
 62
   136
 10
0.0
 20
0.0
 30
0.0
 70
   128
 71
   232
 72
   233
 73
  -247
 74
  -232
  0
VERTEX
  5
541
  8
0
 62
   136
 10
0.0
 20
0.0
 30
0.0
 70
   128
 71
   248
 72
   247
 73
  -233
 74
  -248
  0
VERTEX
  5
542
  8
0
 62
   136
 10
0.0
 20
0.0
 30
0.0
 70
   128
 71
   233
 72
   234
 73
  -248
 74
  -233
  0
VERTEX
  5
543
  8
0
 62
   136
 10
0.0
 20
0.0
 30
0.0
 70
   128
 71
   249
 72
   248
 73
  -234
 74
  -249
  0
VERTEX
  5
544
  8
0
 62
   136
 10
0.0
 20
0.0
 30
0.0
 70
   128
 71
   234
 72
   235
 73
  -249
 74
  -234
  0
VERTEX
  5
545
  8
0
 62
   136
 10
0.0
 20
0.0
 30
0.0
 70
   128
 71
   251
 72
   249
 73
  -235
 74
  -251
  0
VERTEX
  5
546
  8
0
 62
   136
 10
0.0
 20
0.0
 30
0.0
 70
   128
 71
   235
 72
   237
 73
  -251
 74
  -235
  0
VERTEX
  5
547
  8
0
 62
   136
 10
0.0
 20
0.0
 30
0.0
 70
   128
 71
   250
 72
   252
 73
  -238
 74
  -250
  0
VERTEX
  5
548
  8
0
 62
   136
 10
0.0
 20
0.0
 30
0.0
 70
   128
 71
   238
 72
   236
 73
  -250
 74
  -238
  0
VERTEX
  5
549
  8
0
 62
   136
 10
0.0
 20
0.0
 30
0.0
 70
   128
 71
   253
 72
   251
 73
  -237
 74
  -253
  0
VERTEX
  5
54A
  8
0
 62
   136
 10
0.0
 20
0.0
 30
0.0
 70
   128
 71
   237
 72
   239
 73
  -253
 74
  -237
  0
VERTEX
  5
54B
  8
0
 62
   136
 10
0.0
 20
0.0
 30
0.0
 70
   128
 71
   252
 72
   254
 73
  -240
 74
  -252
  0
VERTEX
  5
54C
  8
0
 62
   136
 10
0.0
 20
0.0
 30
0.0
 70
   128
 71
   240
 72
   238
 73
  -252
 74
  -240
  0
VERTEX
  5
54D
  8
0
 62
   136
 10
0.0
 20
0.0
 30
0.0
 70
   128
 71
   254
 72
   255
 73
  -241
 74
  -254
  0
VERTEX
  5
54E
  8
0
 62
   136
 10
0.0
 20
0.0
 30
0.0
 70
   128
 71
   241
 72
   240
 73
  -254
 74
  -241
  0
VERTEX
  5
54F
  8
0
 62
   136
 10
0.0
 20
0.0
 30
0.0
 70
   128
 71
   255
 72
   256
 73
  -242
 74
  -255
  0
VERTEX
  5
550
  8
0
 62
   136
 10
0.0
 20
0.0
 30
0.0
 70
   128
 71
   242
 72
   241
 73
  -255
 74
  -242
  0
VERTEX
  5
551
  8
0
 62
   136
 10
0.0
 20
0.0
 30
0.0
 70
   128
 71
   256
 72
   257
 73
  -243
 74
  -256
  0
VERTEX
  5
552
  8
0
 62
   136
 10
0.0
 20
0.0
 30
0.0
 70
   128
 71
   243
 72
   242
 73
  -256
 74
  -243
  0
VERTEX
  5
553
  8
0
 62
   136
 10
0.0
 20
0.0
 30
0.0
 70
   128
 71
   258
 72
   253
 73
  -239
 74
  -258
  0
VERTEX
  5
554
  8
0
 62
   136
 10
0.0
 20
0.0
 30
0.0
 70
   128
 71
   239
 72
   244
 73
  -258
 74
  -239
  0
VERTEX
  5
555
  8
0
 62
   136
 10
0.0
 20
0.0
 30
0.0
 70
   128
 71
   257
 72
   258
 73
  -244
 74
  -257
  0
VERTEX
  5
556
  8
0
 62
   136
 10
0.0
 20
0.0
 30
0.0
 70
   128
 71
   244
 72
   243
 73
  -257
 74
  -244
  0
VERTEX
  5
557
  8
0
 62
   136
 10
0.0
 20
0.0
 30
0.0
 70
   128
 71
   259
 72
   260
 73
  -317
 74
  -259
  0
VERTEX
  5
558
  8
0
 62
   136
 10
0.0
 20
0.0
 30
0.0
 70
   128
 71
   317
 72
   316
 73
  -259
 74
  -317
  0
VERTEX
  5
559
  8
0
 62
   136
 10
0.0
 20
0.0
 30
0.0
 70
   128
 71
   260
 72
   261
 73
  -318
 74
  -260
  0
VERTEX
  5
55A
  8
0
 62
   136
 10
0.0
 20
0.0
 30
0.0
 70
   128
 71
   318
 72
   317
 73
  -260
 74
  -318
  0
VERTEX
  5
55B
  8
0
 62
   136
 10
0.0
 20
0.0
 30
0.0
 70
   128
 71
   261
 72
   262
 73
  -319
 74
  -261
  0
VERTEX
  5
55C
  8
0
 62
   136
 10
0.0
 20
0.0
 30
0.0
 70
   128
 71
   319
 72
   318
 73
  -261
 74
  -319
  0
VERTEX
  5
55D
  8
0
 62
   136
 10
0.0
 20
0.0
 30
0.0
 70
   128
 71
   262
 72
   263
 73
  -320
 74
  -262
  0
VERTEX
  5
55E
  8
0
 62
   136
 10
0.0
 20
0.0
 30
0.0
 70
   128
 71
   320
 72
   319
 73
  -262
 74
  -320
  0
VERTEX
  5
55F
  8
0
 62
   136
 10
0.0
 20
0.0
 30
0.0
 70
   128
 71
   264
 72
   259
 73
  -316
 74
  -264
  0
VERTEX
  5
560
  8
0
 62
   136
 10
0.0
 20
0.0
 30
0.0
 70
   128
 71
   316
 72
   322
 73
  -264
 74
  -316
  0
VERTEX
  5
561
  8
0
 62
   136
 10
0.0
 20
0.0
 30
0.0
 70
   128
 71
   263
 72
   265
 73
   -20
 74
  -263
  0
VERTEX
  5
562
  8
0
 62
   136
 10
0.0
 20
0.0
 30
0.0
 70
   128
 71
    20
 72
   320
 73
  -263
 74
   -20
  0
VERTEX
  5
563
  8
0
 62
   136
 10
0.0
 20
0.0
 30
0.0
 70
   128
 71
   266
 72
   264
 73
  -322
 74
  -266
  0
VERTEX
  5
564
  8
0
 62
   136
 10
0.0
 20
0.0
 30
0.0
 70
   128
 71
   322
 72
   324
 73
  -266
 74
  -322
  0
VERTEX
  5
565
  8
0
 62
   136
 10
0.0
 20
0.0
 30
0.0
 70
   128
 71
   265
 72
   267
 73
   -27
 74
  -265
  0
VERTEX
  5
566
  8
0
 62
   136
 10
0.0
 20
0.0
 30
0.0
 70
   128
 71
    27
 72
    20
 73
  -265
 74
   -27
  0
VERTEX
  5
567
  8
0
 62
   136
 10
0.0
 20
0.0
 30
0.0
 70
   128
 71
   268
 72
   266
 73
  -324
 74
  -268
  0
VERTEX
  5
568
  8
0
 62
   136
 10
0.0
 20
0.0
 30
0.0
 70
   128
 71
   324
 72
   327
 73
  -268
 74
  -324
  0
VERTEX
  5
569
  8
0
 62
   136
 10
0.0
 20
0.0
 30
0.0
 70
   128
 71
   269
 72
   268
 73
  -327
 74
  -269
  0
VERTEX
  5
56A
  8
0
 62
   136
 10
0.0
 20
0.0
 30
0.0
 70
   128
 71
   327
 72
   328
 73
  -269
 74
  -327
  0
VERTEX
  5
56B
  8
0
 62
   136
 10
0.0
 20
0.0
 30
0.0
 70
   128
 71
   270
 72
   269
 73
  -328
 74
  -270
  0
VERTEX
  5
56C
  8
0
 62
   136
 10
0.0
 20
0.0
 30
0.0
 70
   128
 71
   328
 72
   329
 73
  -270
 74
  -328
  0
VERTEX
  5
56D
  8
0
 62
   136
 10
0.0
 20
0.0
 30
0.0
 70
   128
 71
   271
 72
   270
 73
  -329
 74
  -271
  0
VERTEX
  5
56E
  8
0
 62
   136
 10
0.0
 20
0.0
 30
0.0
 70
   128
 71
   329
 72
   330
 73
  -271
 74
  -329
  0
VERTEX
  5
56F
  8
0
 62
   136
 10
0.0
 20
0.0
 30
0.0
 70
   128
 71
   272
 72
   271
 73
  -330
 74
  -272
  0
VERTEX
  5
570
  8
0
 62
   136
 10
0.0
 20
0.0
 30
0.0
 70
   128
 71
   330
 72
    34
 73
  -272
 74
  -330
  0
VERTEX
  5
571
  8
0
 62
   136
 10
0.0
 20
0.0
 30
0.0
 70
   128
 71
   267
 72
   272
 73
   -34
 74
  -267
  0
VERTEX
  5
572
  8
0
 62
   136
 10
0.0
 20
0.0
 30
0.0
 70
   128
 71
    34
 72
    27
 73
  -267
 74
   -34
  0
VERTEX
  5
573
  8
0
 62
   136
 10
0.0
 20
0.0
 30
0.0
 70
   128
 71
   278
 72
   273
 73
  -259
 74
  -278
  0
VERTEX
  5
574
  8
0
 62
   136
 10
0.0
 20
0.0
 30
0.0
 70
   128
 71
   259
 72
   264
 73
  -278
 74
  -259
  0
VERTEX
  5
575
  8
0
 62
   136
 10
0.0
 20
0.0
 30
0.0
 70
   128
 71
   273
 72
   274
 73
  -260
 74
  -273
  0
VERTEX
  5
576
  8
0
 62
   136
 10
0.0
 20
0.0
 30
0.0
 70
   128
 71
   260
 72
   259
 73
  -273
 74
  -260
  0
VERTEX
  5
577
  8
0
 62
   136
 10
0.0
 20
0.0
 30
0.0
 70
   128
 71
   274
 72
   275
 73
  -261
 74
  -274
  0
VERTEX
  5
578
  8
0
 62
   136
 10
0.0
 20
0.0
 30
0.0
 70
   128
 71
   261
 72
   260
 73
  -274
 74
  -261
  0
VERTEX
  5
579
  8
0
 62
   136
 10
0.0
 20
0.0
 30
0.0
 70
   128
 71
   275
 72
   276
 73
  -262
 74
  -275
  0
VERTEX
  5
57A
  8
0
 62
   136
 10
0.0
 20
0.0
 30
0.0
 70
   128
 71
   262
 72
   261
 73
  -275
 74
  -262
  0
VERTEX
  5
57B
  8
0
 62
   136
 10
0.0
 20
0.0
 30
0.0
 70
   128
 71
   277
 72
   279
 73
  -265
 74
  -277
  0
VERTEX
  5
57C
  8
0
 62
   136
 10
0.0
 20
0.0
 30
0.0
 70
   128
 71
   265
 72
   263
 73
  -277
 74
  -265
  0
VERTEX
  5
57D
  8
0
 62
   136
 10
0.0
 20
0.0
 30
0.0
 70
   128
 71
   276
 72
   277
 73
  -263
 74
  -276
  0
VERTEX
  5
57E
  8
0
 62
   136
 10
0.0
 20
0.0
 30
0.0
 70
   128
 71
   263
 72
   262
 73
  -276
 74
  -263
  0
VERTEX
  5
57F
  8
0
 62
   136
 10
0.0
 20
0.0
 30
0.0
 70
   128
 71
   280
 72
   278
 73
  -264
 74
  -280
  0
VERTEX
  5
580
  8
0
 62
   136
 10
0.0
 20
0.0
 30
0.0
 70
   128
 71
   264
 72
   266
 73
  -280
 74
  -264
  0
VERTEX
  5
581
  8
0
 62
   136
 10
0.0
 20
0.0
 30
0.0
 70
   128
 71
   279
 72
   281
 73
  -267
 74
  -279
  0
VERTEX
  5
582
  8
0
 62
   136
 10
0.0
 20
0.0
 30
0.0
 70
   128
 71
   267
 72
   265
 73
  -279
 74
  -267
  0
VERTEX
  5
583
  8
0
 62
   136
 10
0.0
 20
0.0
 30
0.0
 70
   128
 71
   282
 72
   280
 73
  -266
 74
  -282
  0
VERTEX
  5
584
  8
0
 62
   136
 10
0.0
 20
0.0
 30
0.0
 70
   128
 71
   266
 72
   268
 73
  -282
 74
  -266
  0
VERTEX
  5
585
  8
0
 62
   136
 10
0.0
 20
0.0
 30
0.0
 70
   128
 71
   283
 72
   282
 73
  -268
 74
  -283
  0
VERTEX
  5
586
  8
0
 62
   136
 10
0.0
 20
0.0
 30
0.0
 70
   128
 71
   268
 72
   269
 73
  -283
 74
  -268
  0
VERTEX
  5
587
  8
0
 62
   136
 10
0.0
 20
0.0
 30
0.0
 70
   128
 71
   284
 72
   283
 73
  -269
 74
  -284
  0
VERTEX
  5
588
  8
0
 62
   136
 10
0.0
 20
0.0
 30
0.0
 70
   128
 71
   269
 72
   270
 73
  -284
 74
  -269
  0
VERTEX
  5
589
  8
0
 62
   136
 10
0.0
 20
0.0
 30
0.0
 70
   128
 71
   285
 72
   284
 73
  -270
 74
  -285
  0
VERTEX
  5
58A
  8
0
 62
   136
 10
0.0
 20
0.0
 30
0.0
 70
   128
 71
   270
 72
   271
 73
  -285
 74
  -270
  0
VERTEX
  5
58B
  8
0
 62
   136
 10
0.0
 20
0.0
 30
0.0
 70
   128
 71
   286
 72
   285
 73
  -271
 74
  -286
  0
VERTEX
  5
58C
  8
0
 62
   136
 10
0.0
 20
0.0
 30
0.0
 70
   128
 71
   271
 72
   272
 73
  -286
 74
  -271
  0
VERTEX
  5
58D
  8
0
 62
   136
 10
0.0
 20
0.0
 30
0.0
 70
   128
 71
   281
 72
   286
 73
  -272
 74
  -281
  0
VERTEX
  5
58E
  8
0
 62
   136
 10
0.0
 20
0.0
 30
0.0
 70
   128
 71
   272
 72
   267
 73
  -281
 74
  -272
  0
VERTEX
  5
58F
  8
0
 62
   136
 10
0.0
 20
0.0
 30
0.0
 70
   128
 71
   292
 72
   287
 73
  -273
 74
  -292
  0
VERTEX
  5
590
  8
0
 62
   136
 10
0.0
 20
0.0
 30
0.0
 70
   128
 71
   273
 72
   278
 73
  -292
 74
  -273
  0
VERTEX
  5
591
  8
0
 62
   136
 10
0.0
 20
0.0
 30
0.0
 70
   128
 71
   287
 72
   288
 73
  -274
 74
  -287
  0
VERTEX
  5
592
  8
0
 62
   136
 10
0.0
 20
0.0
 30
0.0
 70
   128
 71
   274
 72
   273
 73
  -287
 74
  -274
  0
VERTEX
  5
593
  8
0
 62
   136
 10
0.0
 20
0.0
 30
0.0
 70
   128
 71
   288
 72
   289
 73
  -275
 74
  -288
  0
VERTEX
  5
594
  8
0
 62
   136
 10
0.0
 20
0.0
 30
0.0
 70
   128
 71
   275
 72
   274
 73
  -288
 74
  -275
  0
VERTEX
  5
595
  8
0
 62
   136
 10
0.0
 20
0.0
 30
0.0
 70
   128
 71
   289
 72
   290
 73
  -276
 74
  -289
  0
VERTEX
  5
596
  8
0
 62
   136
 10
0.0
 20
0.0
 30
0.0
 70
   128
 71
   276
 72
   275
 73
  -289
 74
  -276
  0
VERTEX
  5
597
  8
0
 62
   136
 10
0.0
 20
0.0
 30
0.0
 70
   128
 71
   291
 72
   293
 73
  -279
 74
  -291
  0
VERTEX
  5
598
  8
0
 62
   136
 10
0.0
 20
0.0
 30
0.0
 70
   128
 71
   279
 72
   277
 73
  -291
 74
  -279
  0
VERTEX
  5
599
  8
0
 62
   136
 10
0.0
 20
0.0
 30
0.0
 70
   128
 71
   290
 72
   291
 73
  -277
 74
  -290
  0
VERTEX
  5
59A
  8
0
 62
   136
 10
0.0
 20
0.0
 30
0.0
 70
   128
 71
   277
 72
   276
 73
  -290
 74
  -277
  0
VERTEX
  5
59B
  8
0
 62
   136
 10
0.0
 20
0.0
 30
0.0
 70
   128
 71
   294
 72
   292
 73
  -278
 74
  -294
  0
VERTEX
  5
59C
  8
0
 62
   136
 10
0.0
 20
0.0
 30
0.0
 70
   128
 71
   278
 72
   280
 73
  -294
 74
  -278
  0
VERTEX
  5
59D
  8
0
 62
   136
 10
0.0
 20
0.0
 30
0.0
 70
   128
 71
   293
 72
   295
 73
  -281
 74
  -293
  0
VERTEX
  5
59E
  8
0
 62
   136
 10
0.0
 20
0.0
 30
0.0
 70
   128
 71
   281
 72
   279
 73
  -293
 74
  -281
  0
VERTEX
  5
59F
  8
0
 62
   136
 10
0.0
 20
0.0
 30
0.0
 70
   128
 71
   296
 72
   294
 73
  -280
 74
  -296
  0
VERTEX
  5
5A0
  8
0
 62
   136
 10
0.0
 20
0.0
 30
0.0
 70
   128
 71
   280
 72
   282
 73
  -296
 74
  -280
  0
VERTEX
  5
5A1
  8
0
 62
   136
 10
0.0
 20
0.0
 30
0.0
 70
   128
 71
   297
 72
   296
 73
  -282
 74
  -297
  0
VERTEX
  5
5A2
  8
0
 62
   136
 10
0.0
 20
0.0
 30
0.0
 70
   128
 71
   282
 72
   283
 73
  -297
 74
  -282
  0
VERTEX
  5
5A3
  8
0
 62
   136
 10
0.0
 20
0.0
 30
0.0
 70
   128
 71
   298
 72
   297
 73
  -283
 74
  -298
  0
VERTEX
  5
5A4
  8
0
 62
   136
 10
0.0
 20
0.0
 30
0.0
 70
   128
 71
   283
 72
   284
 73
  -298
 74
  -283
  0
VERTEX
  5
5A5
  8
0
 62
   136
 10
0.0
 20
0.0
 30
0.0
 70
   128
 71
   299
 72
   298
 73
  -284
 74
  -299
  0
VERTEX
  5
5A6
  8
0
 62
   136
 10
0.0
 20
0.0
 30
0.0
 70
   128
 71
   284
 72
   285
 73
  -299
 74
  -284
  0
VERTEX
  5
5A7
  8
0
 62
   136
 10
0.0
 20
0.0
 30
0.0
 70
   128
 71
   300
 72
   299
 73
  -285
 74
  -300
  0
VERTEX
  5
5A8
  8
0
 62
   136
 10
0.0
 20
0.0
 30
0.0
 70
   128
 71
   285
 72
   286
 73
  -300
 74
  -285
  0
VERTEX
  5
5A9
  8
0
 62
   136
 10
0.0
 20
0.0
 30
0.0
 70
   128
 71
   295
 72
   300
 73
  -286
 74
  -295
  0
VERTEX
  5
5AA
  8
0
 62
   136
 10
0.0
 20
0.0
 30
0.0
 70
   128
 71
   286
 72
   281
 73
  -295
 74
  -286
  0
VERTEX
  5
5AB
  8
0
 62
   136
 10
0.0
 20
0.0
 30
0.0
 70
   128
 71
   306
 72
   301
 73
  -287
 74
  -306
  0
VERTEX
  5
5AC
  8
0
 62
   136
 10
0.0
 20
0.0
 30
0.0
 70
   128
 71
   287
 72
   292
 73
  -306
 74
  -287
  0
VERTEX
  5
5AD
  8
0
 62
   136
 10
0.0
 20
0.0
 30
0.0
 70
   128
 71
   301
 72
   302
 73
  -288
 74
  -301
  0
VERTEX
  5
5AE
  8
0
 62
   136
 10
0.0
 20
0.0
 30
0.0
 70
   128
 71
   288
 72
   287
 73
  -301
 74
  -288
  0
VERTEX
  5
5AF
  8
0
 62
   136
 10
0.0
 20
0.0
 30
0.0
 70
   128
 71
   302
 72
   303
 73
  -289
 74
  -302
  0
VERTEX
  5
5B0
  8
0
 62
   136
 10
0.0
 20
0.0
 30
0.0
 70
   128
 71
   289
 72
   288
 73
  -302
 74
  -289
  0
VERTEX
  5
5B1
  8
0
 62
   136
 10
0.0
 20
0.0
 30
0.0
 70
   128
 71
   303
 72
   304
 73
  -290
 74
  -303
  0
VERTEX
  5
5B2
  8
0
 62
   136
 10
0.0
 20
0.0
 30
0.0
 70
   128
 71
   290
 72
   289
 73
  -303
 74
  -290
  0
VERTEX
  5
5B3
  8
0
 62
   136
 10
0.0
 20
0.0
 30
0.0
 70
   128
 71
   305
 72
   307
 73
  -293
 74
  -305
  0
VERTEX
  5
5B4
  8
0
 62
   136
 10
0.0
 20
0.0
 30
0.0
 70
   128
 71
   293
 72
   291
 73
  -305
 74
  -293
  0
VERTEX
  5
5B5
  8
0
 62
   136
 10
0.0
 20
0.0
 30
0.0
 70
   128
 71
   304
 72
   305
 73
  -291
 74
  -304
  0
VERTEX
  5
5B6
  8
0
 62
   136
 10
0.0
 20
0.0
 30
0.0
 70
   128
 71
   291
 72
   290
 73
  -304
 74
  -291
  0
VERTEX
  5
5B7
  8
0
 62
   136
 10
0.0
 20
0.0
 30
0.0
 70
   128
 71
   308
 72
   306
 73
  -292
 74
  -308
  0
VERTEX
  5
5B8
  8
0
 62
   136
 10
0.0
 20
0.0
 30
0.0
 70
   128
 71
   292
 72
   294
 73
  -308
 74
  -292
  0
VERTEX
  5
5B9
  8
0
 62
   136
 10
0.0
 20
0.0
 30
0.0
 70
   128
 71
   307
 72
   309
 73
  -295
 74
  -307
  0
VERTEX
  5
5BA
  8
0
 62
   136
 10
0.0
 20
0.0
 30
0.0
 70
   128
 71
   295
 72
   293
 73
  -307
 74
  -295
  0
VERTEX
  5
5BB
  8
0
 62
   136
 10
0.0
 20
0.0
 30
0.0
 70
   128
 71
   310
 72
   308
 73
  -294
 74
  -310
  0
VERTEX
  5
5BC
  8
0
 62
   136
 10
0.0
 20
0.0
 30
0.0
 70
   128
 71
   294
 72
   296
 73
  -310
 74
  -294
  0
VERTEX
  5
5BD
  8
0
 62
   136
 10
0.0
 20
0.0
 30
0.0
 70
   128
 71
   311
 72
   310
 73
  -296
 74
  -311
  0
VERTEX
  5
5BE
  8
0
 62
   136
 10
0.0
 20
0.0
 30
0.0
 70
   128
 71
   296
 72
   297
 73
  -311
 74
  -296
  0
VERTEX
  5
5BF
  8
0
 62
   136
 10
0.0
 20
0.0
 30
0.0
 70
   128
 71
   312
 72
   311
 73
  -297
 74
  -312
  0
VERTEX
  5
5C0
  8
0
 62
   136
 10
0.0
 20
0.0
 30
0.0
 70
   128
 71
   297
 72
   298
 73
  -312
 74
  -297
  0
VERTEX
  5
5C1
  8
0
 62
   136
 10
0.0
 20
0.0
 30
0.0
 70
   128
 71
   313
 72
   312
 73
  -298
 74
  -313
  0
VERTEX
  5
5C2
  8
0
 62
   136
 10
0.0
 20
0.0
 30
0.0
 70
   128
 71
   298
 72
   299
 73
  -313
 74
  -298
  0
VERTEX
  5
5C3
  8
0
 62
   136
 10
0.0
 20
0.0
 30
0.0
 70
   128
 71
   314
 72
   313
 73
  -299
 74
  -314
  0
VERTEX
  5
5C4
  8
0
 62
   136
 10
0.0
 20
0.0
 30
0.0
 70
   128
 71
   299
 72
   300
 73
  -314
 74
  -299
  0
VERTEX
  5
5C5
  8
0
 62
   136
 10
0.0
 20
0.0
 30
0.0
 70
   128
 71
   309
 72
   314
 73
  -300
 74
  -309
  0
VERTEX
  5
5C6
  8
0
 62
   136
 10
0.0
 20
0.0
 30
0.0
 70
   128
 71
   300
 72
   295
 73
  -309
 74
  -300
  0
VERTEX
  5
5C7
  8
0
 62
   136
 10
0.0
 20
0.0
 30
0.0
 70
   128
 71
     9
 72
   354
 73
   335
 74
    -9
  0
VERTEX
  5
5C8
  8
0
 62
   136
 10
0.0
 20
0.0
 30
0.0
 70
   128
 71
    30
 72
   356
 73
   347
 74
   -30
  0
VERTEX
  5
5C9
  8
0
 62
   136
 10
0.0
 20
0.0
 30
0.0
 70
   128
 71
   351
 72
   331
 73
   357
 74
  -351
  0
VERTEX
  5
5CA
  8
0
 62
   136
 10
0.0
 20
0.0
 30
0.0
 70
   128
 71
   336
 72
    10
 73
    -9
 74
  -336
  0
VERTEX
  5
5CB
  8
0
 62
   136
 10
0.0
 20
0.0
 30
0.0
 70
   128
 71
     9
 72
   335
 73
  -336
 74
    -9
  0
VERTEX
  5
5CC
  8
0
 62
   136
 10
0.0
 20
0.0
 30
0.0
 70
   128
 71
   337
 72
    11
 73
   -10
 74
  -337
  0
VERTEX
  5
5CD
  8
0
 62
   136
 10
0.0
 20
0.0
 30
0.0
 70
   128
 71
    10
 72
   336
 73
  -337
 74
   -10
  0
VERTEX
  5
5CE
  8
0
 62
   136
 10
0.0
 20
0.0
 30
0.0
 70
   128
 71
   338
 72
    12
 73
   -11
 74
  -338
  0
VERTEX
  5
5CF
  8
0
 62
   136
 10
0.0
 20
0.0
 30
0.0
 70
   128
 71
    11
 72
   337
 73
  -338
 74
   -11
  0
VERTEX
  5
5D0
  8
0
 62
   136
 10
0.0
 20
0.0
 30
0.0
 70
   128
 71
   339
 72
    13
 73
   -12
 74
  -339
  0
VERTEX
  5
5D1
  8
0
 62
   136
 10
0.0
 20
0.0
 30
0.0
 70
   128
 71
    12
 72
   338
 73
  -339
 74
   -12
  0
VERTEX
  5
5D2
  8
0
 62
   136
 10
0.0
 20
0.0
 30
0.0
 70
   128
 71
   334
 72
   315
 73
   -16
 74
  -334
  0
VERTEX
  5
5D3
  8
0
 62
   136
 10
0.0
 20
0.0
 30
0.0
 70
   128
 71
    16
 72
   341
 73
  -334
 74
   -16
  0
VERTEX
  5
5D4
  8
0
 62
   136
 10
0.0
 20
0.0
 30
0.0
 70
   128
 71
   342
 72
   323
 73
  -321
 74
  -342
  0
VERTEX
  5
5D5
  8
0
 62
   136
 10
0.0
 20
0.0
 30
0.0
 70
   128
 71
   321
 72
   340
 73
  -342
 74
  -321
  0
VERTEX
  5
5D6
  8
0
 62
   136
 10
0.0
 20
0.0
 30
0.0
 70
   128
 71
   341
 72
    16
 73
   -23
 74
  -341
  0
VERTEX
  5
5D7
  8
0
 62
   136
 10
0.0
 20
0.0
 30
0.0
 70
   128
 71
    23
 72
   343
 73
  -341
 74
   -23
  0
VERTEX
  5
5D8
  8
0
 62
   136
 10
0.0
 20
0.0
 30
0.0
 70
   128
 71
   344
 72
   325
 73
  -323
 74
  -344
  0
VERTEX
  5
5D9
  8
0
 62
   136
 10
0.0
 20
0.0
 30
0.0
 70
   128
 71
   323
 72
   342
 73
  -344
 74
  -323
  0
VERTEX
  5
5DA
  8
0
 62
   136
 10
0.0
 20
0.0
 30
0.0
 70
   128
 71
   343
 72
    23
 73
   -30
 74
  -343
  0
VERTEX
  5
5DB
  8
0
 62
   136
 10
0.0
 20
0.0
 30
0.0
 70
   128
 71
    30
 72
   347
 73
  -343
 74
   -30
  0
VERTEX
  5
5DC
  8
0
 62
   136
 10
0.0
 20
0.0
 30
0.0
 70
   128
 71
   353
 72
   332
 73
  -325
 74
  -353
  0
VERTEX
  5
5DD
  8
0
 62
   136
 10
0.0
 20
0.0
 30
0.0
 70
   128
 71
   325
 72
   344
 73
  -353
 74
  -325
  0
VERTEX
  5
5DE
  8
0
 62
   136
 10
0.0
 20
0.0
 30
0.0
 70
   128
 71
   346
 72
   326
 73
   -31
 74
  -346
  0
VERTEX
  5
5DF
  8
0
 62
   136
 10
0.0
 20
0.0
 30
0.0
 70
   128
 71
    31
 72
   348
 73
  -346
 74
   -31
  0
VERTEX
  5
5E0
  8
0
 62
   136
 10
0.0
 20
0.0
 30
0.0
 70
   128
 71
   348
 72
    31
 73
   -32
 74
  -348
  0
VERTEX
  5
5E1
  8
0
 62
   136
 10
0.0
 20
0.0
 30
0.0
 70
   128
 71
    32
 72
   349
 73
  -348
 74
   -32
  0
VERTEX
  5
5E2
  8
0
 62
   136
 10
0.0
 20
0.0
 30
0.0
 70
   128
 71
   349
 72
    32
 73
   -33
 74
  -349
  0
VERTEX
  5
5E3
  8
0
 62
   136
 10
0.0
 20
0.0
 30
0.0
 70
   128
 71
    33
 72
   350
 73
  -349
 74
   -33
  0
VERTEX
  5
5E4
  8
0
 62
   136
 10
0.0
 20
0.0
 30
0.0
 70
   128
 71
   350
 72
    33
 73
  -331
 74
  -350
  0
VERTEX
  5
5E5
  8
0
 62
   136
 10
0.0
 20
0.0
 30
0.0
 70
   128
 71
   331
 72
   351
 73
  -350
 74
  -331
  0
VERTEX
  5
5E6
  8
0
 62
   136
 10
0.0
 20
0.0
 30
0.0
 70
   128
 71
     9
 72
   333
 73
   354
 74
    -9
  0
VERTEX
  5
5E7
  8
0
 62
   136
 10
0.0
 20
0.0
 30
0.0
 70
   128
 71
   334
 72
   354
 73
  -333
 74
  -334
  0
VERTEX
  5
5E8
  8
0
 62
   136
 10
0.0
 20
0.0
 30
0.0
 70
   128
 71
   333
 72
   315
 73
  -334
 74
  -333
  0
VERTEX
  5
5E9
  8
0
 62
   136
 10
0.0
 20
0.0
 30
0.0
 70
   128
 71
   316
 72
   335
 73
  -354
 74
  -316
  0
VERTEX
  5
5EA
  8
0
 62
   136
 10
0.0
 20
0.0
 30
0.0
 70
   128
 71
   354
 72
   334
 73
  -316
 74
  -354
  0
VERTEX
  5
5EB
  8
0
 62
   136
 10
0.0
 20
0.0
 30
0.0
 70
   128
 71
    13
 72
   339
 73
   355
 74
   -13
  0
VERTEX
  5
5EC
  8
0
 62
   136
 10
0.0
 20
0.0
 30
0.0
 70
   128
 71
   340
 72
   355
 73
  -339
 74
  -340
  0
VERTEX
  5
5ED
  8
0
 62
   136
 10
0.0
 20
0.0
 30
0.0
 70
   128
 71
   339
 72
   320
 73
  -340
 74
  -339
  0
VERTEX
  5
5EE
  8
0
 62
   136
 10
0.0
 20
0.0
 30
0.0
 70
   128
 71
   321
 72
    13
 73
  -355
 74
  -321
  0
VERTEX
  5
5EF
  8
0
 62
   136
 10
0.0
 20
0.0
 30
0.0
 70
   128
 71
   355
 72
   340
 73
  -321
 74
  -355
  0
VERTEX
  5
5F0
  8
0
 62
   136
 10
0.0
 20
0.0
 30
0.0
 70
   128
 71
    30
 72
   345
 73
   356
 74
   -30
  0
VERTEX
  5
5F1
  8
0
 62
   136
 10
0.0
 20
0.0
 30
0.0
 70
   128
 71
   346
 72
   356
 73
  -345
 74
  -346
  0
VERTEX
  5
5F2
  8
0
 62
   136
 10
0.0
 20
0.0
 30
0.0
 70
   128
 71
   345
 72
   326
 73
  -346
 74
  -345
  0
VERTEX
  5
5F3
  8
0
 62
   136
 10
0.0
 20
0.0
 30
0.0
 70
   128
 71
   327
 72
   347
 73
  -356
 74
  -327
  0
VERTEX
  5
5F4
  8
0
 62
   136
 10
0.0
 20
0.0
 30
0.0
 70
   128
 71
   356
 72
   346
 73
  -327
 74
  -356
  0
VERTEX
  5
5F5
  8
0
 62
   136
 10
0.0
 20
0.0
 30
0.0
 70
   128
 71
   331
 72
   352
 73
   357
 74
  -331
  0
VERTEX
  5
5F6
  8
0
 62
   136
 10
0.0
 20
0.0
 30
0.0
 70
   128
 71
   353
 72
   357
 73
  -352
 74
  -353
  0
VERTEX
  5
5F7
  8
0
 62
   136
 10
0.0
 20
0.0
 30
0.0
 70
   128
 71
   352
 72
   332
 73
  -353
 74
  -352
  0
VERTEX
  5
5F8
  8
0
 62
   136
 10
0.0
 20
0.0
 30
0.0
 70
   128
 71
    34
 72
   351
 73
  -357
 74
   -34
  0
VERTEX
  5
5F9
  8
0
 62
   136
 10
0.0
 20
0.0
 30
0.0
 70
   128
 71
   357
 72
   353
 73
   -34
 74
  -357
  0
VERTEX
  5
5FA
  8
0
 62
   136
 10
0.0
 20
0.0
 30
0.0
 70
   128
 71
   317
 72
   336
 73
  -335
 74
  -317
  0
VERTEX
  5
5FB
  8
0
 62
   136
 10
0.0
 20
0.0
 30
0.0
 70
   128
 71
   335
 72
   316
 73
  -317
 74
  -335
  0
VERTEX
  5
5FC
  8
0
 62
   136
 10
0.0
 20
0.0
 30
0.0
 70
   128
 71
   318
 72
   337
 73
  -336
 74
  -318
  0
VERTEX
  5
5FD
  8
0
 62
   136
 10
0.0
 20
0.0
 30
0.0
 70
   128
 71
   336
 72
   317
 73
  -318
 74
  -336
  0
VERTEX
  5
5FE
  8
0
 62
   136
 10
0.0
 20
0.0
 30
0.0
 70
   128
 71
   319
 72
   338
 73
  -337
 74
  -319
  0
VERTEX
  5
5FF
  8
0
 62
   136
 10
0.0
 20
0.0
 30
0.0
 70
   128
 71
   337
 72
   318
 73
  -319
 74
  -337
  0
VERTEX
  5
600
  8
0
 62
   136
 10
0.0
 20
0.0
 30
0.0
 70
   128
 71
   320
 72
   339
 73
  -338
 74
  -320
  0
VERTEX
  5
601
  8
0
 62
   136
 10
0.0
 20
0.0
 30
0.0
 70
   128
 71
   338
 72
   319
 73
  -320
 74
  -338
  0
VERTEX
  5
602
  8
0
 62
   136
 10
0.0
 20
0.0
 30
0.0
 70
   128
 71
   316
 72
   334
 73
  -341
 74
  -316
  0
VERTEX
  5
603
  8
0
 62
   136
 10
0.0
 20
0.0
 30
0.0
 70
   128
 71
   341
 72
   322
 73
  -316
 74
  -341
  0
VERTEX
  5
604
  8
0
 62
   136
 10
0.0
 20
0.0
 30
0.0
 70
   128
 71
    20
 72
   342
 73
  -340
 74
   -20
  0
VERTEX
  5
605
  8
0
 62
   136
 10
0.0
 20
0.0
 30
0.0
 70
   128
 71
   340
 72
   320
 73
   -20
 74
  -340
  0
VERTEX
  5
606
  8
0
 62
   136
 10
0.0
 20
0.0
 30
0.0
 70
   128
 71
   322
 72
   341
 73
  -343
 74
  -322
  0
VERTEX
  5
607
  8
0
 62
   136
 10
0.0
 20
0.0
 30
0.0
 70
   128
 71
   343
 72
   324
 73
  -322
 74
  -343
  0
VERTEX
  5
608
  8
0
 62
   136
 10
0.0
 20
0.0
 30
0.0
 70
   128
 71
    27
 72
   344
 73
  -342
 74
   -27
  0
VERTEX
  5
609
  8
0
 62
   136
 10
0.0
 20
0.0
 30
0.0
 70
   128
 71
   342
 72
    20
 73
   -27
 74
  -342
  0
VERTEX
  5
60A
  8
0
 62
   136
 10
0.0
 20
0.0
 30
0.0
 70
   128
 71
   324
 72
   343
 73
  -347
 74
  -324
  0
VERTEX
  5
60B
  8
0
 62
   136
 10
0.0
 20
0.0
 30
0.0
 70
   128
 71
   347
 72
   327
 73
  -324
 74
  -347
  0
VERTEX
  5
60C
  8
0
 62
   136
 10
0.0
 20
0.0
 30
0.0
 70
   128
 71
    34
 72
   353
 73
  -344
 74
   -34
  0
VERTEX
  5
60D
  8
0
 62
   136
 10
0.0
 20
0.0
 30
0.0
 70
   128
 71
   344
 72
    27
 73
   -34
 74
  -344
  0
VERTEX
  5
60E
  8
0
 62
   136
 10
0.0
 20
0.0
 30
0.0
 70
   128
 71
   327
 72
   346
 73
  -348
 74
  -327
  0
VERTEX
  5
60F
  8
0
 62
   136
 10
0.0
 20
0.0
 30
0.0
 70
   128
 71
   348
 72
   328
 73
  -327
 74
  -348
  0
VERTEX
  5
610
  8
0
 62
   136
 10
0.0
 20
0.0
 30
0.0
 70
   128
 71
   328
 72
   348
 73
  -349
 74
  -328
  0
VERTEX
  5
611
  8
0
 62
   136
 10
0.0
 20
0.0
 30
0.0
 70
   128
 71
   349
 72
   329
 73
  -328
 74
  -349
  0
VERTEX
  5
612
  8
0
 62
   136
 10
0.0
 20
0.0
 30
0.0
 70
   128
 71
   329
 72
   349
 73
  -350
 74
  -329
  0
VERTEX
  5
613
  8
0
 62
   136
 10
0.0
 20
0.0
 30
0.0
 70
   128
 71
   350
 72
   330
 73
  -329
 74
  -350
  0
VERTEX
  5
614
  8
0
 62
   136
 10
0.0
 20
0.0
 30
0.0
 70
   128
 71
   330
 72
   350
 73
  -351
 74
  -330
  0
VERTEX
  5
615
  8
0
 62
   136
 10
0.0
 20
0.0
 30
0.0
 70
   128
 71
   351
 72
    34
 73
  -330
 74
  -351
  0
VERTEX
  5
616
  8
0
 62
   136
 10
0.0
 20
0.0
 30
0.0
 70
   128
 71
   363
 72
  -358
 73
   364
 74
  -363
  0
VERTEX
  5
617
  8
0
 62
   136
 10
0.0
 20
0.0
 30
0.0
 70
   128
 71
   359
 72
  -364
 73
   358
 74
  -359
  0
VERTEX
  5
618
  8
0
 62
   136
 10
0.0
 20
0.0
 30
0.0
 70
   128
 71
   364
 72
  -359
 73
   365
 74
  -364
  0
VERTEX
  5
619
  8
0
 62
   136
 10
0.0
 20
0.0
 30
0.0
 70
   128
 71
   360
 72
  -365
 73
   359
 74
  -360
  0
VERTEX
  5
61A
  8
0
 62
   136
 10
0.0
 20
0.0
 30
0.0
 70
   128
 71
   365
 72
  -360
 73
   366
 74
  -365
  0
VERTEX
  5
61B
  8
0
 62
   136
 10
0.0
 20
0.0
 30
0.0
 70
   128
 71
   361
 72
  -366
 73
   360
 74
  -361
  0
VERTEX
  5
61C
  8
0
 62
   136
 10
0.0
 20
0.0
 30
0.0
 70
   128
 71
   366
 72
  -361
 73
   367
 74
  -366
  0
VERTEX
  5
61D
  8
0
 62
   136
 10
0.0
 20
0.0
 30
0.0
 70
   128
 71
   362
 72
  -367
 73
   361
 74
  -362
  0
VERTEX
  5
61E
  8
0
 62
   136
 10
0.0
 20
0.0
 30
0.0
 70
   128
 71
   368
 72
  -363
 73
   369
 74
  -368
  0
VERTEX
  5
61F
  8
0
 62
   136
 10
0.0
 20
0.0
 30
0.0
 70
   128
 71
   364
 72
  -369
 73
   363
 74
  -364
  0
VERTEX
  5
620
  8
0
 62
   136
 10
0.0
 20
0.0
 30
0.0
 70
   128
 71
   369
 72
  -364
 73
   370
 74
  -369
  0
VERTEX
  5
621
  8
0
 62
   136
 10
0.0
 20
0.0
 30
0.0
 70
   128
 71
   365
 72
  -370
 73
   364
 74
  -365
  0
VERTEX
  5
622
  8
0
 62
   136
 10
0.0
 20
0.0
 30
0.0
 70
   128
 71
   370
 72
  -365
 73
   371
 74
  -370
  0
VERTEX
  5
623
  8
0
 62
   136
 10
0.0
 20
0.0
 30
0.0
 70
   128
 71
   366
 72
  -371
 73
   365
 74
  -366
  0
VERTEX
  5
624
  8
0
 62
   136
 10
0.0
 20
0.0
 30
0.0
 70
   128
 71
   371
 72
  -366
 73
   372
 74
  -371
  0
VERTEX
  5
625
  8
0
 62
   136
 10
0.0
 20
0.0
 30
0.0
 70
   128
 71
   367
 72
  -372
 73
   366
 74
  -367
  0
VERTEX
  5
626
  8
0
 62
   136
 10
0.0
 20
0.0
 30
0.0
 70
   128
 71
   374
 72
  -373
 73
   379
 74
  -374
  0
VERTEX
  5
627
  8
0
 62
   136
 10
0.0
 20
0.0
 30
0.0
 70
   128
 71
   378
 72
  -379
 73
   373
 74
  -378
  0
VERTEX
  5
628
  8
0
 62
   136
 10
0.0
 20
0.0
 30
0.0
 70
   128
 71
   375
 72
  -374
 73
   380
 74
  -375
  0
VERTEX
  5
629
  8
0
 62
   136
 10
0.0
 20
0.0
 30
0.0
 70
   128
 71
   379
 72
  -380
 73
   374
 74
  -379
  0
VERTEX
  5
62A
  8
0
 62
   136
 10
0.0
 20
0.0
 30
0.0
 70
   128
 71
   376
 72
  -375
 73
   381
 74
  -376
  0
VERTEX
  5
62B
  8
0
 62
   136
 10
0.0
 20
0.0
 30
0.0
 70
   128
 71
   380
 72
  -381
 73
   375
 74
  -380
  0
VERTEX
  5
62C
  8
0
 62
   136
 10
0.0
 20
0.0
 30
0.0
 70
   128
 71
   377
 72
  -376
 73
   382
 74
  -377
  0
VERTEX
  5
62D
  8
0
 62
   136
 10
0.0
 20
0.0
 30
0.0
 70
   128
 71
   381
 72
  -382
 73
   376
 74
  -381
  0
VERTEX
  5
62E
  8
0
 62
   136
 10
0.0
 20
0.0
 30
0.0
 70
   128
 71
   379
 72
  -378
 73
   384
 74
  -379
  0
VERTEX
  5
62F
  8
0
 62
   136
 10
0.0
 20
0.0
 30
0.0
 70
   128
 71
   383
 72
  -384
 73
   378
 74
  -383
  0
VERTEX
  5
630
  8
0
 62
   136
 10
0.0
 20
0.0
 30
0.0
 70
   128
 71
   380
 72
  -379
 73
   385
 74
  -380
  0
VERTEX
  5
631
  8
0
 62
   136
 10
0.0
 20
0.0
 30
0.0
 70
   128
 71
   384
 72
  -385
 73
   379
 74
  -384
  0
VERTEX
  5
632
  8
0
 62
   136
 10
0.0
 20
0.0
 30
0.0
 70
   128
 71
   381
 72
  -380
 73
   386
 74
  -381
  0
VERTEX
  5
633
  8
0
 62
   136
 10
0.0
 20
0.0
 30
0.0
 70
   128
 71
   385
 72
  -386
 73
   380
 74
  -385
  0
VERTEX
  5
634
  8
0
 62
   136
 10
0.0
 20
0.0
 30
0.0
 70
   128
 71
   382
 72
  -381
 73
   387
 74
  -382
  0
VERTEX
  5
635
  8
0
 62
   136
 10
0.0
 20
0.0
 30
0.0
 70
   128
 71
   386
 72
  -387
 73
   381
 74
  -386
  0
VERTEX
  5
636
  8
0
 62
   136
 10
0.0
 20
0.0
 30
0.0
 70
   128
 71
   359
 72
  -358
 73
   389
 74
  -359
  0
VERTEX
  5
637
  8
0
 62
   136
 10
0.0
 20
0.0
 30
0.0
 70
   128
 71
   388
 72
  -389
 73
   358
 74
  -388
  0
VERTEX
  5
638
  8
0
 62
   136
 10
0.0
 20
0.0
 30
0.0
 70
   128
 71
   360
 72
  -359
 73
   390
 74
  -360
  0
VERTEX
  5
639
  8
0
 62
   136
 10
0.0
 20
0.0
 30
0.0
 70
   128
 71
   389
 72
  -390
 73
   359
 74
  -389
  0
VERTEX
  5
63A
  8
0
 62
   136
 10
0.0
 20
0.0
 30
0.0
 70
   128
 71
   361
 72
  -360
 73
   391
 74
  -361
  0
VERTEX
  5
63B
  8
0
 62
   136
 10
0.0
 20
0.0
 30
0.0
 70
   128
 71
   390
 72
  -391
 73
   360
 74
  -390
  0
VERTEX
  5
63C
  8
0
 62
   136
 10
0.0
 20
0.0
 30
0.0
 70
   128
 71
   362
 72
  -361
 73
   392
 74
  -362
  0
VERTEX
  5
63D
  8
0
 62
   136
 10
0.0
 20
0.0
 30
0.0
 70
   128
 71
   391
 72
  -392
 73
   361
 74
  -391
  0
VERTEX
  5
63E
  8
0
 62
   136
 10
0.0
 20
0.0
 30
0.0
 70
   128
 71
   389
 72
  -388
 73
   374
 74
  -389
  0
VERTEX
  5
63F
  8
0
 62
   136
 10
0.0
 20
0.0
 30
0.0
 70
   128
 71
   373
 72
  -374
 73
   388
 74
  -373
  0
VERTEX
  5
640
  8
0
 62
   136
 10
0.0
 20
0.0
 30
0.0
 70
   128
 71
   390
 72
  -389
 73
   375
 74
  -390
  0
VERTEX
  5
641
  8
0
 62
   136
 10
0.0
 20
0.0
 30
0.0
 70
   128
 71
   374
 72
  -375
 73
   389
 74
  -374
  0
VERTEX
  5
642
  8
0
 62
   136
 10
0.0
 20
0.0
 30
0.0
 70
   128
 71
   391
 72
  -390
 73
   376
 74
  -391
  0
VERTEX
  5
643
  8
0
 62
   136
 10
0.0
 20
0.0
 30
0.0
 70
   128
 71
   375
 72
  -376
 73
   390
 74
  -375
  0
VERTEX
  5
644
  8
0
 62
   136
 10
0.0
 20
0.0
 30
0.0
 70
   128
 71
   392
 72
  -391
 73
   377
 74
  -392
  0
VERTEX
  5
645
  8
0
 62
   136
 10
0.0
 20
0.0
 30
0.0
 70
   128
 71
   376
 72
  -377
 73
   391
 74
  -376
  0
VERTEX
  5
646
  8
0
 62
   136
 10
0.0
 20
0.0
 30
0.0
 70
   128
 71
   367
 72
  -362
 73
   393
 74
  -367
  0
VERTEX
  5
647
  8
0
 62
   136
 10
0.0
 20
0.0
 30
0.0
 70
   128
 71
   392
 72
  -393
 73
   362
 74
  -392
  0
VERTEX
  5
648
  8
0
 62
   136
 10
0.0
 20
0.0
 30
0.0
 70
   128
 71
   372
 72
  -367
 73
   394
 74
  -372
  0
VERTEX
  5
649
  8
0
 62
   136
 10
0.0
 20
0.0
 30
0.0
 70
   128
 71
   393
 72
  -394
 73
   367
 74
  -393
  0
VERTEX
  5
64A
  8
0
 62
   136
 10
0.0
 20
0.0
 30
0.0
 70
   128
 71
   393
 72
  -392
 73
   382
 74
  -393
  0
VERTEX
  5
64B
  8
0
 62
   136
 10
0.0
 20
0.0
 30
0.0
 70
   128
 71
   377
 72
  -382
 73
   392
 74
  -377
  0
VERTEX
  5
64C
  8
0
 62
   136
 10
0.0
 20
0.0
 30
0.0
 70
   128
 71
   394
 72
  -393
 73
   387
 74
  -394
  0
VERTEX
  5
64D
  8
0
 62
   136
 10
0.0
 20
0.0
 30
0.0
 70
   128
 71
   382
 72
  -387
 73
   393
 74
  -382
  0
VERTEX
  5
64E
  8
0
 62
   136
 10
0.0
 20
0.0
 30
0.0
 70
   128
 71
   371
 72
  -372
 73
   395
 74
  -371
  0
VERTEX
  5
64F
  8
0
 62
   136
 10
0.0
 20
0.0
 30
0.0
 70
   128
 71
   394
 72
  -395
 73
   372
 74
  -394
  0
VERTEX
  5
650
  8
0
 62
   136
 10
0.0
 20
0.0
 30
0.0
 70
   128
 71
   370
 72
  -371
 73
   396
 74
  -370
  0
VERTEX
  5
651
  8
0
 62
   136
 10
0.0
 20
0.0
 30
0.0
 70
   128
 71
   395
 72
  -396
 73
   371
 74
  -395
  0
VERTEX
  5
652
  8
0
 62
   136
 10
0.0
 20
0.0
 30
0.0
 70
   128
 71
   369
 72
  -370
 73
   397
 74
  -369
  0
VERTEX
  5
653
  8
0
 62
   136
 10
0.0
 20
0.0
 30
0.0
 70
   128
 71
   396
 72
  -397
 73
   370
 74
  -396
  0
VERTEX
  5
654
  8
0
 62
   136
 10
0.0
 20
0.0
 30
0.0
 70
   128
 71
   368
 72
  -369
 73
   398
 74
  -368
  0
VERTEX
  5
655
  8
0
 62
   136
 10
0.0
 20
0.0
 30
0.0
 70
   128
 71
   397
 72
  -398
 73
   369
 74
  -397
  0
VERTEX
  5
656
  8
0
 62
   136
 10
0.0
 20
0.0
 30
0.0
 70
   128
 71
   395
 72
  -394
 73
   386
 74
  -395
  0
VERTEX
  5
657
  8
0
 62
   136
 10
0.0
 20
0.0
 30
0.0
 70
   128
 71
   387
 72
  -386
 73
   394
 74
  -387
  0
VERTEX
  5
658
  8
0
 62
   136
 10
0.0
 20
0.0
 30
0.0
 70
   128
 71
   396
 72
  -395
 73
   385
 74
  -396
  0
VERTEX
  5
659
  8
0
 62
   136
 10
0.0
 20
0.0
 30
0.0
 70
   128
 71
   386
 72
  -385
 73
   395
 74
  -386
  0
VERTEX
  5
65A
  8
0
 62
   136
 10
0.0
 20
0.0
 30
0.0
 70
   128
 71
   397
 72
  -396
 73
   384
 74
  -397
  0
VERTEX
  5
65B
  8
0
 62
   136
 10
0.0
 20
0.0
 30
0.0
 70
   128
 71
   385
 72
  -384
 73
   396
 74
  -385
  0
VERTEX
  5
65C
  8
0
 62
   136
 10
0.0
 20
0.0
 30
0.0
 70
   128
 71
   398
 72
  -397
 73
   383
 74
  -398
  0
VERTEX
  5
65D
  8
0
 62
   136
 10
0.0
 20
0.0
 30
0.0
 70
   128
 71
   384
 72
  -383
 73
   397
 74
  -384
  0
VERTEX
  5
65E
  8
0
 62
   136
 10
0.0
 20
0.0
 30
0.0
 70
   128
 71
   363
 72
  -368
 73
   399
 74
  -363
  0
VERTEX
  5
65F
  8
0
 62
   136
 10
0.0
 20
0.0
 30
0.0
 70
   128
 71
   398
 72
  -399
 73
   368
 74
  -398
  0
VERTEX
  5
660
  8
0
 62
   136
 10
0.0
 20
0.0
 30
0.0
 70
   128
 71
   358
 72
  -363
 73
   388
 74
  -358
  0
VERTEX
  5
661
  8
0
 62
   136
 10
0.0
 20
0.0
 30
0.0
 70
   128
 71
   399
 72
  -388
 73
   363
 74
  -399
  0
VERTEX
  5
662
  8
0
 62
   136
 10
0.0
 20
0.0
 30
0.0
 70
   128
 71
   399
 72
  -398
 73
   378
 74
  -399
  0
VERTEX
  5
663
  8
0
 62
   136
 10
0.0
 20
0.0
 30
0.0
 70
   128
 71
   383
 72
  -378
 73
   398
 74
  -383
  0
VERTEX
  5
664
  8
0
 62
   136
 10
0.0
 20
0.0
 30
0.0
 70
   128
 71
   388
 72
  -399
 73
   373
 74
  -388
  0
VERTEX
  5
665
  8
0
 62
   136
 10
0.0
 20
0.0
 30
0.0
 70
   128
 71
   378
 72
  -373
 73
   399
 74
  -378
  0
VERTEX
  5
666
  8
0
 62
   136
 10
0.0
 20
0.0
 30
0.0
 70
   128
 71
   407
 72
   522
 73
  -400
 74
  -407
  0
VERTEX
  5
667
  8
0
 62
   136
 10
0.0
 20
0.0
 30
0.0
 70
   128
 71
   400
 72
   401
 73
  -408
 74
  -400
  0
VERTEX
  5
668
  8
0
 62
   136
 10
0.0
 20
0.0
 30
0.0
 70
   128
 71
  -407
 72
  -400
 73
   408
 74
  -407
  0
VERTEX
  5
669
  8
0
 62
   136
 10
0.0
 20
0.0
 30
0.0
 70
   128
 71
   401
 72
   402
 73
  -409
 74
  -401
  0
VERTEX
  5
66A
  8
0
 62
   136
 10
0.0
 20
0.0
 30
0.0
 70
   128
 71
   409
 72
   408
 73
  -401
 74
  -409
  0
VERTEX
  5
66B
  8
0
 62
   136
 10
0.0
 20
0.0
 30
0.0
 70
   128
 71
   402
 72
   403
 73
  -410
 74
  -402
  0
VERTEX
  5
66C
  8
0
 62
   136
 10
0.0
 20
0.0
 30
0.0
 70
   128
 71
   410
 72
   409
 73
  -402
 74
  -410
  0
VERTEX
  5
66D
  8
0
 62
   136
 10
0.0
 20
0.0
 30
0.0
 70
   128
 71
   403
 72
   404
 73
  -411
 74
  -403
  0
VERTEX
  5
66E
  8
0
 62
   136
 10
0.0
 20
0.0
 30
0.0
 70
   128
 71
   411
 72
   410
 73
  -403
 74
  -411
  0
VERTEX
  5
66F
  8
0
 62
   136
 10
0.0
 20
0.0
 30
0.0
 70
   128
 71
   404
 72
   405
 73
  -412
 74
  -404
  0
VERTEX
  5
670
  8
0
 62
   136
 10
0.0
 20
0.0
 30
0.0
 70
   128
 71
   412
 72
   411
 73
  -404
 74
  -412
  0
VERTEX
  5
671
  8
0
 62
   136
 10
0.0
 20
0.0
 30
0.0
 70
   128
 71
   405
 72
   406
 73
  -529
 74
  -405
  0
VERTEX
  5
672
  8
0
 62
   136
 10
0.0
 20
0.0
 30
0.0
 70
   128
 71
  -405
 72
   529
 73
  -413
 74
  -405
  0
VERTEX
  5
673
  8
0
 62
   136
 10
0.0
 20
0.0
 30
0.0
 70
   128
 71
   412
 72
  -405
 73
   413
 74
  -412
  0
VERTEX
  5
674
  8
0
 62
   136
 10
0.0
 20
0.0
 30
0.0
 70
   128
 71
   407
 72
   408
 73
  -415
 74
  -407
  0
VERTEX
  5
675
  8
0
 62
   136
 10
0.0
 20
0.0
 30
0.0
 70
   128
 71
   415
 72
   414
 73
  -407
 74
  -415
  0
VERTEX
  5
676
  8
0
 62
   136
 10
0.0
 20
0.0
 30
0.0
 70
   128
 71
   408
 72
   409
 73
  -416
 74
  -408
  0
VERTEX
  5
677
  8
0
 62
   136
 10
0.0
 20
0.0
 30
0.0
 70
   128
 71
   416
 72
   415
 73
  -408
 74
  -416
  0
VERTEX
  5
678
  8
0
 62
   136
 10
0.0
 20
0.0
 30
0.0
 70
   128
 71
   409
 72
   410
 73
  -417
 74
  -409
  0
VERTEX
  5
679
  8
0
 62
   136
 10
0.0
 20
0.0
 30
0.0
 70
   128
 71
   417
 72
   416
 73
  -409
 74
  -417
  0
VERTEX
  5
67A
  8
0
 62
   136
 10
0.0
 20
0.0
 30
0.0
 70
   128
 71
   410
 72
   411
 73
  -418
 74
  -410
  0
VERTEX
  5
67B
  8
0
 62
   136
 10
0.0
 20
0.0
 30
0.0
 70
   128
 71
   418
 72
   417
 73
  -410
 74
  -418
  0
VERTEX
  5
67C
  8
0
 62
   136
 10
0.0
 20
0.0
 30
0.0
 70
   128
 71
   411
 72
   412
 73
  -419
 74
  -411
  0
VERTEX
  5
67D
  8
0
 62
   136
 10
0.0
 20
0.0
 30
0.0
 70
   128
 71
   419
 72
   418
 73
  -411
 74
  -419
  0
VERTEX
  5
67E
  8
0
 62
   136
 10
0.0
 20
0.0
 30
0.0
 70
   128
 71
   412
 72
   413
 73
  -420
 74
  -412
  0
VERTEX
  5
67F
  8
0
 62
   136
 10
0.0
 20
0.0
 30
0.0
 70
   128
 71
   420
 72
   419
 73
  -412
 74
  -420
  0
VERTEX
  5
680
  8
0
 62
   136
 10
0.0
 20
0.0
 30
0.0
 70
   128
 71
   507
 72
   528
 73
  -506
 74
  -507
  0
VERTEX
  5
681
  8
0
 62
   136
 10
0.0
 20
0.0
 30
0.0
 70
   128
 71
   506
 72
   513
 73
  -429
 74
  -506
  0
VERTEX
  5
682
  8
0
 62
   136
 10
0.0
 20
0.0
 30
0.0
 70
   128
 71
  -507
 72
  -506
 73
   429
 74
  -507
  0
VERTEX
  5
683
  8
0
 62
   136
 10
0.0
 20
0.0
 30
0.0
 70
   128
 71
   507
 72
   429
 73
  -430
 74
  -507
  0
VERTEX
  5
684
  8
0
 62
   136
 10
0.0
 20
0.0
 30
0.0
 70
   128
 71
   430
 72
   508
 73
  -507
 74
  -430
  0
VERTEX
  5
685
  8
0
 62
   136
 10
0.0
 20
0.0
 30
0.0
 70
   128
 71
   508
 72
   430
 73
  -431
 74
  -508
  0
VERTEX
  5
686
  8
0
 62
   136
 10
0.0
 20
0.0
 30
0.0
 70
   128
 71
   431
 72
   509
 73
  -508
 74
  -431
  0
VERTEX
  5
687
  8
0
 62
   136
 10
0.0
 20
0.0
 30
0.0
 70
   128
 71
   509
 72
   431
 73
  -432
 74
  -509
  0
VERTEX
  5
688
  8
0
 62
   136
 10
0.0
 20
0.0
 30
0.0
 70
   128
 71
   432
 72
   510
 73
  -509
 74
  -432
  0
VERTEX
  5
689
  8
0
 62
   136
 10
0.0
 20
0.0
 30
0.0
 70
   128
 71
   510
 72
   432
 73
  -433
 74
  -510
  0
VERTEX
  5
68A
  8
0
 62
   136
 10
0.0
 20
0.0
 30
0.0
 70
   128
 71
   433
 72
   511
 73
  -510
 74
  -433
  0
VERTEX
  5
68B
  8
0
 62
   136
 10
0.0
 20
0.0
 30
0.0
 70
   128
 71
   511
 72
   433
 73
  -514
 74
  -511
  0
VERTEX
  5
68C
  8
0
 62
   136
 10
0.0
 20
0.0
 30
0.0
 70
   128
 71
   512
 72
  -511
 73
  -514
 74
  -512
  0
VERTEX
  5
68D
  8
0
 62
   136
 10
0.0
 20
0.0
 30
0.0
 70
   128
 71
   535
 72
  -512
 73
   514
 74
  -535
  0
VERTEX
  5
68E
  8
0
 62
   136
 10
0.0
 20
0.0
 30
0.0
 70
   128
 71
   513
 72
   515
 73
  -516
 74
  -513
  0
VERTEX
  5
68F
  8
0
 62
   136
 10
0.0
 20
0.0
 30
0.0
 70
   128
 71
   516
 72
   429
 73
  -513
 74
  -516
  0
VERTEX
  5
690
  8
0
 62
   136
 10
0.0
 20
0.0
 30
0.0
 70
   128
 71
   429
 72
   516
 73
  -517
 74
  -429
  0
VERTEX
  5
691
  8
0
 62
   136
 10
0.0
 20
0.0
 30
0.0
 70
   128
 71
   517
 72
   430
 73
  -429
 74
  -517
  0
VERTEX
  5
692
  8
0
 62
   136
 10
0.0
 20
0.0
 30
0.0
 70
   128
 71
   430
 72
   517
 73
  -518
 74
  -430
  0
VERTEX
  5
693
  8
0
 62
   136
 10
0.0
 20
0.0
 30
0.0
 70
   128
 71
   518
 72
   431
 73
  -430
 74
  -518
  0
VERTEX
  5
694
  8
0
 62
   136
 10
0.0
 20
0.0
 30
0.0
 70
   128
 71
   431
 72
   518
 73
  -519
 74
  -431
  0
VERTEX
  5
695
  8
0
 62
   136
 10
0.0
 20
0.0
 30
0.0
 70
   128
 71
   519
 72
   432
 73
  -431
 74
  -519
  0
VERTEX
  5
696
  8
0
 62
   136
 10
0.0
 20
0.0
 30
0.0
 70
   128
 71
   432
 72
   519
 73
  -520
 74
  -432
  0
VERTEX
  5
697
  8
0
 62
   136
 10
0.0
 20
0.0
 30
0.0
 70
   128
 71
   520
 72
   433
 73
  -432
 74
  -520
  0
VERTEX
  5
698
  8
0
 62
   136
 10
0.0
 20
0.0
 30
0.0
 70
   128
 71
   433
 72
   520
 73
  -521
 74
  -433
  0
VERTEX
  5
699
  8
0
 62
   136
 10
0.0
 20
0.0
 30
0.0
 70
   128
 71
   521
 72
   514
 73
  -433
 74
  -521
  0
VERTEX
  5
69A
  8
0
 62
   136
 10
0.0
 20
0.0
 30
0.0
 70
   128
 71
   400
 72
   524
 73
  -443
 74
  -400
  0
VERTEX
  5
69B
  8
0
 62
   136
 10
0.0
 20
0.0
 30
0.0
 70
   128
 71
   443
 72
   401
 73
  -400
 74
  -443
  0
VERTEX
  5
69C
  8
0
 62
   136
 10
0.0
 20
0.0
 30
0.0
 70
   128
 71
   401
 72
   443
 73
  -444
 74
  -401
  0
VERTEX
  5
69D
  8
0
 62
   136
 10
0.0
 20
0.0
 30
0.0
 70
   128
 71
   444
 72
   402
 73
  -401
 74
  -444
  0
VERTEX
  5
69E
  8
0
 62
   136
 10
0.0
 20
0.0
 30
0.0
 70
   128
 71
   402
 72
   444
 73
  -445
 74
  -402
  0
VERTEX
  5
69F
  8
0
 62
   136
 10
0.0
 20
0.0
 30
0.0
 70
   128
 71
   445
 72
   403
 73
  -402
 74
  -445
  0
VERTEX
  5
6A0
  8
0
 62
   136
 10
0.0
 20
0.0
 30
0.0
 70
   128
 71
   403
 72
   445
 73
  -446
 74
  -403
  0
VERTEX
  5
6A1
  8
0
 62
   136
 10
0.0
 20
0.0
 30
0.0
 70
   128
 71
   446
 72
   404
 73
  -403
 74
  -446
  0
VERTEX
  5
6A2
  8
0
 62
   136
 10
0.0
 20
0.0
 30
0.0
 70
   128
 71
   404
 72
   446
 73
  -447
 74
  -404
  0
VERTEX
  5
6A3
  8
0
 62
   136
 10
0.0
 20
0.0
 30
0.0
 70
   128
 71
   447
 72
   405
 73
  -404
 74
  -447
  0
VERTEX
  5
6A4
  8
0
 62
   136
 10
0.0
 20
0.0
 30
0.0
 70
   128
 71
   405
 72
   447
 73
  -448
 74
  -405
  0
VERTEX
  5
6A5
  8
0
 62
   136
 10
0.0
 20
0.0
 30
0.0
 70
   128
 71
   448
 72
   406
 73
  -405
 74
  -448
  0
VERTEX
  5
6A6
  8
0
 62
   136
 10
0.0
 20
0.0
 30
0.0
 70
   128
 71
   524
 72
   525
 73
  -459
 74
  -524
  0
VERTEX
  5
6A7
  8
0
 62
   136
 10
0.0
 20
0.0
 30
0.0
 70
   128
 71
   459
 72
   443
 73
  -524
 74
  -459
  0
VERTEX
  5
6A8
  8
0
 62
   136
 10
0.0
 20
0.0
 30
0.0
 70
   128
 71
   443
 72
   459
 73
  -460
 74
  -443
  0
VERTEX
  5
6A9
  8
0
 62
   136
 10
0.0
 20
0.0
 30
0.0
 70
   128
 71
   460
 72
   444
 73
  -443
 74
  -460
  0
VERTEX
  5
6AA
  8
0
 62
   136
 10
0.0
 20
0.0
 30
0.0
 70
   128
 71
   444
 72
   460
 73
  -461
 74
  -444
  0
VERTEX
  5
6AB
  8
0
 62
   136
 10
0.0
 20
0.0
 30
0.0
 70
   128
 71
   461
 72
   445
 73
  -444
 74
  -461
  0
VERTEX
  5
6AC
  8
0
 62
   136
 10
0.0
 20
0.0
 30
0.0
 70
   128
 71
   445
 72
   461
 73
  -462
 74
  -445
  0
VERTEX
  5
6AD
  8
0
 62
   136
 10
0.0
 20
0.0
 30
0.0
 70
   128
 71
   462
 72
   446
 73
  -445
 74
  -462
  0
VERTEX
  5
6AE
  8
0
 62
   136
 10
0.0
 20
0.0
 30
0.0
 70
   128
 71
   446
 72
   462
 73
  -463
 74
  -446
  0
VERTEX
  5
6AF
  8
0
 62
   136
 10
0.0
 20
0.0
 30
0.0
 70
   128
 71
   463
 72
   447
 73
  -446
 74
  -463
  0
VERTEX
  5
6B0
  8
0
 62
   136
 10
0.0
 20
0.0
 30
0.0
 70
   128
 71
   447
 72
   463
 73
  -464
 74
  -447
  0
VERTEX
  5
6B1
  8
0
 62
   136
 10
0.0
 20
0.0
 30
0.0
 70
   128
 71
   464
 72
   448
 73
  -447
 74
  -464
  0
VERTEX
  5
6B2
  8
0
 62
   136
 10
0.0
 20
0.0
 30
0.0
 70
   128
 71
   525
 72
   474
 73
  -475
 74
  -525
  0
VERTEX
  5
6B3
  8
0
 62
   136
 10
0.0
 20
0.0
 30
0.0
 70
   128
 71
   475
 72
   459
 73
  -525
 74
  -475
  0
VERTEX
  5
6B4
  8
0
 62
   136
 10
0.0
 20
0.0
 30
0.0
 70
   128
 71
   459
 72
   475
 73
  -476
 74
  -459
  0
VERTEX
  5
6B5
  8
0
 62
   136
 10
0.0
 20
0.0
 30
0.0
 70
   128
 71
   476
 72
   460
 73
  -459
 74
  -476
  0
VERTEX
  5
6B6
  8
0
 62
   136
 10
0.0
 20
0.0
 30
0.0
 70
   128
 71
   460
 72
   476
 73
  -477
 74
  -460
  0
VERTEX
  5
6B7
  8
0
 62
   136
 10
0.0
 20
0.0
 30
0.0
 70
   128
 71
   477
 72
   461
 73
  -460
 74
  -477
  0
VERTEX
  5
6B8
  8
0
 62
   136
 10
0.0
 20
0.0
 30
0.0
 70
   128
 71
   461
 72
   477
 73
  -478
 74
  -461
  0
VERTEX
  5
6B9
  8
0
 62
   136
 10
0.0
 20
0.0
 30
0.0
 70
   128
 71
   478
 72
   462
 73
  -461
 74
  -478
  0
VERTEX
  5
6BA
  8
0
 62
   136
 10
0.0
 20
0.0
 30
0.0
 70
   128
 71
   462
 72
   478
 73
  -479
 74
  -462
  0
VERTEX
  5
6BB
  8
0
 62
   136
 10
0.0
 20
0.0
 30
0.0
 70
   128
 71
   479
 72
   463
 73
  -462
 74
  -479
  0
VERTEX
  5
6BC
  8
0
 62
   136
 10
0.0
 20
0.0
 30
0.0
 70
   128
 71
   463
 72
   479
 73
  -533
 74
  -463
  0
VERTEX
  5
6BD
  8
0
 62
   136
 10
0.0
 20
0.0
 30
0.0
 70
   128
 71
   533
 72
   464
 73
  -463
 74
  -533
  0
VERTEX
  5
6BE
  8
0
 62
   136
 10
0.0
 20
0.0
 30
0.0
 70
   128
 71
   474
 72
   421
 73
  -422
 74
  -474
  0
VERTEX
  5
6BF
  8
0
 62
   136
 10
0.0
 20
0.0
 30
0.0
 70
   128
 71
   422
 72
   475
 73
  -474
 74
  -422
  0
VERTEX
  5
6C0
  8
0
 62
   136
 10
0.0
 20
0.0
 30
0.0
 70
   128
 71
   475
 72
   422
 73
  -423
 74
  -475
  0
VERTEX
  5
6C1
  8
0
 62
   136
 10
0.0
 20
0.0
 30
0.0
 70
   128
 71
   423
 72
   476
 73
  -475
 74
  -423
  0
VERTEX
  5
6C2
  8
0
 62
   136
 10
0.0
 20
0.0
 30
0.0
 70
   128
 71
   476
 72
   423
 73
  -424
 74
  -476
  0
VERTEX
  5
6C3
  8
0
 62
   136
 10
0.0
 20
0.0
 30
0.0
 70
   128
 71
   424
 72
   477
 73
  -476
 74
  -424
  0
VERTEX
  5
6C4
  8
0
 62
   136
 10
0.0
 20
0.0
 30
0.0
 70
   128
 71
   477
 72
   424
 73
  -425
 74
  -477
  0
VERTEX
  5
6C5
  8
0
 62
   136
 10
0.0
 20
0.0
 30
0.0
 70
   128
 71
   425
 72
   478
 73
  -477
 74
  -425
  0
VERTEX
  5
6C6
  8
0
 62
   136
 10
0.0
 20
0.0
 30
0.0
 70
   128
 71
   478
 72
   425
 73
  -426
 74
  -478
  0
VERTEX
  5
6C7
  8
0
 62
   136
 10
0.0
 20
0.0
 30
0.0
 70
   128
 71
   426
 72
   479
 73
  -478
 74
  -426
  0
VERTEX
  5
6C8
  8
0
 62
   136
 10
0.0
 20
0.0
 30
0.0
 70
   128
 71
   479
 72
   426
 73
  -427
 74
  -479
  0
VERTEX
  5
6C9
  8
0
 62
   136
 10
0.0
 20
0.0
 30
0.0
 70
   128
 71
   427
 72
   533
 73
  -479
 74
  -427
  0
VERTEX
  5
6CA
  8
0
 62
   136
 10
0.0
 20
0.0
 30
0.0
 70
   128
 71
   529
 72
   531
 73
  -449
 74
  -529
  0
VERTEX
  5
6CB
  8
0
 62
   136
 10
0.0
 20
0.0
 30
0.0
 70
   128
 71
   449
 72
   413
 73
  -529
 74
  -449
  0
VERTEX
  5
6CC
  8
0
 62
   136
 10
0.0
 20
0.0
 30
0.0
 70
   128
 71
   413
 72
   449
 73
  -450
 74
  -413
  0
VERTEX
  5
6CD
  8
0
 62
   136
 10
0.0
 20
0.0
 30
0.0
 70
   128
 71
   450
 72
   420
 73
  -413
 74
  -450
  0
VERTEX
  5
6CE
  8
0
 62
   136
 10
0.0
 20
0.0
 30
0.0
 70
   128
 71
   531
 72
   532
 73
  -465
 74
  -531
  0
VERTEX
  5
6CF
  8
0
 62
   136
 10
0.0
 20
0.0
 30
0.0
 70
   128
 71
   465
 72
   449
 73
  -531
 74
  -465
  0
VERTEX
  5
6D0
  8
0
 62
   136
 10
0.0
 20
0.0
 30
0.0
 70
   128
 71
   449
 72
   465
 73
  -466
 74
  -449
  0
VERTEX
  5
6D1
  8
0
 62
   136
 10
0.0
 20
0.0
 30
0.0
 70
   128
 71
   466
 72
   450
 73
  -449
 74
  -466
  0
VERTEX
  5
6D2
  8
0
 62
   136
 10
0.0
 20
0.0
 30
0.0
 70
   128
 71
   532
 72
   480
 73
  -481
 74
  -532
  0
VERTEX
  5
6D3
  8
0
 62
   136
 10
0.0
 20
0.0
 30
0.0
 70
   128
 71
   481
 72
   465
 73
  -532
 74
  -481
  0
VERTEX
  5
6D4
  8
0
 62
   136
 10
0.0
 20
0.0
 30
0.0
 70
   128
 71
   465
 72
   481
 73
  -482
 74
  -465
  0
VERTEX
  5
6D5
  8
0
 62
   136
 10
0.0
 20
0.0
 30
0.0
 70
   128
 71
   482
 72
   466
 73
  -465
 74
  -482
  0
VERTEX
  5
6D6
  8
0
 62
   136
 10
0.0
 20
0.0
 30
0.0
 70
   128
 71
   480
 72
   530
 73
  -434
 74
  -480
  0
VERTEX
  5
6D7
  8
0
 62
   136
 10
0.0
 20
0.0
 30
0.0
 70
   128
 71
   434
 72
   481
 73
  -480
 74
  -434
  0
VERTEX
  5
6D8
  8
0
 62
   136
 10
0.0
 20
0.0
 30
0.0
 70
   128
 71
   481
 72
   434
 73
  -441
 74
  -481
  0
VERTEX
  5
6D9
  8
0
 62
   136
 10
0.0
 20
0.0
 30
0.0
 70
   128
 71
   441
 72
   482
 73
  -481
 74
  -441
  0
VERTEX
  5
6DA
  8
0
 62
   136
 10
0.0
 20
0.0
 30
0.0
 70
   128
 71
   420
 72
   450
 73
  -451
 74
  -420
  0
VERTEX
  5
6DB
  8
0
 62
   136
 10
0.0
 20
0.0
 30
0.0
 70
   128
 71
   451
 72
   419
 73
  -420
 74
  -451
  0
VERTEX
  5
6DC
  8
0
 62
   136
 10
0.0
 20
0.0
 30
0.0
 70
   128
 71
   419
 72
   451
 73
  -452
 74
  -419
  0
VERTEX
  5
6DD
  8
0
 62
   136
 10
0.0
 20
0.0
 30
0.0
 70
   128
 71
   452
 72
   418
 73
  -419
 74
  -452
  0
VERTEX
  5
6DE
  8
0
 62
   136
 10
0.0
 20
0.0
 30
0.0
 70
   128
 71
   418
 72
   452
 73
  -453
 74
  -418
  0
VERTEX
  5
6DF
  8
0
 62
   136
 10
0.0
 20
0.0
 30
0.0
 70
   128
 71
   453
 72
   417
 73
  -418
 74
  -453
  0
VERTEX
  5
6E0
  8
0
 62
   136
 10
0.0
 20
0.0
 30
0.0
 70
   128
 71
   417
 72
   453
 73
  -454
 74
  -417
  0
VERTEX
  5
6E1
  8
0
 62
   136
 10
0.0
 20
0.0
 30
0.0
 70
   128
 71
   454
 72
   416
 73
  -417
 74
  -454
  0
VERTEX
  5
6E2
  8
0
 62
   136
 10
0.0
 20
0.0
 30
0.0
 70
   128
 71
   416
 72
   454
 73
  -455
 74
  -416
  0
VERTEX
  5
6E3
  8
0
 62
   136
 10
0.0
 20
0.0
 30
0.0
 70
   128
 71
   455
 72
   415
 73
  -416
 74
  -455
  0
VERTEX
  5
6E4
  8
0
 62
   136
 10
0.0
 20
0.0
 30
0.0
 70
   128
 71
   415
 72
   455
 73
  -456
 74
  -415
  0
VERTEX
  5
6E5
  8
0
 62
   136
 10
0.0
 20
0.0
 30
0.0
 70
   128
 71
   456
 72
   414
 73
  -415
 74
  -456
  0
VERTEX
  5
6E6
  8
0
 62
   136
 10
0.0
 20
0.0
 30
0.0
 70
   128
 71
   450
 72
   466
 73
  -467
 74
  -450
  0
VERTEX
  5
6E7
  8
0
 62
   136
 10
0.0
 20
0.0
 30
0.0
 70
   128
 71
   467
 72
   451
 73
  -450
 74
  -467
  0
VERTEX
  5
6E8
  8
0
 62
   136
 10
0.0
 20
0.0
 30
0.0
 70
   128
 71
   451
 72
   467
 73
  -468
 74
  -451
  0
VERTEX
  5
6E9
  8
0
 62
   136
 10
0.0
 20
0.0
 30
0.0
 70
   128
 71
   468
 72
   452
 73
  -451
 74
  -468
  0
VERTEX
  5
6EA
  8
0
 62
   136
 10
0.0
 20
0.0
 30
0.0
 70
   128
 71
   452
 72
   468
 73
  -469
 74
  -452
  0
VERTEX
  5
6EB
  8
0
 62
   136
 10
0.0
 20
0.0
 30
0.0
 70
   128
 71
   469
 72
   453
 73
  -452
 74
  -469
  0
VERTEX
  5
6EC
  8
0
 62
   136
 10
0.0
 20
0.0
 30
0.0
 70
   128
 71
   453
 72
   469
 73
  -470
 74
  -453
  0
VERTEX
  5
6ED
  8
0
 62
   136
 10
0.0
 20
0.0
 30
0.0
 70
   128
 71
   470
 72
   454
 73
  -453
 74
  -470
  0
VERTEX
  5
6EE
  8
0
 62
   136
 10
0.0
 20
0.0
 30
0.0
 70
   128
 71
   454
 72
   470
 73
  -471
 74
  -454
  0
VERTEX
  5
6EF
  8
0
 62
   136
 10
0.0
 20
0.0
 30
0.0
 70
   128
 71
   471
 72
   455
 73
  -454
 74
  -471
  0
VERTEX
  5
6F0
  8
0
 62
   136
 10
0.0
 20
0.0
 30
0.0
 70
   128
 71
   455
 72
   471
 73
  -472
 74
  -455
  0
VERTEX
  5
6F1
  8
0
 62
   136
 10
0.0
 20
0.0
 30
0.0
 70
   128
 71
   472
 72
   456
 73
  -455
 74
  -472
  0
VERTEX
  5
6F2
  8
0
 62
   136
 10
0.0
 20
0.0
 30
0.0
 70
   128
 71
   466
 72
   482
 73
  -483
 74
  -466
  0
VERTEX
  5
6F3
  8
0
 62
   136
 10
0.0
 20
0.0
 30
0.0
 70
   128
 71
   483
 72
   467
 73
  -466
 74
  -483
  0
VERTEX
  5
6F4
  8
0
 62
   136
 10
0.0
 20
0.0
 30
0.0
 70
   128
 71
   467
 72
   483
 73
  -484
 74
  -467
  0
VERTEX
  5
6F5
  8
0
 62
   136
 10
0.0
 20
0.0
 30
0.0
 70
   128
 71
   484
 72
   468
 73
  -467
 74
  -484
  0
VERTEX
  5
6F6
  8
0
 62
   136
 10
0.0
 20
0.0
 30
0.0
 70
   128
 71
   468
 72
   484
 73
  -485
 74
  -468
  0
VERTEX
  5
6F7
  8
0
 62
   136
 10
0.0
 20
0.0
 30
0.0
 70
   128
 71
   485
 72
   469
 73
  -468
 74
  -485
  0
VERTEX
  5
6F8
  8
0
 62
   136
 10
0.0
 20
0.0
 30
0.0
 70
   128
 71
   469
 72
   485
 73
  -486
 74
  -469
  0
VERTEX
  5
6F9
  8
0
 62
   136
 10
0.0
 20
0.0
 30
0.0
 70
   128
 71
   486
 72
   470
 73
  -469
 74
  -486
  0
VERTEX
  5
6FA
  8
0
 62
   136
 10
0.0
 20
0.0
 30
0.0
 70
   128
 71
   470
 72
   486
 73
  -487
 74
  -470
  0
VERTEX
  5
6FB
  8
0
 62
   136
 10
0.0
 20
0.0
 30
0.0
 70
   128
 71
   487
 72
   471
 73
  -470
 74
  -487
  0
VERTEX
  5
6FC
  8
0
 62
   136
 10
0.0
 20
0.0
 30
0.0
 70
   128
 71
   471
 72
   487
 73
  -488
 74
  -471
  0
VERTEX
  5
6FD
  8
0
 62
   136
 10
0.0
 20
0.0
 30
0.0
 70
   128
 71
   488
 72
   472
 73
  -471
 74
  -488
  0
VERTEX
  5
6FE
  8
0
 62
   136
 10
0.0
 20
0.0
 30
0.0
 70
   128
 71
   482
 72
   441
 73
  -440
 74
  -482
  0
VERTEX
  5
6FF
  8
0
 62
   136
 10
0.0
 20
0.0
 30
0.0
 70
   128
 71
   440
 72
   483
 73
  -482
 74
  -440
  0
VERTEX
  5
700
  8
0
 62
   136
 10
0.0
 20
0.0
 30
0.0
 70
   128
 71
   483
 72
   440
 73
  -439
 74
  -483
  0
VERTEX
  5
701
  8
0
 62
   136
 10
0.0
 20
0.0
 30
0.0
 70
   128
 71
   439
 72
   484
 73
  -483
 74
  -439
  0
VERTEX
  5
702
  8
0
 62
   136
 10
0.0
 20
0.0
 30
0.0
 70
   128
 71
   484
 72
   439
 73
  -438
 74
  -484
  0
VERTEX
  5
703
  8
0
 62
   136
 10
0.0
 20
0.0
 30
0.0
 70
   128
 71
   438
 72
   485
 73
  -484
 74
  -438
  0
VERTEX
  5
704
  8
0
 62
   136
 10
0.0
 20
0.0
 30
0.0
 70
   128
 71
   485
 72
   438
 73
  -437
 74
  -485
  0
VERTEX
  5
705
  8
0
 62
   136
 10
0.0
 20
0.0
 30
0.0
 70
   128
 71
   437
 72
   486
 73
  -485
 74
  -437
  0
VERTEX
  5
706
  8
0
 62
   136
 10
0.0
 20
0.0
 30
0.0
 70
   128
 71
   486
 72
   437
 73
  -436
 74
  -486
  0
VERTEX
  5
707
  8
0
 62
   136
 10
0.0
 20
0.0
 30
0.0
 70
   128
 71
   436
 72
   487
 73
  -486
 74
  -436
  0
VERTEX
  5
708
  8
0
 62
   136
 10
0.0
 20
0.0
 30
0.0
 70
   128
 71
   487
 72
   436
 73
  -435
 74
  -487
  0
VERTEX
  5
709
  8
0
 62
   136
 10
0.0
 20
0.0
 30
0.0
 70
   128
 71
   435
 72
   488
 73
  -487
 74
  -435
  0
VERTEX
  5
70A
  8
0
 62
   136
 10
0.0
 20
0.0
 30
0.0
 70
   128
 71
   414
 72
   456
 73
  -457
 74
  -414
  0
VERTEX
  5
70B
  8
0
 62
   136
 10
0.0
 20
0.0
 30
0.0
 70
   128
 71
   457
 72
   407
 73
  -414
 74
  -457
  0
VERTEX
  5
70C
  8
0
 62
   136
 10
0.0
 20
0.0
 30
0.0
 70
   128
 71
   407
 72
   457
 73
  -442
 74
  -407
  0
VERTEX
  5
70D
  8
0
 62
   136
 10
0.0
 20
0.0
 30
0.0
 70
   128
 71
   442
 72
   522
 73
  -407
 74
  -442
  0
VERTEX
  5
70E
  8
0
 62
   136
 10
0.0
 20
0.0
 30
0.0
 70
   128
 71
   456
 72
   472
 73
  -473
 74
  -456
  0
VERTEX
  5
70F
  8
0
 62
   136
 10
0.0
 20
0.0
 30
0.0
 70
   128
 71
   473
 72
   457
 73
  -456
 74
  -473
  0
VERTEX
  5
710
  8
0
 62
   136
 10
0.0
 20
0.0
 30
0.0
 70
   128
 71
   457
 72
   473
 73
  -458
 74
  -457
  0
VERTEX
  5
711
  8
0
 62
   136
 10
0.0
 20
0.0
 30
0.0
 70
   128
 71
   458
 72
   442
 73
  -457
 74
  -458
  0
VERTEX
  5
712
  8
0
 62
   136
 10
0.0
 20
0.0
 30
0.0
 70
   128
 71
   472
 72
   488
 73
  -489
 74
  -472
  0
VERTEX
  5
713
  8
0
 62
   136
 10
0.0
 20
0.0
 30
0.0
 70
   128
 71
   489
 72
   473
 73
  -472
 74
  -489
  0
VERTEX
  5
714
  8
0
 62
   136
 10
0.0
 20
0.0
 30
0.0
 70
   128
 71
   473
 72
   489
 73
  -526
 74
  -473
  0
VERTEX
  5
715
  8
0
 62
   136
 10
0.0
 20
0.0
 30
0.0
 70
   128
 71
   526
 72
   458
 73
  -473
 74
  -526
  0
VERTEX
  5
716
  8
0
 62
   136
 10
0.0
 20
0.0
 30
0.0
 70
   128
 71
   488
 72
   435
 73
  -428
 74
  -488
  0
VERTEX
  5
717
  8
0
 62
   136
 10
0.0
 20
0.0
 30
0.0
 70
   128
 71
   428
 72
   489
 73
  -488
 74
  -428
  0
VERTEX
  5
718
  8
0
 62
   136
 10
0.0
 20
0.0
 30
0.0
 70
   128
 71
   489
 72
   428
 73
  -523
 74
  -489
  0
VERTEX
  5
719
  8
0
 62
   136
 10
0.0
 20
0.0
 30
0.0
 70
   128
 71
   523
 72
   526
 73
  -489
 74
  -523
  0
VERTEX
  5
71A
  8
0
 62
   136
 10
0.0
 20
0.0
 30
0.0
 70
   128
 71
   527
 72
   491
 73
  -422
 74
  -527
  0
VERTEX
  5
71B
  8
0
 62
   136
 10
0.0
 20
0.0
 30
0.0
 70
   128
 71
   422
 72
   421
 73
  -527
 74
  -422
  0
VERTEX
  5
71C
  8
0
 62
   136
 10
0.0
 20
0.0
 30
0.0
 70
   128
 71
   497
 72
   490
 73
  -523
 74
  -497
  0
VERTEX
  5
71D
  8
0
 62
   136
 10
0.0
 20
0.0
 30
0.0
 70
   128
 71
   523
 72
   428
 73
  -497
 74
  -523
  0
VERTEX
  5
71E
  8
0
 62
   136
 10
0.0
 20
0.0
 30
0.0
 70
   128
 71
   491
 72
   492
 73
  -423
 74
  -491
  0
VERTEX
  5
71F
  8
0
 62
   136
 10
0.0
 20
0.0
 30
0.0
 70
   128
 71
   423
 72
   422
 73
  -491
 74
  -423
  0
VERTEX
  5
720
  8
0
 62
   136
 10
0.0
 20
0.0
 30
0.0
 70
   128
 71
   492
 72
   493
 73
  -424
 74
  -492
  0
VERTEX
  5
721
  8
0
 62
   136
 10
0.0
 20
0.0
 30
0.0
 70
   128
 71
   424
 72
   423
 73
  -492
 74
  -424
  0
VERTEX
  5
722
  8
0
 62
   136
 10
0.0
 20
0.0
 30
0.0
 70
   128
 71
   493
 72
   494
 73
  -425
 74
  -493
  0
VERTEX
  5
723
  8
0
 62
   136
 10
0.0
 20
0.0
 30
0.0
 70
   128
 71
   425
 72
   424
 73
  -493
 74
  -425
  0
VERTEX
  5
724
  8
0
 62
   136
 10
0.0
 20
0.0
 30
0.0
 70
   128
 71
   494
 72
   495
 73
  -426
 74
  -494
  0
VERTEX
  5
725
  8
0
 62
   136
 10
0.0
 20
0.0
 30
0.0
 70
   128
 71
   426
 72
   425
 73
  -494
 74
  -426
  0
VERTEX
  5
726
  8
0
 62
   136
 10
0.0
 20
0.0
 30
0.0
 70
   128
 71
   495
 72
   496
 73
  -427
 74
  -495
  0
VERTEX
  5
727
  8
0
 62
   136
 10
0.0
 20
0.0
 30
0.0
 70
   128
 71
   427
 72
   426
 73
  -495
 74
  -427
  0
VERTEX
  5
728
  8
0
 62
   136
 10
0.0
 20
0.0
 30
0.0
 70
   128
 71
   534
 72
   498
 73
  -434
 74
  -534
  0
VERTEX
  5
729
  8
0
 62
   136
 10
0.0
 20
0.0
 30
0.0
 70
   128
 71
   434
 72
   530
 73
  -534
 74
  -434
  0
VERTEX
  5
72A
  8
0
 62
   136
 10
0.0
 20
0.0
 30
0.0
 70
   128
 71
   500
 72
   499
 73
  -435
 74
  -500
  0
VERTEX
  5
72B
  8
0
 62
   136
 10
0.0
 20
0.0
 30
0.0
 70
   128
 71
   435
 72
   436
 73
  -500
 74
  -435
  0
VERTEX
  5
72C
  8
0
 62
   136
 10
0.0
 20
0.0
 30
0.0
 70
   128
 71
   499
 72
   497
 73
  -428
 74
  -499
  0
VERTEX
  5
72D
  8
0
 62
   136
 10
0.0
 20
0.0
 30
0.0
 70
   128
 71
   428
 72
   435
 73
  -499
 74
  -428
  0
VERTEX
  5
72E
  8
0
 62
   136
 10
0.0
 20
0.0
 30
0.0
 70
   128
 71
   501
 72
   500
 73
  -436
 74
  -501
  0
VERTEX
  5
72F
  8
0
 62
   136
 10
0.0
 20
0.0
 30
0.0
 70
   128
 71
   436
 72
   437
 73
  -501
 74
  -436
  0
VERTEX
  5
730
  8
0
 62
   136
 10
0.0
 20
0.0
 30
0.0
 70
   128
 71
   502
 72
   501
 73
  -437
 74
  -502
  0
VERTEX
  5
731
  8
0
 62
   136
 10
0.0
 20
0.0
 30
0.0
 70
   128
 71
   437
 72
   438
 73
  -502
 74
  -437
  0
VERTEX
  5
732
  8
0
 62
   136
 10
0.0
 20
0.0
 30
0.0
 70
   128
 71
   503
 72
   502
 73
  -438
 74
  -503
  0
VERTEX
  5
733
  8
0
 62
   136
 10
0.0
 20
0.0
 30
0.0
 70
   128
 71
   438
 72
   439
 73
  -503
 74
  -438
  0
VERTEX
  5
734
  8
0
 62
   136
 10
0.0
 20
0.0
 30
0.0
 70
   128
 71
   504
 72
   503
 73
  -439
 74
  -504
  0
VERTEX
  5
735
  8
0
 62
   136
 10
0.0
 20
0.0
 30
0.0
 70
   128
 71
   439
 72
   440
 73
  -504
 74
  -439
  0
VERTEX
  5
736
  8
0
 62
   136
 10
0.0
 20
0.0
 30
0.0
 70
   128
 71
   498
 72
   505
 73
  -441
 74
  -498
  0
VERTEX
  5
737
  8
0
 62
   136
 10
0.0
 20
0.0
 30
0.0
 70
   128
 71
   441
 72
   434
 73
  -498
 74
  -441
  0
VERTEX
  5
738
  8
0
 62
   136
 10
0.0
 20
0.0
 30
0.0
 70
   128
 71
   505
 72
   504
 73
  -440
 74
  -505
  0
VERTEX
  5
739
  8
0
 62
   136
 10
0.0
 20
0.0
 30
0.0
 70
   128
 71
   440
 72
   441
 73
  -505
 74
  -440
  0
VERTEX
  5
73A
  8
0
 62
   136
 10
0.0
 20
0.0
 30
0.0
 70
   128
 71
   528
 72
   507
 73
  -491
 74
  -528
  0
VERTEX
  5
73B
  8
0
 62
   136
 10
0.0
 20
0.0
 30
0.0
 70
   128
 71
   491
 72
   527
 73
  -528
 74
  -491
  0
VERTEX
  5
73C
  8
0
 62
   136
 10
0.0
 20
0.0
 30
0.0
 70
   128
 71
   513
 72
   506
 73
  -490
 74
  -513
  0
VERTEX
  5
73D
  8
0
 62
   136
 10
0.0
 20
0.0
 30
0.0
 70
   128
 71
   490
 72
   497
 73
  -513
 74
  -490
  0
VERTEX
  5
73E
  8
0
 62
   136
 10
0.0
 20
0.0
 30
0.0
 70
   128
 71
   507
 72
   508
 73
  -492
 74
  -507
  0
VERTEX
  5
73F
  8
0
 62
   136
 10
0.0
 20
0.0
 30
0.0
 70
   128
 71
   492
 72
   491
 73
  -507
 74
  -492
  0
VERTEX
  5
740
  8
0
 62
   136
 10
0.0
 20
0.0
 30
0.0
 70
   128
 71
   508
 72
   509
 73
  -493
 74
  -508
  0
VERTEX
  5
741
  8
0
 62
   136
 10
0.0
 20
0.0
 30
0.0
 70
   128
 71
   493
 72
   492
 73
  -508
 74
  -493
  0
VERTEX
  5
742
  8
0
 62
   136
 10
0.0
 20
0.0
 30
0.0
 70
   128
 71
   509
 72
   510
 73
  -494
 74
  -509
  0
VERTEX
  5
743
  8
0
 62
   136
 10
0.0
 20
0.0
 30
0.0
 70
   128
 71
   494
 72
   493
 73
  -509
 74
  -494
  0
VERTEX
  5
744
  8
0
 62
   136
 10
0.0
 20
0.0
 30
0.0
 70
   128
 71
   510
 72
   511
 73
  -495
 74
  -510
  0
VERTEX
  5
745
  8
0
 62
   136
 10
0.0
 20
0.0
 30
0.0
 70
   128
 71
   495
 72
   494
 73
  -510
 74
  -495
  0
VERTEX
  5
746
  8
0
 62
   136
 10
0.0
 20
0.0
 30
0.0
 70
   128
 71
   511
 72
   512
 73
  -496
 74
  -511
  0
VERTEX
  5
747
  8
0
 62
   136
 10
0.0
 20
0.0
 30
0.0
 70
   128
 71
   496
 72
   495
 73
  -511
 74
  -496
  0
VERTEX
  5
748
  8
0
 62
   136
 10
0.0
 20
0.0
 30
0.0
 70
   128
 71
   535
 72
   514
 73
  -498
 74
  -535
  0
VERTEX
  5
749
  8
0
 62
   136
 10
0.0
 20
0.0
 30
0.0
 70
   128
 71
   498
 72
   534
 73
  -535
 74
  -498
  0
VERTEX
  5
74A
  8
0
 62
   136
 10
0.0
 20
0.0
 30
0.0
 70
   128
 71
   516
 72
   515
 73
  -499
 74
  -516
  0
VERTEX
  5
74B
  8
0
 62
   136
 10
0.0
 20
0.0
 30
0.0
 70
   128
 71
   499
 72
   500
 73
  -516
 74
  -499
  0
VERTEX
  5
74C
  8
0
 62
   136
 10
0.0
 20
0.0
 30
0.0
 70
   128
 71
   515
 72
   513
 73
  -497
 74
  -515
  0
VERTEX
  5
74D
  8
0
 62
   136
 10
0.0
 20
0.0
 30
0.0
 70
   128
 71
   497
 72
   499
 73
  -515
 74
  -497
  0
VERTEX
  5
74E
  8
0
 62
   136
 10
0.0
 20
0.0
 30
0.0
 70
   128
 71
   517
 72
   516
 73
  -500
 74
  -517
  0
VERTEX
  5
74F
  8
0
 62
   136
 10
0.0
 20
0.0
 30
0.0
 70
   128
 71
   500
 72
   501
 73
  -517
 74
  -500
  0
VERTEX
  5
750
  8
0
 62
   136
 10
0.0
 20
0.0
 30
0.0
 70
   128
 71
   518
 72
   517
 73
  -501
 74
  -518
  0
VERTEX
  5
751
  8
0
 62
   136
 10
0.0
 20
0.0
 30
0.0
 70
   128
 71
   501
 72
   502
 73
  -518
 74
  -501
  0
VERTEX
  5
752
  8
0
 62
   136
 10
0.0
 20
0.0
 30
0.0
 70
   128
 71
   519
 72
   518
 73
  -502
 74
  -519
  0
VERTEX
  5
753
  8
0
 62
   136
 10
0.0
 20
0.0
 30
0.0
 70
   128
 71
   502
 72
   503
 73
  -519
 74
  -502
  0
VERTEX
  5
754
  8
0
 62
   136
 10
0.0
 20
0.0
 30
0.0
 70
   128
 71
   520
 72
   519
 73
  -503
 74
  -520
  0
VERTEX
  5
755
  8
0
 62
   136
 10
0.0
 20
0.0
 30
0.0
 70
   128
 71
   503
 72
   504
 73
  -520
 74
  -503
  0
VERTEX
  5
756
  8
0
 62
   136
 10
0.0
 20
0.0
 30
0.0
 70
   128
 71
   514
 72
   521
 73
  -505
 74
  -514
  0
VERTEX
  5
757
  8
0
 62
   136
 10
0.0
 20
0.0
 30
0.0
 70
   128
 71
   505
 72
   498
 73
  -514
 74
  -505
  0
VERTEX
  5
758
  8
0
 62
   136
 10
0.0
 20
0.0
 30
0.0
 70
   128
 71
   521
 72
   520
 73
  -504
 74
  -521
  0
VERTEX
  5
759
  8
0
 62
   136
 10
0.0
 20
0.0
 30
0.0
 70
   128
 71
   504
 72
   505
 73
  -521
 74
  -504
  0
VERTEX
  5
75A
  8
0
 62
   136
 10
0.0
 20
0.0
 30
0.0
 70
   128
 71
   400
 72
   522
 73
  -442
 74
  -400
  0
VERTEX
  5
75B
  8
0
 62
   136
 10
0.0
 20
0.0
 30
0.0
 70
   128
 71
   442
 72
   524
 73
  -400
 74
  -442
  0
VERTEX
  5
75C
  8
0
 62
   136
 10
0.0
 20
0.0
 30
0.0
 70
   128
 71
   524
 72
   442
 73
  -458
 74
  -524
  0
VERTEX
  5
75D
  8
0
 62
   136
 10
0.0
 20
0.0
 30
0.0
 70
   128
 71
   458
 72
   525
 73
  -524
 74
  -458
  0
VERTEX
  5
75E
  8
0
 62
   136
 10
0.0
 20
0.0
 30
0.0
 70
   128
 71
   525
 72
   458
 73
  -526
 74
  -525
  0
VERTEX
  5
75F
  8
0
 62
   136
 10
0.0
 20
0.0
 30
0.0
 70
   128
 71
   526
 72
   474
 73
  -525
 74
  -526
  0
VERTEX
  5
760
  8
0
 62
   136
 10
0.0
 20
0.0
 30
0.0
 70
   128
 71
   474
 72
   526
 73
  -523
 74
  -474
  0
VERTEX
  5
761
  8
0
 62
   136
 10
0.0
 20
0.0
 30
0.0
 70
   128
 71
   523
 72
   421
 73
  -474
 74
  -523
  0
VERTEX
  5
762
  8
0
 62
   136
 10
0.0
 20
0.0
 30
0.0
 70
   128
 71
   421
 72
   523
 73
  -490
 74
  -421
  0
VERTEX
  5
763
  8
0
 62
   136
 10
0.0
 20
0.0
 30
0.0
 70
   128
 71
   490
 72
   527
 73
  -421
 74
  -490
  0
VERTEX
  5
764
  8
0
 62
   136
 10
0.0
 20
0.0
 30
0.0
 70
   128
 71
   527
 72
   490
 73
  -506
 74
  -527
  0
VERTEX
  5
765
  8
0
 62
   136
 10
0.0
 20
0.0
 30
0.0
 70
   128
 71
   506
 72
   528
 73
  -527
 74
  -506
  0
VERTEX
  5
766
  8
0
 62
   136
 10
0.0
 20
0.0
 30
0.0
 70
   128
 71
   448
 72
   531
 73
  -529
 74
  -448
  0
VERTEX
  5
767
  8
0
 62
   136
 10
0.0
 20
0.0
 30
0.0
 70
   128
 71
   529
 72
   406
 73
  -448
 74
  -529
  0
VERTEX
  5
768
  8
0
 62
   136
 10
0.0
 20
0.0
 30
0.0
 70
   128
 71
   464
 72
   532
 73
  -531
 74
  -464
  0
VERTEX
  5
769
  8
0
 62
   136
 10
0.0
 20
0.0
 30
0.0
 70
   128
 71
   531
 72
   448
 73
  -464
 74
  -531
  0
VERTEX
  5
76A
  8
0
 62
   136
 10
0.0
 20
0.0
 30
0.0
 70
   128
 71
   533
 72
   480
 73
  -532
 74
  -533
  0
VERTEX
  5
76B
  8
0
 62
   136
 10
0.0
 20
0.0
 30
0.0
 70
   128
 71
   532
 72
   464
 73
  -533
 74
  -532
  0
VERTEX
  5
76C
  8
0
 62
   136
 10
0.0
 20
0.0
 30
0.0
 70
   128
 71
   427
 72
   530
 73
  -480
 74
  -427
  0
VERTEX
  5
76D
  8
0
 62
   136
 10
0.0
 20
0.0
 30
0.0
 70
   128
 71
   480
 72
   533
 73
  -427
 74
  -480
  0
VERTEX
  5
76E
  8
0
 62
   136
 10
0.0
 20
0.0
 30
0.0
 70
   128
 71
   496
 72
   534
 73
  -530
 74
  -496
  0
VERTEX
  5
76F
  8
0
 62
   136
 10
0.0
 20
0.0
 30
0.0
 70
   128
 71
   530
 72
   427
 73
  -496
 74
  -530
  0
VERTEX
  5
770
  8
0
 62
   136
 10
0.0
 20
0.0
 30
0.0
 70
   128
 71
   512
 72
   535
 73
  -534
 74
  -512
  0
VERTEX
  5
771
  8
0
 62
   136
 10
0.0
 20
0.0
 30
0.0
 70
   128
 71
   534
 72
   496
 73
  -512
 74
  -534
  0
VERTEX
  5
772
  8
0
 62
   136
 10
0.0
 20
0.0
 30
0.0
 70
   128
 71
  -536
 72
   538
 73
  -537
 74
  -536
  0
VERTEX
  5
773
  8
0
 62
   136
 10
0.0
 20
0.0
 30
0.0
 70
   128
 71
  -536
 72
   539
 73
  -538
 74
  -536
  0
VERTEX
  5
774
  8
0
 62
   136
 10
0.0
 20
0.0
 30
0.0
 70
   128
 71
  -536
 72
   540
 73
  -539
 74
  -536
  0
VERTEX
  5
775
  8
0
 62
   136
 10
0.0
 20
0.0
 30
0.0
 70
   128
 71
  -536
 72
   541
 73
  -540
 74
  -536
  0
VERTEX
  5
776
  8
0
 62
   136
 10
0.0
 20
0.0
 30
0.0
 70
   128
 71
  -536
 72
   542
 73
  -541
 74
  -536
  0
VERTEX
  5
777
  8
0
 62
   136
 10
0.0
 20
0.0
 30
0.0
 70
   128
 71
  -536
 72
   543
 73
  -542
 74
  -536
  0
VERTEX
  5
778
  8
0
 62
   136
 10
0.0
 20
0.0
 30
0.0
 70
   128
 71
  -536
 72
   544
 73
  -543
 74
  -536
  0
VERTEX
  5
779
  8
0
 62
   136
 10
0.0
 20
0.0
 30
0.0
 70
   128
 71
  -536
 72
   545
 73
  -544
 74
  -536
  0
VERTEX
  5
77A
  8
0
 62
   136
 10
0.0
 20
0.0
 30
0.0
 70
   128
 71
  -536
 72
   546
 73
  -545
 74
  -536
  0
VERTEX
  5
77B
  8
0
 62
   136
 10
0.0
 20
0.0
 30
0.0
 70
   128
 71
  -536
 72
   547
 73
  -546
 74
  -536
  0
VERTEX
  5
77C
  8
0
 62
   136
 10
0.0
 20
0.0
 30
0.0
 70
   128
 71
  -536
 72
   548
 73
  -547
 74
  -536
  0
VERTEX
  5
77D
  8
0
 62
   136
 10
0.0
 20
0.0
 30
0.0
 70
   128
 71
  -536
 72
   549
 73
  -548
 74
  -536
  0
VERTEX
  5
77E
  8
0
 62
   136
 10
0.0
 20
0.0
 30
0.0
 70
   128
 71
  -536
 72
   550
 73
  -549
 74
  -536
  0
VERTEX
  5
77F
  8
0
 62
   136
 10
0.0
 20
0.0
 30
0.0
 70
   128
 71
  -536
 72
   537
 73
  -550
 74
  -536
  0
VERTEX
  5
780
  8
0
 62
   136
 10
0.0
 20
0.0
 30
0.0
 70
   128
 71
  -537
 72
   552
 73
   551
 74
  -537
  0
VERTEX
  5
781
  8
0
 62
   136
 10
0.0
 20
0.0
 30
0.0
 70
   128
 71
   537
 72
   538
 73
  -552
 74
  -537
  0
VERTEX
  5
782
  8
0
 62
   136
 10
0.0
 20
0.0
 30
0.0
 70
   128
 71
  -538
 72
   553
 73
   552
 74
  -538
  0
VERTEX
  5
783
  8
0
 62
   136
 10
0.0
 20
0.0
 30
0.0
 70
   128
 71
   538
 72
   539
 73
  -553
 74
  -538
  0
VERTEX
  5
784
  8
0
 62
   136
 10
0.0
 20
0.0
 30
0.0
 70
   128
 71
  -539
 72
   554
 73
   553
 74
  -539
  0
VERTEX
  5
785
  8
0
 62
   136
 10
0.0
 20
0.0
 30
0.0
 70
   128
 71
   539
 72
   540
 73
  -554
 74
  -539
  0
VERTEX
  5
786
  8
0
 62
   136
 10
0.0
 20
0.0
 30
0.0
 70
   128
 71
  -540
 72
   555
 73
   554
 74
  -540
  0
VERTEX
  5
787
  8
0
 62
   136
 10
0.0
 20
0.0
 30
0.0
 70
   128
 71
   540
 72
   541
 73
  -555
 74
  -540
  0
VERTEX
  5
788
  8
0
 62
   136
 10
0.0
 20
0.0
 30
0.0
 70
   128
 71
  -541
 72
   556
 73
   555
 74
  -541
  0
VERTEX
  5
789
  8
0
 62
   136
 10
0.0
 20
0.0
 30
0.0
 70
   128
 71
   541
 72
   542
 73
  -556
 74
  -541
  0
VERTEX
  5
78A
  8
0
 62
   136
 10
0.0
 20
0.0
 30
0.0
 70
   128
 71
  -542
 72
   557
 73
   556
 74
  -542
  0
VERTEX
  5
78B
  8
0
 62
   136
 10
0.0
 20
0.0
 30
0.0
 70
   128
 71
   542
 72
   543
 73
  -557
 74
  -542
  0
VERTEX
  5
78C
  8
0
 62
   136
 10
0.0
 20
0.0
 30
0.0
 70
   128
 71
  -543
 72
   558
 73
   557
 74
  -543
  0
VERTEX
  5
78D
  8
0
 62
   136
 10
0.0
 20
0.0
 30
0.0
 70
   128
 71
   543
 72
   544
 73
  -558
 74
  -543
  0
VERTEX
  5
78E
  8
0
 62
   136
 10
0.0
 20
0.0
 30
0.0
 70
   128
 71
  -544
 72
   559
 73
   558
 74
  -544
  0
VERTEX
  5
78F
  8
0
 62
   136
 10
0.0
 20
0.0
 30
0.0
 70
   128
 71
   544
 72
   545
 73
  -559
 74
  -544
  0
VERTEX
  5
790
  8
0
 62
   136
 10
0.0
 20
0.0
 30
0.0
 70
   128
 71
  -545
 72
   560
 73
   559
 74
  -545
  0
VERTEX
  5
791
  8
0
 62
   136
 10
0.0
 20
0.0
 30
0.0
 70
   128
 71
   545
 72
   546
 73
  -560
 74
  -545
  0
VERTEX
  5
792
  8
0
 62
   136
 10
0.0
 20
0.0
 30
0.0
 70
   128
 71
  -546
 72
   561
 73
   560
 74
  -546
  0
VERTEX
  5
793
  8
0
 62
   136
 10
0.0
 20
0.0
 30
0.0
 70
   128
 71
   546
 72
   547
 73
  -561
 74
  -546
  0
VERTEX
  5
794
  8
0
 62
   136
 10
0.0
 20
0.0
 30
0.0
 70
   128
 71
  -547
 72
   562
 73
   561
 74
  -547
  0
VERTEX
  5
795
  8
0
 62
   136
 10
0.0
 20
0.0
 30
0.0
 70
   128
 71
   547
 72
   548
 73
  -562
 74
  -547
  0
VERTEX
  5
796
  8
0
 62
   136
 10
0.0
 20
0.0
 30
0.0
 70
   128
 71
  -548
 72
   563
 73
   562
 74
  -548
  0
VERTEX
  5
797
  8
0
 62
   136
 10
0.0
 20
0.0
 30
0.0
 70
   128
 71
   548
 72
   549
 73
  -563
 74
  -548
  0
VERTEX
  5
798
  8
0
 62
   136
 10
0.0
 20
0.0
 30
0.0
 70
   128
 71
  -549
 72
   564
 73
   563
 74
  -549
  0
VERTEX
  5
799
  8
0
 62
   136
 10
0.0
 20
0.0
 30
0.0
 70
   128
 71
   549
 72
   550
 73
  -564
 74
  -549
  0
VERTEX
  5
79A
  8
0
 62
   136
 10
0.0
 20
0.0
 30
0.0
 70
   128
 71
  -550
 72
   551
 73
   564
 74
  -550
  0
VERTEX
  5
79B
  8
0
 62
   136
 10
0.0
 20
0.0
 30
0.0
 70
   128
 71
   550
 72
   537
 73
  -551
 74
  -550
  0
VERTEX
  5
79C
  8
0
 62
   136
 10
0.0
 20
0.0
 30
0.0
 70
   128
 71
  -565
 72
   551
 73
  -552
 74
  -565
  0
VERTEX
  5
79D
  8
0
 62
   136
 10
0.0
 20
0.0
 30
0.0
 70
   128
 71
  -565
 72
   552
 73
  -553
 74
  -565
  0
VERTEX
  5
79E
  8
0
 62
   136
 10
0.0
 20
0.0
 30
0.0
 70
   128
 71
  -565
 72
   553
 73
  -554
 74
  -565
  0
VERTEX
  5
79F
  8
0
 62
   136
 10
0.0
 20
0.0
 30
0.0
 70
   128
 71
  -565
 72
   554
 73
  -555
 74
  -565
  0
VERTEX
  5
7A0
  8
0
 62
   136
 10
0.0
 20
0.0
 30
0.0
 70
   128
 71
  -565
 72
   555
 73
  -556
 74
  -565
  0
VERTEX
  5
7A1
  8
0
 62
   136
 10
0.0
 20
0.0
 30
0.0
 70
   128
 71
  -565
 72
   556
 73
  -557
 74
  -565
  0
VERTEX
  5
7A2
  8
0
 62
   136
 10
0.0
 20
0.0
 30
0.0
 70
   128
 71
  -565
 72
   557
 73
  -558
 74
  -565
  0
VERTEX
  5
7A3
  8
0
 62
   136
 10
0.0
 20
0.0
 30
0.0
 70
   128
 71
  -565
 72
   558
 73
  -559
 74
  -565
  0
VERTEX
  5
7A4
  8
0
 62
   136
 10
0.0
 20
0.0
 30
0.0
 70
   128
 71
  -565
 72
   559
 73
  -560
 74
  -565
  0
VERTEX
  5
7A5
  8
0
 62
   136
 10
0.0
 20
0.0
 30
0.0
 70
   128
 71
  -565
 72
   560
 73
  -561
 74
  -565
  0
VERTEX
  5
7A6
  8
0
 62
   136
 10
0.0
 20
0.0
 30
0.0
 70
   128
 71
  -565
 72
   561
 73
  -562
 74
  -565
  0
VERTEX
  5
7A7
  8
0
 62
   136
 10
0.0
 20
0.0
 30
0.0
 70
   128
 71
  -565
 72
   562
 73
  -563
 74
  -565
  0
VERTEX
  5
7A8
  8
0
 62
   136
 10
0.0
 20
0.0
 30
0.0
 70
   128
 71
  -565
 72
   563
 73
  -564
 74
  -565
  0
VERTEX
  5
7A9
  8
0
 62
   136
 10
0.0
 20
0.0
 30
0.0
 70
   128
 71
  -565
 72
   564
 73
  -551
 74
  -565
  0
VERTEX
  5
7AA
  8
0
 62
   136
 10
0.0
 20
0.0
 30
0.0
 70
   128
 71
  -566
 72
   568
 73
  -567
 74
  -566
  0
VERTEX
  5
7AB
  8
0
 62
   136
 10
0.0
 20
0.0
 30
0.0
 70
   128
 71
  -566
 72
   569
 73
  -568
 74
  -566
  0
VERTEX
  5
7AC
  8
0
 62
   136
 10
0.0
 20
0.0
 30
0.0
 70
   128
 71
  -566
 72
   570
 73
  -569
 74
  -566
  0
VERTEX
  5
7AD
  8
0
 62
   136
 10
0.0
 20
0.0
 30
0.0
 70
   128
 71
  -566
 72
   571
 73
  -570
 74
  -566
  0
VERTEX
  5
7AE
  8
0
 62
   136
 10
0.0
 20
0.0
 30
0.0
 70
   128
 71
  -566
 72
   572
 73
  -571
 74
  -566
  0
VERTEX
  5
7AF
  8
0
 62
   136
 10
0.0
 20
0.0
 30
0.0
 70
   128
 71
  -566
 72
   573
 73
  -572
 74
  -566
  0
VERTEX
  5
7B0
  8
0
 62
   136
 10
0.0
 20
0.0
 30
0.0
 70
   128
 71
  -566
 72
   574
 73
  -573
 74
  -566
  0
VERTEX
  5
7B1
  8
0
 62
   136
 10
0.0
 20
0.0
 30
0.0
 70
   128
 71
  -566
 72
   575
 73
  -574
 74
  -566
  0
VERTEX
  5
7B2
  8
0
 62
   136
 10
0.0
 20
0.0
 30
0.0
 70
   128
 71
  -566
 72
   576
 73
  -575
 74
  -566
  0
VERTEX
  5
7B3
  8
0
 62
   136
 10
0.0
 20
0.0
 30
0.0
 70
   128
 71
  -566
 72
   577
 73
  -576
 74
  -566
  0
VERTEX
  5
7B4
  8
0
 62
   136
 10
0.0
 20
0.0
 30
0.0
 70
   128
 71
  -566
 72
   578
 73
  -577
 74
  -566
  0
VERTEX
  5
7B5
  8
0
 62
   136
 10
0.0
 20
0.0
 30
0.0
 70
   128
 71
  -566
 72
   579
 73
  -578
 74
  -566
  0
VERTEX
  5
7B6
  8
0
 62
   136
 10
0.0
 20
0.0
 30
0.0
 70
   128
 71
  -566
 72
   580
 73
  -579
 74
  -566
  0
VERTEX
  5
7B7
  8
0
 62
   136
 10
0.0
 20
0.0
 30
0.0
 70
   128
 71
  -566
 72
   567
 73
  -580
 74
  -566
  0
VERTEX
  5
7B8
  8
0
 62
   136
 10
0.0
 20
0.0
 30
0.0
 70
   128
 71
  -567
 72
   582
 73
   581
 74
  -567
  0
VERTEX
  5
7B9
  8
0
 62
   136
 10
0.0
 20
0.0
 30
0.0
 70
   128
 71
   567
 72
   568
 73
  -582
 74
  -567
  0
VERTEX
  5
7BA
  8
0
 62
   136
 10
0.0
 20
0.0
 30
0.0
 70
   128
 71
  -568
 72
   583
 73
   582
 74
  -568
  0
VERTEX
  5
7BB
  8
0
 62
   136
 10
0.0
 20
0.0
 30
0.0
 70
   128
 71
   568
 72
   569
 73
  -583
 74
  -568
  0
VERTEX
  5
7BC
  8
0
 62
   136
 10
0.0
 20
0.0
 30
0.0
 70
   128
 71
  -569
 72
   584
 73
   583
 74
  -569
  0
VERTEX
  5
7BD
  8
0
 62
   136
 10
0.0
 20
0.0
 30
0.0
 70
   128
 71
   569
 72
   570
 73
  -584
 74
  -569
  0
VERTEX
  5
7BE
  8
0
 62
   136
 10
0.0
 20
0.0
 30
0.0
 70
   128
 71
  -570
 72
   585
 73
   584
 74
  -570
  0
VERTEX
  5
7BF
  8
0
 62
   136
 10
0.0
 20
0.0
 30
0.0
 70
   128
 71
   570
 72
   571
 73
  -585
 74
  -570
  0
VERTEX
  5
7C0
  8
0
 62
   136
 10
0.0
 20
0.0
 30
0.0
 70
   128
 71
  -571
 72
   586
 73
   585
 74
  -571
  0
VERTEX
  5
7C1
  8
0
 62
   136
 10
0.0
 20
0.0
 30
0.0
 70
   128
 71
   571
 72
   572
 73
  -586
 74
  -571
  0
VERTEX
  5
7C2
  8
0
 62
   136
 10
0.0
 20
0.0
 30
0.0
 70
   128
 71
  -572
 72
   587
 73
   586
 74
  -572
  0
VERTEX
  5
7C3
  8
0
 62
   136
 10
0.0
 20
0.0
 30
0.0
 70
   128
 71
   572
 72
   573
 73
  -587
 74
  -572
  0
VERTEX
  5
7C4
  8
0
 62
   136
 10
0.0
 20
0.0
 30
0.0
 70
   128
 71
  -573
 72
   588
 73
   587
 74
  -573
  0
VERTEX
  5
7C5
  8
0
 62
   136
 10
0.0
 20
0.0
 30
0.0
 70
   128
 71
   573
 72
   574
 73
  -588
 74
  -573
  0
VERTEX
  5
7C6
  8
0
 62
   136
 10
0.0
 20
0.0
 30
0.0
 70
   128
 71
  -574
 72
   589
 73
   588
 74
  -574
  0
VERTEX
  5
7C7
  8
0
 62
   136
 10
0.0
 20
0.0
 30
0.0
 70
   128
 71
   574
 72
   575
 73
  -589
 74
  -574
  0
VERTEX
  5
7C8
  8
0
 62
   136
 10
0.0
 20
0.0
 30
0.0
 70
   128
 71
  -575
 72
   590
 73
   589
 74
  -575
  0
VERTEX
  5
7C9
  8
0
 62
   136
 10
0.0
 20
0.0
 30
0.0
 70
   128
 71
   575
 72
   576
 73
  -590
 74
  -575
  0
VERTEX
  5
7CA
  8
0
 62
   136
 10
0.0
 20
0.0
 30
0.0
 70
   128
 71
  -576
 72
   591
 73
   590
 74
  -576
  0
VERTEX
  5
7CB
  8
0
 62
   136
 10
0.0
 20
0.0
 30
0.0
 70
   128
 71
   576
 72
   577
 73
  -591
 74
  -576
  0
VERTEX
  5
7CC
  8
0
 62
   136
 10
0.0
 20
0.0
 30
0.0
 70
   128
 71
  -577
 72
   592
 73
   591
 74
  -577
  0
VERTEX
  5
7CD
  8
0
 62
   136
 10
0.0
 20
0.0
 30
0.0
 70
   128
 71
   577
 72
   578
 73
  -592
 74
  -577
  0
VERTEX
  5
7CE
  8
0
 62
   136
 10
0.0
 20
0.0
 30
0.0
 70
   128
 71
  -578
 72
   593
 73
   592
 74
  -578
  0
VERTEX
  5
7CF
  8
0
 62
   136
 10
0.0
 20
0.0
 30
0.0
 70
   128
 71
   578
 72
   579
 73
  -593
 74
  -578
  0
VERTEX
  5
7D0
  8
0
 62
   136
 10
0.0
 20
0.0
 30
0.0
 70
   128
 71
  -579
 72
   594
 73
   593
 74
  -579
  0
VERTEX
  5
7D1
  8
0
 62
   136
 10
0.0
 20
0.0
 30
0.0
 70
   128
 71
   579
 72
   580
 73
  -594
 74
  -579
  0
VERTEX
  5
7D2
  8
0
 62
   136
 10
0.0
 20
0.0
 30
0.0
 70
   128
 71
  -580
 72
   581
 73
   594
 74
  -580
  0
VERTEX
  5
7D3
  8
0
 62
   136
 10
0.0
 20
0.0
 30
0.0
 70
   128
 71
   580
 72
   567
 73
  -581
 74
  -580
  0
VERTEX
  5
7D4
  8
0
 62
   136
 10
0.0
 20
0.0
 30
0.0
 70
   128
 71
  -595
 72
   581
 73
  -582
 74
  -595
  0
VERTEX
  5
7D5
  8
0
 62
   136
 10
0.0
 20
0.0
 30
0.0
 70
   128
 71
  -595
 72
   582
 73
  -583
 74
  -595
  0
VERTEX
  5
7D6
  8
0
 62
   136
 10
0.0
 20
0.0
 30
0.0
 70
   128
 71
  -595
 72
   583
 73
  -584
 74
  -595
  0
VERTEX
  5
7D7
  8
0
 62
   136
 10
0.0
 20
0.0
 30
0.0
 70
   128
 71
  -595
 72
   584
 73
  -585
 74
  -595
  0
VERTEX
  5
7D8
  8
0
 62
   136
 10
0.0
 20
0.0
 30
0.0
 70
   128
 71
  -595
 72
   585
 73
  -586
 74
  -595
  0
VERTEX
  5
7D9
  8
0
 62
   136
 10
0.0
 20
0.0
 30
0.0
 70
   128
 71
  -595
 72
   586
 73
  -587
 74
  -595
  0
VERTEX
  5
7DA
  8
0
 62
   136
 10
0.0
 20
0.0
 30
0.0
 70
   128
 71
  -595
 72
   587
 73
  -588
 74
  -595
  0
VERTEX
  5
7DB
  8
0
 62
   136
 10
0.0
 20
0.0
 30
0.0
 70
   128
 71
  -595
 72
   588
 73
  -589
 74
  -595
  0
VERTEX
  5
7DC
  8
0
 62
   136
 10
0.0
 20
0.0
 30
0.0
 70
   128
 71
  -595
 72
   589
 73
  -590
 74
  -595
  0
VERTEX
  5
7DD
  8
0
 62
   136
 10
0.0
 20
0.0
 30
0.0
 70
   128
 71
  -595
 72
   590
 73
  -591
 74
  -595
  0
VERTEX
  5
7DE
  8
0
 62
   136
 10
0.0
 20
0.0
 30
0.0
 70
   128
 71
  -595
 72
   591
 73
  -592
 74
  -595
  0
VERTEX
  5
7DF
  8
0
 62
   136
 10
0.0
 20
0.0
 30
0.0
 70
   128
 71
  -595
 72
   592
 73
  -593
 74
  -595
  0
VERTEX
  5
7E0
  8
0
 62
   136
 10
0.0
 20
0.0
 30
0.0
 70
   128
 71
  -595
 72
   593
 73
  -594
 74
  -595
  0
VERTEX
  5
7E1
  8
0
 62
   136
 10
0.0
 20
0.0
 30
0.0
 70
   128
 71
  -595
 72
   594
 73
  -581
 74
  -595
  0
SEQEND
  5
7E2
  8
0
 62
   136
  0
ENDSEC
  0
EOF
