  0
SECTION
  2
HEADER
  9
$ACADVER
  1
AC1009
  9
$INSBASE
 10
0.0
 20
0.0
 30
0.0
  9
$EXTMIN
 10
-5.8678817749023429
 20
0.0
 30
0.0
  9
$EXTMAX
 10
14.569351196289061
 20
34.999565124511719
 30
0.0
  9
$LIMMIN
 10
0.0
 20
0.0
  9
$LIMMAX
 10
12.0
 20
9.0
  9
$ORTHOMODE
 70
     0
  9
$REGENMODE
 70
     1
  9
$FILLMODE
 70
     1
  9
$QTEXTMODE
 70
     0
  9
$MIRRTEXT
 70
     1
  9
$DRAGMODE
 70
     2
  9
$LTSCALE
 40
1.0
  9
$OSMODE
 70
    37
  9
$ATTMODE
 70
     1
  9
$TEXTSIZE
 40
0.2
  9
$TRACEWID
 40
0.05
  9
$TEXTSTYLE
  7
STANDARD
  9
$CLAYER
  8
LAYER_1
  9
$CELTYPE
  6
BYLAYER
  9
$CECOLOR
 62
   256
  9
$DIMSCALE
 40
1.0
  9
$DIMASZ
 40
0.18
  9
$DIMEXO
 40
0.0625
  9
$DIMDLI
 40
0.38
  9
$DIMRND
 40
0.0
  9
$DIMDLE
 40
0.0
  9
$DIMEXE
 40
0.18
  9
$DIMTP
 40
0.0
  9
$DIMTM
 40
0.0
  9
$DIMTXT
 40
0.18
  9
$DIMCEN
 40
0.09
  9
$DIMTSZ
 40
0.0
  9
$DIMTOL
 70
     0
  9
$DIMLIM
 70
     0
  9
$DIMTIH
 70
     1
  9
$DIMTOH
 70
     1
  9
$DIMSE1
 70
     0
  9
$DIMSE2
 70
     0
  9
$DIMTAD
 70
     0
  9
$DIMZIN
 70
     0
  9
$DIMBLK
  1

  9
$DIMASO
 70
     1
  9
$DIMSHO
 70
     1
  9
$DIMPOST
  1

  9
$DIMAPOST
  1

  9
$DIMALT
 70
     0
  9
$DIMALTD
 70
     2
  9
$DIMALTF
 40
25.399999999999999
  9
$DIMLFAC
 40
1.0
  9
$DIMTOFL
 70
     0
  9
$DIMTVP
 40
0.0
  9
$DIMTIX
 70
     0
  9
$DIMSOXD
 70
     0
  9
$DIMSAH
 70
     0
  9
$DIMBLK1
  1

  9
$DIMBLK2
  1

  9
$DIMSTYLE
  2
STANDARD
  9
$DIMCLRD
 70
     0
  9
$DIMCLRE
 70
     0
  9
$DIMCLRT
 70
     0
  9
$DIMTFAC
 40
1.0
  9
$DIMGAP
 40
0.09
  9
$LUNITS
 70
     2
  9
$LUPREC
 70
     4
  9
$SKETCHINC
 40
0.1
  9
$FILLETRAD
 40
0.5
  9
$AUNITS
 70
     0
  9
$AUPREC
 70
     0
  9
$MENU
  1
.
  9
$ELEVATION
 40
0.0
  9
$PELEVATION
 40
0.0
  9
$THICKNESS
 40
0.0
  9
$LIMCHECK
 70
     0
  9
$BLIPMODE
 70
     0
  9
$CHAMFERA
 40
0.5
  9
$CHAMFERB
 40
0.5
  9
$SKPOLY
 70
     0
  9
$TDCREATE
 40
2451380.5970990621
  9
$TDUPDATE
 40
2454239.5615503821
  9
$TDINDWG
 40
0.0704506597
  9
$TDUSRTIMER
 40
0.0704416204
  9
$USRTIMER
 70
     1
  9
$ANGBASE
 50
0.0
  9
$ANGDIR
 70
     0
  9
$PDMODE
 70
     0
  9
$PDSIZE
 40
0.0
  9
$PLINEWID
 40
0.0
  9
$COORDS
 70
     2
  9
$SPLFRAME
 70
     0
  9
$SPLINETYPE
 70
     6
  9
$SPLINESEGS
 70
     8
  9
$ATTDIA
 70
     0
  9
$ATTREQ
 70
     1
  9
$HANDLING
 70
     1
  9
$HANDSEED
  5
2646
  9
$SURFTAB1
 70
     6
  9
$SURFTAB2
 70
     6
  9
$SURFTYPE
 70
     6
  9
$SURFU
 70
     6
  9
$SURFV
 70
     6
  9
$UCSNAME
  2

  9
$UCSORG
 10
0.0
 20
0.0
 30
0.0
  9
$UCSXDIR
 10
1.0
 20
0.0
 30
0.0
  9
$UCSYDIR
 10
0.0
 20
1.0
 30
0.0
  9
$PUCSNAME
  2

  9
$PUCSORG
 10
0.0
 20
0.0
 30
0.0
  9
$PUCSXDIR
 10
1.0
 20
0.0
 30
0.0
  9
$PUCSYDIR
 10
0.0
 20
1.0
 30
0.0
  9
$USERI1
 70
     0
  9
$USERI2
 70
     0
  9
$USERI3
 70
     0
  9
$USERI4
 70
     0
  9
$USERI5
 70
     0
  9
$USERR1
 40
0.0
  9
$USERR2
 40
0.0
  9
$USERR3
 40
0.0
  9
$USERR4
 40
0.0
  9
$USERR5
 40
0.0
  9
$WORLDVIEW
 70
     1
  9
$SHADEDGE
 70
     3
  9
$SHADEDIF
 70
    70
  9
$TILEMODE
 70
     1
  9
$MAXACTVP
 70
    64
  9
$PLIMCHECK
 70
     0
  9
$PEXTMIN
 10
1.0000000000000000E+020
 20
1.0000000000000000E+020
 30
1.0000000000000000E+020
  9
$PEXTMAX
 10
-1.0000000000000000E+020
 20
-1.0000000000000000E+020
 30
-1.0000000000000000E+020
  9
$PLIMMIN
 10
0.0
 20
0.0
  9
$PLIMMAX
 10
12.0
 20
9.0
  9
$UNITMODE
 70
     0
  9
$VISRETAIN
 70
     1
  9
$PLINEGEN
 70
     0
  9
$PSLTSCALE
 70
     1
  0
ENDSEC
  0
SECTION
  2
TABLES
  0
TABLE
  2
VPORT
 70
     2
  0
VPORT
  2
*ACTIVE
 70
     0
 10
0.0
 20
0.0
 11
1.0
 21
1.0
 12
9.6365989886334873
 22
18.677122249180719
 13
0.0
 23
0.0
 14
0.5
 24
0.5
 15
0.5
 25
0.5
 16
0.0
 26
0.0
 36
1.0
 17
0.0
 27
0.0
 37
0.0
 40
52.299751166551488
 41
1.703125
 42
50.0
 43
0.0
 44
0.0
 50
0.0
 51
0.0
 71
     0
 72
   100
 73
     1
 74
     3
 75
     0
 76
     0
 77
     0
 78
     0
  0
ENDTAB
  0
TABLE
  2
LTYPE
 70
     1
  0
LTYPE
  2
CONTINUOUS
 70
     0
  3
Solid line
 72
    65
 73
     0
 40
0.0
  0
ENDTAB
  0
TABLE
  2
LAYER
 70
     2
  0
LAYER
  2
0
 70
     0
 62
     7
  6
CONTINUOUS
  0
LAYER
  2
LAYER_1
 70
     0
 62
   160
  6
CONTINUOUS
  0
ENDTAB
  0
TABLE
  2
STYLE
 70
     1
  0
STYLE
  2
STANDARD
 70
     0
 40
0.0
 41
1.0
 50
0.0
 71
     0
 42
0.2
  3
txt
  4

  0
ENDTAB
  0
TABLE
  2
VIEW
 70
     0
  0
ENDTAB
  0
TABLE
  2
UCS
 70
     0
  0
ENDTAB
  0
TABLE
  2
APPID
 70
     1
  0
APPID
  2
ACAD
 70
     0
  0
ENDTAB
  0
TABLE
  2
DIMSTYLE
 70
     1
  0
DIMSTYLE
  2
STANDARD
 70
     0
  3

  4

  5

  6

  7

 40
1.0
 41
0.18
 42
0.0625
 43
0.38
 44
0.18
 45
0.0
 46
0.0
 47
0.0
 48
0.0
140
0.18
141
0.09
142
0.0
143
25.399999999999999
144
1.0
145
0.0
146
1.0
147
0.09
 71
     0
 72
     0
 73
     1
 74
     1
 75
     0
 76
     0
 77
     0
 78
     0
170
     0
171
     2
172
     0
173
     0
174
     0
175
     0
176
     0
177
     0
178
     0
  0
ENDTAB
  0
ENDSEC
  0
SECTION
  2
BLOCKS
  0
BLOCK
  8
0
  2
$MODEL_SPACE
 70
     0
 10
0.0
 20
0.0
 30
0.0
  3
$MODEL_SPACE
  1

  0
ENDBLK
  5
F
  8
0
  0
BLOCK
 67
     1
  8
0
  2
$PAPER_SPACE
 70
     0
 10
0.0
 20
0.0
 30
0.0
  3
$PAPER_SPACE
  1

  0
ENDBLK
  5
14
 67
     1
  8
0
  0
ENDSEC
  0
SECTION
  2
ENTITIES
  0
POLYLINE
  5
32
  8
LAYER_1
 62
     0
 66
     1
 10
0.0
 20
0.0
 30
0.0
 70
     1
  0
VERTEX
  5
24D8
  8
LAYER_1
 62
     0
 10
-0.2740325927734375
 20
0.2830581665039062
 30
0.0
  0
VERTEX
  5
24D9
  8
LAYER_1
 62
     0
 10
-0.142913818359375
 20
0.05987548828125
 30
0.0
  0
SEQEND
  5
24DA
  8
LAYER_1
 62
     0
  0
POLYLINE
  5
33
  8
LAYER_1
 62
     0
 66
     1
 10
0.0
 20
0.0
 30
0.0
 70
     1
  0
VERTEX
  5
24DB
  8
LAYER_1
 62
     0
 10
-0.142913818359375
 20
0.05987548828125
 30
0.0
  0
VERTEX
  5
24DC
  8
LAYER_1
 62
     0
 10
0.0
 20
0.0
 30
0.0
  0
SEQEND
  5
24DD
  8
LAYER_1
 62
     0
  0
POLYLINE
  5
23F
  8
LAYER_1
 62
     0
 66
     1
 10
0.0
 20
0.0
 30
0.0
 70
     9
  0
VERTEX
  5
240
  8
LAYER_1
 62
     0
 10
1.2678070068359371
 20
10.74960327148437
 30
0.0
 70
    32
  0
VERTEX
  5
241
  8
LAYER_1
 62
     0
 10
1.2678070068359371
 20
10.449081420898439
 30
0.0
 70
    32
  0
VERTEX
  5
242
  8
LAYER_1
 62
     0
 10
1.267730712890625
 20
10.148513793945311
 30
0.0
 70
    32
  0
VERTEX
  5
243
  8
LAYER_1
 62
     0
 10
1.2676544189453121
 20
9.9982223510742187
 30
0.0
 70
    32
  0
VERTEX
  5
244
  8
LAYER_1
 62
     0
 10
1.267547607421875
 20
9.8479080200195313
 30
0.0
 70
    32
  0
VERTEX
  5
245
  8
LAYER_1
 62
     0
 10
1.2674102783203121
 20
9.69757080078125
 30
0.0
 70
    32
  0
VERTEX
  5
246
  8
LAYER_1
 62
     0
 10
1.2672119140625
 20
9.5472030639648437
 30
0.0
 70
    32
  0
SEQEND
  5
247
  8
LAYER_1
 62
     0
  0
POLYLINE
  5
1C38
  8
LAYER_1
 62
     0
 66
     1
 10
0.0
 20
0.0
 30
0.0
 70
     9
  0
VERTEX
  5
1C39
  8
LAYER_1
 62
     0
 10
-0.757293701171875
 20
29.450881958007809
 30
0.0
 70
    32
  0
VERTEX
  5
1C3A
  8
LAYER_1
 62
     0
 10
-0.79998779296875
 20
29.571243286132809
 30
0.0
 70
    32
  0
SEQEND
  5
1C3B
  8
LAYER_1
 62
     0
  0
POLYLINE
  5
1C3C
  8
LAYER_1
 62
     0
 66
     1
 10
0.0
 20
0.0
 30
0.0
 70
     9
  0
VERTEX
  5
1C3D
  8
LAYER_1
 62
     0
 10
-0.7145919799804688
 20
29.326896667480469
 30
0.0
 70
    32
  0
VERTEX
  5
1C3E
  8
LAYER_1
 62
     0
 10
-0.757293701171875
 20
29.450881958007809
 30
0.0
 70
    32
  0
SEQEND
  5
1C3F
  8
LAYER_1
 62
     0
  0
POLYLINE
  5
1C40
  8
LAYER_1
 62
     0
 66
     1
 10
0.0
 20
0.0
 30
0.0
 70
     9
  0
VERTEX
  5
1C41
  8
LAYER_1
 62
     0
 10
-0.6728057861328125
 20
29.202598571777351
 30
0.0
 70
    32
  0
VERTEX
  5
1C42
  8
LAYER_1
 62
     0
 10
-0.7145919799804688
 20
29.326896667480469
 30
0.0
 70
    32
  0
SEQEND
  5
1C43
  8
LAYER_1
 62
     0
  0
POLYLINE
  5
1C44
  8
LAYER_1
 62
     0
 66
     1
 10
0.0
 20
0.0
 30
0.0
 70
     9
  0
VERTEX
  5
1C45
  8
LAYER_1
 62
     0
 10
-0.632843017578125
 20
29.078910827636719
 30
0.0
 70
    32
  0
VERTEX
  5
1C46
  8
LAYER_1
 62
     0
 10
-0.6728057861328125
 20
29.202598571777351
 30
0.0
 70
    32
  0
SEQEND
  5
1C47
  8
LAYER_1
 62
     0
  0
POLYLINE
  5
1C48
  8
LAYER_1
 62
     0
 66
     1
 10
0.0
 20
0.0
 30
0.0
 70
     9
  0
VERTEX
  5
1C49
  8
LAYER_1
 62
     0
 10
-0.5940780639648438
 20
28.956130981445309
 30
0.0
 70
    32
  0
VERTEX
  5
1C4A
  8
LAYER_1
 62
     0
 10
-0.632843017578125
 20
29.078910827636719
 30
0.0
 70
    32
  0
SEQEND
  5
1C4B
  8
LAYER_1
 62
     0
  0
POLYLINE
  5
1C4C
  8
LAYER_1
 62
     0
 66
     1
 10
0.0
 20
0.0
 30
0.0
 70
     9
  0
VERTEX
  5
1C4D
  8
LAYER_1
 62
     0
 10
-0.5565338134765625
 20
28.833351135253899
 30
0.0
 70
    32
  0
VERTEX
  5
1C4E
  8
LAYER_1
 62
     0
 10
-0.5940780639648438
 20
28.956130981445309
 30
0.0
 70
    32
  0
SEQEND
  5
1C4F
  8
LAYER_1
 62
     0
  0
POLYLINE
  5
1C50
  8
LAYER_1
 62
     0
 66
     1
 10
0.0
 20
0.0
 30
0.0
 70
     9
  0
VERTEX
  5
1C51
  8
LAYER_1
 62
     0
 10
-0.5208053588867188
 20
28.711479187011719
 30
0.0
 70
    32
  0
VERTEX
  5
1C52
  8
LAYER_1
 62
     0
 10
-0.5565338134765625
 20
28.833351135253899
 30
0.0
 70
    32
  0
SEQEND
  5
1C53
  8
LAYER_1
 62
     0
  0
POLYLINE
  5
1C54
  8
LAYER_1
 62
     0
 66
     1
 10
0.0
 20
0.0
 30
0.0
 70
     9
  0
VERTEX
  5
1C55
  8
LAYER_1
 62
     0
 10
-0.4862899780273438
 20
28.58990478515625
 30
0.0
 70
    32
  0
VERTEX
  5
1C56
  8
LAYER_1
 62
     0
 10
-0.5208053588867188
 20
28.711479187011719
 30
0.0
 70
    32
  0
SEQEND
  5
1C57
  8
LAYER_1
 62
     0
  0
POLYLINE
  5
1C58
  8
LAYER_1
 62
     0
 66
     1
 10
0.0
 20
0.0
 30
0.0
 70
     9
  0
VERTEX
  5
1C59
  8
LAYER_1
 62
     0
 10
-0.4526748657226563
 20
28.468338012695309
 30
0.0
 70
    32
  0
VERTEX
  5
1C5A
  8
LAYER_1
 62
     0
 10
-0.4862899780273438
 20
28.58990478515625
 30
0.0
 70
    32
  0
SEQEND
  5
1C5B
  8
LAYER_1
 62
     0
  0
POLYLINE
  5
1C5C
  8
LAYER_1
 62
     0
 66
     1
 10
0.0
 20
0.0
 30
0.0
 70
     9
  0
VERTEX
  5
1C5D
  8
LAYER_1
 62
     0
 10
-0.4205780029296875
 20
28.347671508789059
 30
0.0
 70
    32
  0
VERTEX
  5
1C5E
  8
LAYER_1
 62
     0
 10
-0.4526748657226563
 20
28.468338012695309
 30
0.0
 70
    32
  0
SEQEND
  5
1C5F
  8
LAYER_1
 62
     0
  0
POLYLINE
  5
1C60
  8
LAYER_1
 62
     0
 66
     1
 10
0.0
 20
0.0
 30
0.0
 70
     9
  0
VERTEX
  5
1C61
  8
LAYER_1
 62
     0
 10
-0.3902969360351562
 20
28.227012634277351
 30
0.0
 70
    32
  0
VERTEX
  5
1C62
  8
LAYER_1
 62
     0
 10
-0.4205780029296875
 20
28.347671508789059
 30
0.0
 70
    32
  0
SEQEND
  5
1C63
  8
LAYER_1
 62
     0
  0
POLYLINE
  5
1C64
  8
LAYER_1
 62
     0
 66
     1
 10
0.0
 20
0.0
 30
0.0
 70
     9
  0
VERTEX
  5
1C65
  8
LAYER_1
 62
     0
 10
-0.360321044921875
 20
28.107254028320309
 30
0.0
 70
    32
  0
VERTEX
  5
1C66
  8
LAYER_1
 62
     0
 10
-0.3902969360351562
 20
28.227012634277351
 30
0.0
 70
    32
  0
SEQEND
  5
1C67
  8
LAYER_1
 62
     0
  0
POLYLINE
  5
1C68
  8
LAYER_1
 62
     0
 66
     1
 10
0.0
 20
0.0
 30
0.0
 70
     9
  0
VERTEX
  5
1C69
  8
LAYER_1
 62
     0
 10
-0.3321609497070312
 20
27.98870849609375
 30
0.0
 70
    32
  0
VERTEX
  5
1C6A
  8
LAYER_1
 62
     0
 10
-0.360321044921875
 20
28.107254028320309
 30
0.0
 70
    32
  0
SEQEND
  5
1C6B
  8
LAYER_1
 62
     0
  0
POLYLINE
  5
1C6C
  8
LAYER_1
 62
     0
 66
     1
 10
0.0
 20
0.0
 30
0.0
 70
     9
  0
VERTEX
  5
1C6D
  8
LAYER_1
 62
     0
 10
-0.3052139282226562
 20
27.869857788085941
 30
0.0
 70
    32
  0
VERTEX
  5
1C6E
  8
LAYER_1
 62
     0
 10
-0.3321609497070312
 20
27.98870849609375
 30
0.0
 70
    32
  0
SEQEND
  5
1C6F
  8
LAYER_1
 62
     0
  0
POLYLINE
  5
1C70
  8
LAYER_1
 62
     0
 66
     1
 10
0.0
 20
0.0
 30
0.0
 70
     9
  0
VERTEX
  5
1C71
  8
LAYER_1
 62
     0
 10
-0.2803878784179687
 20
27.75705718994141
 30
0.0
 70
    32
  0
VERTEX
  5
1C72
  8
LAYER_1
 62
     0
 10
-0.3052139282226562
 20
27.869857788085941
 30
0.0
 70
    32
  0
SEQEND
  5
1C73
  8
LAYER_1
 62
     0
  0
POLYLINE
  5
1C7C
  8
LAYER_1
 62
     0
 66
     1
 10
0.0
 20
0.0
 30
0.0
 70
     9
  0
VERTEX
  5
1C7D
  8
LAYER_1
 62
     0
 10
14.50970458984375
 20
28.969131469726559
 30
0.0
 70
    32
  0
VERTEX
  5
1C7E
  8
LAYER_1
 62
     0
 10
14.50576782226562
 20
28.813385009765629
 30
0.0
 70
    32
  0
SEQEND
  5
1C7F
  8
LAYER_1
 62
     0
  0
POLYLINE
  5
1C80
  8
LAYER_1
 62
     0
 66
     1
 10
0.0
 20
0.0
 30
0.0
 70
     9
  0
VERTEX
  5
1C81
  8
LAYER_1
 62
     0
 10
14.50970458984375
 20
34.935462951660163
 30
0.0
 70
    32
  0
VERTEX
  5
1C82
  8
LAYER_1
 62
     0
 10
14.50970458984375
 20
34.775787353515632
 30
0.0
 70
    32
  0
SEQEND
  5
1C83
  8
LAYER_1
 62
     0
  0
POLYLINE
  5
1C84
  8
LAYER_1
 62
     0
 66
     1
 10
0.0
 20
0.0
 30
0.0
 70
     9
  0
VERTEX
  5
1C85
  8
LAYER_1
 62
     0
 10
1.2678070068359371
 20
27.559577941894531
 30
0.0
 70
    32
  0
VERTEX
  5
1C86
  8
LAYER_1
 62
     0
 10
1.2678070068359371
 20
23.37973785400391
 30
0.0
 70
    32
  0
VERTEX
  5
1C87
  8
LAYER_1
 62
     0
 10
1.2678070068359371
 20
22.334724426269531
 30
0.0
 70
    32
  0
VERTEX
  5
1C88
  8
LAYER_1
 62
     0
 10
1.2678070068359371
 20
22.073478698730469
 30
0.0
 70
    32
  0
VERTEX
  5
1C89
  8
LAYER_1
 62
     0
 10
1.2678070068359371
 20
22.008163452148441
 30
0.0
 70
    32
  0
VERTEX
  5
1C8A
  8
LAYER_1
 62
     0
 10
1.2678070068359371
 20
21.942520141601559
 30
0.0
 70
    32
  0
VERTEX
  5
1C8B
  8
LAYER_1
 62
     0
 10
1.2678070068359371
 20
21.81087493896484
 30
0.0
 70
    32
  0
VERTEX
  5
1C8C
  8
LAYER_1
 62
     0
 10
1.2678070068359371
 20
21.2843017578125
 30
0.0
 70
    32
  0
VERTEX
  5
1C8D
  8
LAYER_1
 62
     0
 10
1.2678070068359371
 20
19.178031921386719
 30
0.0
 70
    32
  0
VERTEX
  5
1C8E
  8
LAYER_1
 62
     0
 10
1.2678070068359371
 20
17.071754455566399
 30
0.0
 70
    32
  0
VERTEX
  5
1C8F
  8
LAYER_1
 62
     0
 10
1.2678070068359371
 20
16.018440246582031
 30
0.0
 70
    32
  0
VERTEX
  5
1C90
  8
LAYER_1
 62
     0
 10
1.2678070068359371
 20
14.964706420898439
 30
0.0
 70
    32
  0
VERTEX
  5
1C91
  8
LAYER_1
 62
     0
 10
1.2678070068359371
 20
10.74960327148437
 30
0.0
 70
    32
  0
SEQEND
  5
1C92
  8
LAYER_1
 62
     0
  0
POLYLINE
  5
1C93
  8
LAYER_1
 62
     0
 66
     1
 10
0.0
 20
0.0
 30
0.0
 70
     9
  0
VERTEX
  5
1C94
  8
LAYER_1
 62
     0
 10
7.4730224609375
 20
28.749275207519531
 30
0.0
 70
    32
  0
VERTEX
  5
1C95
  8
LAYER_1
 62
     0
 10
7.472076416015625
 20
28.749275207519531
 30
0.0
 70
    32
  0
VERTEX
  5
1C96
  8
LAYER_1
 62
     0
 10
7.4711151123046866
 20
28.749275207519531
 30
0.0
 70
    32
  0
VERTEX
  5
1C97
  8
LAYER_1
 62
     0
 10
7.4701385498046866
 20
28.749275207519531
 30
0.0
 70
    32
  0
VERTEX
  5
1C98
  8
LAYER_1
 62
     0
 10
7.46917724609375
 20
28.749275207519531
 30
0.0
 70
    32
  0
VERTEX
  5
1C99
  8
LAYER_1
 62
     0
 10
7.467864990234375
 20
28.749275207519531
 30
0.0
 70
    32
  0
VERTEX
  5
1C9A
  8
LAYER_1
 62
     0
 10
7.466888427734375
 20
28.749275207519531
 30
0.0
 70
    32
  0
VERTEX
  5
1C9B
  8
LAYER_1
 62
     0
 10
7.4659271240234366
 20
28.749275207519531
 30
0.0
 70
    32
  0
VERTEX
  5
1C9C
  8
LAYER_1
 62
     0
 10
7.464935302734375
 20
28.749275207519531
 30
0.0
 70
    32
  0
VERTEX
  5
1C9D
  8
LAYER_1
 62
     0
 10
7.4639892578125
 20
28.749275207519531
 30
0.0
 70
    32
  0
VERTEX
  5
1C9E
  8
LAYER_1
 62
     0
 10
7.463043212890625
 20
28.749275207519531
 30
0.0
 70
    32
  0
VERTEX
  5
1C9F
  8
LAYER_1
 62
     0
 10
7.4621429443359366
 20
28.749275207519531
 30
0.0
 70
    32
  0
VERTEX
  5
1CA0
  8
LAYER_1
 62
     0
 10
7.460601806640625
 20
28.749275207519531
 30
0.0
 70
    32
  0
SEQEND
  5
1CA1
  8
LAYER_1
 62
     0
  0
POLYLINE
  5
2134
  8
LAYER_1
 62
     0
 66
     1
 10
0.0
 20
0.0
 30
0.0
 70
     9
  0
VERTEX
  5
2135
  8
LAYER_1
 62
     0
 10
14.448837280273439
 20
34.999565124511719
 30
0.0
 70
    32
  0
VERTEX
  5
2136
  8
LAYER_1
 62
     0
 10
14.45001220703125
 20
34.999557495117188
 30
0.0
 70
    32
  0
VERTEX
  5
2137
  8
LAYER_1
 62
     0
 10
14.451171875
 20
34.99952697753907
 30
0.0
 70
    32
  0
VERTEX
  5
2138
  8
LAYER_1
 62
     0
 10
14.45233154296875
 20
34.999473571777351
 30
0.0
 70
    32
  0
VERTEX
  5
2139
  8
LAYER_1
 62
     0
 10
14.453475952148439
 20
34.9993896484375
 30
0.0
 70
    32
  0
VERTEX
  5
213A
  8
LAYER_1
 62
     0
 10
14.45462036132812
 20
34.999298095703132
 30
0.0
 70
    32
  0
VERTEX
  5
213B
  8
LAYER_1
 62
     0
 10
14.455764770507811
 20
34.999176025390632
 30
0.0
 70
    32
  0
VERTEX
  5
213C
  8
LAYER_1
 62
     0
 10
14.456893920898439
 20
34.999046325683587
 30
0.0
 70
    32
  0
VERTEX
  5
213D
  8
LAYER_1
 62
     0
 10
14.4580078125
 20
34.998886108398438
 30
0.0
 70
    32
  0
VERTEX
  5
213E
  8
LAYER_1
 62
     0
 10
14.459121704101561
 20
34.998695373535163
 30
0.0
 70
    32
  0
VERTEX
  5
213F
  8
LAYER_1
 62
     0
 10
14.46023559570312
 20
34.998497009277351
 30
0.0
 70
    32
  0
VERTEX
  5
2140
  8
LAYER_1
 62
     0
 10
14.46133422851562
 20
34.998268127441413
 30
0.0
 70
    32
  0
VERTEX
  5
2141
  8
LAYER_1
 62
     0
 10
14.46243286132812
 20
34.998023986816413
 30
0.0
 70
    32
  0
VERTEX
  5
2142
  8
LAYER_1
 62
     0
 10
14.46353149414062
 20
34.997772216796882
 30
0.0
 70
    32
  0
VERTEX
  5
2143
  8
LAYER_1
 62
     0
 10
14.464614868164061
 20
34.997489929199219
 30
0.0
 70
    32
  0
VERTEX
  5
2144
  8
LAYER_1
 62
     0
 10
14.465682983398439
 20
34.997184753417969
 30
0.0
 70
    32
  0
VERTEX
  5
2145
  8
LAYER_1
 62
     0
 10
14.466751098632811
 20
34.996871948242188
 30
0.0
 70
    32
  0
VERTEX
  5
2146
  8
LAYER_1
 62
     0
 10
14.467788696289061
 20
34.996528625488281
 30
0.0
 70
    32
  0
VERTEX
  5
2147
  8
LAYER_1
 62
     0
 10
14.46884155273437
 20
34.996177673339837
 30
0.0
 70
    32
  0
VERTEX
  5
2148
  8
LAYER_1
 62
     0
 10
14.46987915039062
 20
34.995803833007812
 30
0.0
 70
    32
  0
VERTEX
  5
2149
  8
LAYER_1
 62
     0
 10
14.470901489257811
 20
34.995399475097663
 30
0.0
 70
    32
  0
VERTEX
  5
214A
  8
LAYER_1
 62
     0
 10
14.471923828125
 20
34.994987487792969
 30
0.0
 70
    32
  0
VERTEX
  5
214B
  8
LAYER_1
 62
     0
 10
14.47293090820312
 20
34.994560241699219
 30
0.0
 70
    32
  0
VERTEX
  5
214C
  8
LAYER_1
 62
     0
 10
14.47393798828125
 20
34.994117736816413
 30
0.0
 70
    32
  0
VERTEX
  5
214D
  8
LAYER_1
 62
     0
 10
14.47491455078125
 20
34.993644714355469
 30
0.0
 70
    32
  0
VERTEX
  5
214E
  8
LAYER_1
 62
     0
 10
14.47589111328125
 20
34.9931640625
 30
0.0
 70
    32
  0
VERTEX
  5
214F
  8
LAYER_1
 62
     0
 10
14.47686767578125
 20
34.992668151855469
 30
0.0
 70
    32
  0
VERTEX
  5
2150
  8
LAYER_1
 62
     0
 10
14.477828979492189
 20
34.992149353027351
 30
0.0
 70
    32
  0
VERTEX
  5
2151
  8
LAYER_1
 62
     0
 10
14.478775024414061
 20
34.991607666015618
 30
0.0
 70
    32
  0
VERTEX
  5
2152
  8
LAYER_1
 62
     0
 10
14.47970581054687
 20
34.991058349609382
 30
0.0
 70
    32
  0
VERTEX
  5
2153
  8
LAYER_1
 62
     0
 10
14.48062133789062
 20
34.990501403808587
 30
0.0
 70
    32
  0
VERTEX
  5
2154
  8
LAYER_1
 62
     0
 10
14.481552124023439
 20
34.989913940429688
 30
0.0
 70
    32
  0
VERTEX
  5
2155
  8
LAYER_1
 62
     0
 10
14.48245239257812
 20
34.98931884765625
 30
0.0
 70
    32
  0
VERTEX
  5
2156
  8
LAYER_1
 62
     0
 10
14.48333740234375
 20
34.98870849609375
 30
0.0
 70
    32
  0
VERTEX
  5
2157
  8
LAYER_1
 62
     0
 10
14.48422241210937
 20
34.988075256347663
 30
0.0
 70
    32
  0
VERTEX
  5
2158
  8
LAYER_1
 62
     0
 10
14.48507690429687
 20
34.987434387207031
 30
0.0
 70
    32
  0
VERTEX
  5
2159
  8
LAYER_1
 62
     0
 10
14.48593139648437
 20
34.986763000488281
 30
0.0
 70
    32
  0
VERTEX
  5
215A
  8
LAYER_1
 62
     0
 10
14.48678588867187
 20
34.986091613769531
 30
0.0
 70
    32
  0
VERTEX
  5
215B
  8
LAYER_1
 62
     0
 10
14.48760986328125
 20
34.985397338867188
 30
0.0
 70
    32
  0
VERTEX
  5
215C
  8
LAYER_1
 62
     0
 10
14.48843383789062
 20
34.984695434570312
 30
0.0
 70
    32
  0
VERTEX
  5
215D
  8
LAYER_1
 62
     0
 10
14.48922729492187
 20
34.983978271484368
 30
0.0
 70
    32
  0
VERTEX
  5
215E
  8
LAYER_1
 62
     0
 10
14.49002075195312
 20
34.983238220214851
 30
0.0
 70
    32
  0
VERTEX
  5
215F
  8
LAYER_1
 62
     0
 10
14.49078369140625
 20
34.982498168945313
 30
0.0
 70
    32
  0
VERTEX
  5
2160
  8
LAYER_1
 62
     0
 10
14.491561889648439
 20
34.981735229492187
 30
0.0
 70
    32
  0
VERTEX
  5
2161
  8
LAYER_1
 62
     0
 10
14.4923095703125
 20
34.980964660644531
 30
0.0
 70
    32
  0
VERTEX
  5
2162
  8
LAYER_1
 62
     0
 10
14.4930419921875
 20
34.980171203613281
 30
0.0
 70
    32
  0
VERTEX
  5
2163
  8
LAYER_1
 62
     0
 10
14.4937744140625
 20
34.97938537597657
 30
0.0
 70
    32
  0
VERTEX
  5
2164
  8
LAYER_1
 62
     0
 10
14.49447631835937
 20
34.978561401367188
 30
0.0
 70
    32
  0
VERTEX
  5
2165
  8
LAYER_1
 62
     0
 10
14.49516296386718
 20
34.977737426757813
 30
0.0
 70
    32
  0
VERTEX
  5
2166
  8
LAYER_1
 62
     0
 10
14.495849609375
 20
34.976890563964851
 30
0.0
 70
    32
  0
VERTEX
  5
2167
  8
LAYER_1
 62
     0
 10
14.496505737304689
 20
34.976043701171868
 30
0.0
 70
    32
  0
VERTEX
  5
2168
  8
LAYER_1
 62
     0
 10
14.49716186523437
 20
34.975189208984382
 30
0.0
 70
    32
  0
VERTEX
  5
2169
  8
LAYER_1
 62
     0
 10
14.497787475585939
 20
34.97430419921875
 30
0.0
 70
    32
  0
VERTEX
  5
216A
  8
LAYER_1
 62
     0
 10
14.4984130859375
 20
34.973419189453132
 30
0.0
 70
    32
  0
VERTEX
  5
216B
  8
LAYER_1
 62
     0
 10
14.499008178710939
 20
34.972526550292969
 30
0.0
 70
    32
  0
VERTEX
  5
216C
  8
LAYER_1
 62
     0
 10
14.499588012695311
 20
34.971611022949219
 30
0.0
 70
    32
  0
VERTEX
  5
216D
  8
LAYER_1
 62
     0
 10
14.500167846679689
 20
34.970687866210937
 30
0.0
 70
    32
  0
VERTEX
  5
216E
  8
LAYER_1
 62
     0
 10
14.500717163085939
 20
34.969764709472663
 30
0.0
 70
    32
  0
VERTEX
  5
216F
  8
LAYER_1
 62
     0
 10
14.50125122070312
 20
34.96881103515625
 30
0.0
 70
    32
  0
VERTEX
  5
2170
  8
LAYER_1
 62
     0
 10
14.50177001953125
 20
34.967864990234382
 30
0.0
 70
    32
  0
VERTEX
  5
2171
  8
LAYER_1
 62
     0
 10
14.502273559570311
 20
34.966896057128913
 30
0.0
 70
    32
  0
VERTEX
  5
2172
  8
LAYER_1
 62
     0
 10
14.50274658203125
 20
34.965934753417969
 30
0.0
 70
    32
  0
VERTEX
  5
2173
  8
LAYER_1
 62
     0
 10
14.503219604492189
 20
34.964942932128913
 30
0.0
 70
    32
  0
VERTEX
  5
2174
  8
LAYER_1
 62
     0
 10
14.503677368164061
 20
34.963951110839837
 30
0.0
 70
    32
  0
VERTEX
  5
2175
  8
LAYER_1
 62
     0
 10
14.504104614257811
 20
34.962959289550781
 30
0.0
 70
    32
  0
VERTEX
  5
2176
  8
LAYER_1
 62
     0
 10
14.5045166015625
 20
34.961944580078132
 30
0.0
 70
    32
  0
VERTEX
  5
2177
  8
LAYER_1
 62
     0
 10
14.50492858886718
 20
34.960922241210938
 30
0.0
 70
    32
  0
VERTEX
  5
2178
  8
LAYER_1
 62
     0
 10
14.505294799804689
 20
34.959892272949219
 30
0.0
 70
    32
  0
VERTEX
  5
2179
  8
LAYER_1
 62
     0
 10
14.505661010742189
 20
34.9588623046875
 30
0.0
 70
    32
  0
VERTEX
  5
217A
  8
LAYER_1
 62
     0
 10
14.505996704101561
 20
34.957801818847663
 30
0.0
 70
    32
  0
VERTEX
  5
217B
  8
LAYER_1
 62
     0
 10
14.506332397460939
 20
34.956756591796882
 30
0.0
 70
    32
  0
VERTEX
  5
217C
  8
LAYER_1
 62
     0
 10
14.50662231445312
 20
34.9556884765625
 30
0.0
 70
    32
  0
VERTEX
  5
217D
  8
LAYER_1
 62
     0
 10
14.50692749023437
 20
34.954620361328132
 30
0.0
 70
    32
  0
VERTEX
  5
217E
  8
LAYER_1
 62
     0
 10
14.50717163085937
 20
34.953544616699219
 30
0.0
 70
    32
  0
VERTEX
  5
217F
  8
LAYER_1
 62
     0
 10
14.507431030273439
 20
34.952461242675781
 30
0.0
 70
    32
  0
VERTEX
  5
2180
  8
LAYER_1
 62
     0
 10
14.50765991210937
 20
34.951362609863281
 30
0.0
 70
    32
  0
VERTEX
  5
2181
  8
LAYER_1
 62
     0
 10
14.507858276367189
 20
34.950263977050781
 30
0.0
 70
    32
  0
VERTEX
  5
2182
  8
LAYER_1
 62
     0
 10
14.508056640625
 20
34.949150085449219
 30
0.0
 70
    32
  0
VERTEX
  5
2183
  8
LAYER_1
 62
     0
 10
14.50820922851562
 20
34.948043823242188
 30
0.0
 70
    32
  0
VERTEX
  5
2184
  8
LAYER_1
 62
     0
 10
14.50836181640625
 20
34.946929931640632
 30
0.0
 70
    32
  0
VERTEX
  5
2185
  8
LAYER_1
 62
     0
 10
14.50848388671875
 20
34.94580078125
 30
0.0
 70
    32
  0
VERTEX
  5
2186
  8
LAYER_1
 62
     0
 10
14.50859069824218
 20
34.944664001464837
 30
0.0
 70
    32
  0
VERTEX
  5
2187
  8
LAYER_1
 62
     0
 10
14.5086669921875
 20
34.943527221679688
 30
0.0
 70
    32
  0
VERTEX
  5
2188
  8
LAYER_1
 62
     0
 10
14.50872802734375
 20
34.9423828125
 30
0.0
 70
    32
  0
VERTEX
  5
2189
  8
LAYER_1
 62
     0
 10
14.508773803710939
 20
34.94123840332032
 30
0.0
 70
    32
  0
VERTEX
  5
218A
  8
LAYER_1
 62
     0
 10
14.5087890625
 20
34.939697265625
 30
0.0
 70
    32
  0
SEQEND
  5
218B
  8
LAYER_1
 62
     0
  0
POLYLINE
  5
218C
  8
LAYER_1
 62
     0
 66
     1
 10
0.0
 20
0.0
 30
0.0
 70
     9
  0
VERTEX
  5
218D
  8
LAYER_1
 62
     0
 10
14.5087890625
 20
28.809768676757809
 30
0.0
 70
    32
  0
VERTEX
  5
218E
  8
LAYER_1
 62
     0
 10
14.5087890625
 20
28.808586120605469
 30
0.0
 70
    32
  0
VERTEX
  5
218F
  8
LAYER_1
 62
     0
 10
14.508743286132811
 20
28.807418823242191
 30
0.0
 70
    32
  0
VERTEX
  5
2190
  8
LAYER_1
 62
     0
 10
14.50869750976562
 20
28.80625152587891
 30
0.0
 70
    32
  0
VERTEX
  5
2191
  8
LAYER_1
 62
     0
 10
14.508621215820311
 20
28.80509185791016
 30
0.0
 70
    32
  0
VERTEX
  5
2192
  8
LAYER_1
 62
     0
 10
14.50851440429687
 20
28.80393218994141
 30
0.0
 70
    32
  0
VERTEX
  5
2193
  8
LAYER_1
 62
     0
 10
14.50839233398437
 20
28.802787780761719
 30
0.0
 70
    32
  0
VERTEX
  5
2194
  8
LAYER_1
 62
     0
 10
14.50827026367187
 20
28.801651000976559
 30
0.0
 70
    32
  0
VERTEX
  5
2195
  8
LAYER_1
 62
     0
 10
14.508102416992189
 20
28.80051422119141
 30
0.0
 70
    32
  0
VERTEX
  5
2196
  8
LAYER_1
 62
     0
 10
14.5079345703125
 20
28.799385070800781
 30
0.0
 70
    32
  0
VERTEX
  5
2197
  8
LAYER_1
 62
     0
 10
14.507736206054689
 20
28.798263549804691
 30
0.0
 70
    32
  0
VERTEX
  5
2198
  8
LAYER_1
 62
     0
 10
14.50750732421875
 20
28.79715728759766
 30
0.0
 70
    32
  0
VERTEX
  5
2199
  8
LAYER_1
 62
     0
 10
14.507278442382811
 20
28.796051025390629
 30
0.0
 70
    32
  0
VERTEX
  5
219A
  8
LAYER_1
 62
     0
 10
14.507003784179689
 20
28.79496002197266
 30
0.0
 70
    32
  0
VERTEX
  5
219B
  8
LAYER_1
 62
     0
 10
14.506729125976561
 20
28.793869018554691
 30
0.0
 70
    32
  0
VERTEX
  5
219C
  8
LAYER_1
 62
     0
 10
14.506423950195311
 20
28.79278564453125
 30
0.0
 70
    32
  0
VERTEX
  5
219D
  8
LAYER_1
 62
     0
 10
14.506118774414061
 20
28.791717529296879
 30
0.0
 70
    32
  0
VERTEX
  5
219E
  8
LAYER_1
 62
     0
 10
14.505783081054689
 20
28.7906494140625
 30
0.0
 70
    32
  0
VERTEX
  5
219F
  8
LAYER_1
 62
     0
 10
14.505416870117189
 20
28.789596557617191
 30
0.0
 70
    32
  0
VERTEX
  5
21A0
  8
LAYER_1
 62
     0
 10
14.505050659179689
 20
28.788558959960941
 30
0.0
 70
    32
  0
VERTEX
  5
21A1
  8
LAYER_1
 62
     0
 10
14.504653930664061
 20
28.787521362304691
 30
0.0
 70
    32
  0
VERTEX
  5
21A2
  8
LAYER_1
 62
     0
 10
14.504257202148439
 20
28.786491394042969
 30
0.0
 70
    32
  0
VERTEX
  5
21A3
  8
LAYER_1
 62
     0
 10
14.503829956054689
 20
28.785476684570309
 30
0.0
 70
    32
  0
VERTEX
  5
21A4
  8
LAYER_1
 62
     0
 10
14.50338745117187
 20
28.78446197509766
 30
0.0
 70
    32
  0
VERTEX
  5
21A5
  8
LAYER_1
 62
     0
 10
14.502914428710939
 20
28.783462524414059
 30
0.0
 70
    32
  0
VERTEX
  5
21A6
  8
LAYER_1
 62
     0
 10
14.502426147460939
 20
28.782478332519531
 30
0.0
 70
    32
  0
VERTEX
  5
21A7
  8
LAYER_1
 62
     0
 10
14.501937866210939
 20
28.781501770019531
 30
0.0
 70
    32
  0
VERTEX
  5
21A8
  8
LAYER_1
 62
     0
 10
14.501419067382811
 20
28.780540466308601
 30
0.0
 70
    32
  0
VERTEX
  5
21A9
  8
LAYER_1
 62
     0
 10
14.50088500976562
 20
28.77957916259766
 30
0.0
 70
    32
  0
VERTEX
  5
21AA
  8
LAYER_1
 62
     0
 10
14.50033569335937
 20
28.778640747070309
 30
0.0
 70
    32
  0
VERTEX
  5
21AB
  8
LAYER_1
 62
     0
 10
14.499771118164061
 20
28.7777099609375
 30
0.0
 70
    32
  0
VERTEX
  5
21AC
  8
LAYER_1
 62
     0
 10
14.499191284179689
 20
28.776779174804691
 30
0.0
 70
    32
  0
VERTEX
  5
21AD
  8
LAYER_1
 62
     0
 10
14.498611450195311
 20
28.775871276855469
 30
0.0
 70
    32
  0
VERTEX
  5
21AE
  8
LAYER_1
 62
     0
 10
14.49798583984375
 20
28.774971008300781
 30
0.0
 70
    32
  0
VERTEX
  5
21AF
  8
LAYER_1
 62
     0
 10
14.497360229492189
 20
28.774093627929691
 30
0.0
 70
    32
  0
VERTEX
  5
21B0
  8
LAYER_1
 62
     0
 10
14.496719360351561
 20
28.773208618164059
 30
0.0
 70
    32
  0
VERTEX
  5
21B1
  8
LAYER_1
 62
     0
 10
14.49606323242187
 20
28.772346496582031
 30
0.0
 70
    32
  0
VERTEX
  5
21B2
  8
LAYER_1
 62
     0
 10
14.49539184570312
 20
28.771507263183601
 30
0.0
 70
    32
  0
VERTEX
  5
21B3
  8
LAYER_1
 62
     0
 10
14.494705200195311
 20
28.77066802978516
 30
0.0
 70
    32
  0
VERTEX
  5
21B4
  8
LAYER_1
 62
     0
 10
14.494003295898439
 20
28.769844055175781
 30
0.0
 70
    32
  0
VERTEX
  5
21B5
  8
LAYER_1
 62
     0
 10
14.4932861328125
 20
28.769027709960941
 30
0.0
 70
    32
  0
VERTEX
  5
21B6
  8
LAYER_1
 62
     0
 10
14.4925537109375
 20
28.768234252929691
 30
0.0
 70
    32
  0
VERTEX
  5
21B7
  8
LAYER_1
 62
     0
 10
14.49180603027343
 20
28.767448425292969
 30
0.0
 70
    32
  0
VERTEX
  5
21B8
  8
LAYER_1
 62
     0
 10
14.49105834960937
 20
28.766677856445309
 30
0.0
 70
    32
  0
VERTEX
  5
21B9
  8
LAYER_1
 62
     0
 10
14.49028015136718
 20
28.765922546386719
 30
0.0
 70
    32
  0
VERTEX
  5
21BA
  8
LAYER_1
 62
     0
 10
14.489486694335939
 20
28.76517486572266
 30
0.0
 70
    32
  0
VERTEX
  5
21BB
  8
LAYER_1
 62
     0
 10
14.488693237304689
 20
28.764450073242191
 30
0.0
 70
    32
  0
VERTEX
  5
21BC
  8
LAYER_1
 62
     0
 10
14.48788452148437
 20
28.76373291015625
 30
0.0
 70
    32
  0
VERTEX
  5
21BD
  8
LAYER_1
 62
     0
 10
14.487060546875
 20
28.76303863525391
 30
0.0
 70
    32
  0
VERTEX
  5
21BE
  8
LAYER_1
 62
     0
 10
14.486221313476561
 20
28.762359619140621
 30
0.0
 70
    32
  0
VERTEX
  5
21BF
  8
LAYER_1
 62
     0
 10
14.485366821289061
 20
28.761688232421879
 30
0.0
 70
    32
  0
VERTEX
  5
21C0
  8
LAYER_1
 62
     0
 10
14.4844970703125
 20
28.761032104492191
 30
0.0
 70
    32
  0
VERTEX
  5
21C1
  8
LAYER_1
 62
     0
 10
14.483627319335939
 20
28.760391235351559
 30
0.0
 70
    32
  0
VERTEX
  5
21C2
  8
LAYER_1
 62
     0
 10
14.482742309570311
 20
28.759773254394531
 30
0.0
 70
    32
  0
VERTEX
  5
21C3
  8
LAYER_1
 62
     0
 10
14.48184204101562
 20
28.759162902832031
 30
0.0
 70
    32
  0
VERTEX
  5
21C4
  8
LAYER_1
 62
     0
 10
14.48092651367187
 20
28.758575439453129
 30
0.0
 70
    32
  0
VERTEX
  5
21C5
  8
LAYER_1
 62
     0
 10
14.480026245117189
 20
28.75799560546875
 30
0.0
 70
    32
  0
VERTEX
  5
21C6
  8
LAYER_1
 62
     0
 10
14.479080200195311
 20
28.757438659667969
 30
0.0
 70
    32
  0
VERTEX
  5
21C7
  8
LAYER_1
 62
     0
 10
14.4781494140625
 20
28.75689697265625
 30
0.0
 70
    32
  0
VERTEX
  5
21C8
  8
LAYER_1
 62
     0
 10
14.477188110351561
 20
28.756378173828129
 30
0.0
 70
    32
  0
VERTEX
  5
21C9
  8
LAYER_1
 62
     0
 10
14.47622680664062
 20
28.755867004394531
 30
0.0
 70
    32
  0
VERTEX
  5
21CA
  8
LAYER_1
 62
     0
 10
14.47525024414062
 20
28.755378723144531
 30
0.0
 70
    32
  0
VERTEX
  5
21CB
  8
LAYER_1
 62
     0
 10
14.474258422851561
 20
28.754905700683601
 30
0.0
 70
    32
  0
VERTEX
  5
21CC
  8
LAYER_1
 62
     0
 10
14.4732666015625
 20
28.754447937011719
 30
0.0
 70
    32
  0
VERTEX
  5
21CD
  8
LAYER_1
 62
     0
 10
14.47225952148437
 20
28.754013061523441
 30
0.0
 70
    32
  0
VERTEX
  5
21CE
  8
LAYER_1
 62
     0
 10
14.47125244140625
 20
28.753585815429691
 30
0.0
 70
    32
  0
VERTEX
  5
21CF
  8
LAYER_1
 62
     0
 10
14.47021484375
 20
28.753189086914059
 30
0.0
 70
    32
  0
VERTEX
  5
21D0
  8
LAYER_1
 62
     0
 10
14.469192504882811
 20
28.7528076171875
 30
0.0
 70
    32
  0
VERTEX
  5
21D1
  8
LAYER_1
 62
     0
 10
14.4681396484375
 20
28.75244140625
 30
0.0
 70
    32
  0
VERTEX
  5
21D2
  8
LAYER_1
 62
     0
 10
14.46708679199218
 20
28.75209808349609
 30
0.0
 70
    32
  0
VERTEX
  5
21D3
  8
LAYER_1
 62
     0
 10
14.46603393554687
 20
28.75177001953125
 30
0.0
 70
    32
  0
VERTEX
  5
21D4
  8
LAYER_1
 62
     0
 10
14.4649658203125
 20
28.751457214355469
 30
0.0
 70
    32
  0
VERTEX
  5
21D5
  8
LAYER_1
 62
     0
 10
14.463882446289061
 20
28.751174926757809
 30
0.0
 70
    32
  0
VERTEX
  5
21D6
  8
LAYER_1
 62
     0
 10
14.46279907226562
 20
28.750900268554691
 30
0.0
 70
    32
  0
VERTEX
  5
21D7
  8
LAYER_1
 62
     0
 10
14.461715698242189
 20
28.750656127929691
 30
0.0
 70
    32
  0
VERTEX
  5
21D8
  8
LAYER_1
 62
     0
 10
14.460617065429689
 20
28.75042724609375
 30
0.0
 70
    32
  0
VERTEX
  5
21D9
  8
LAYER_1
 62
     0
 10
14.45950317382812
 20
28.75022125244141
 30
0.0
 70
    32
  0
VERTEX
  5
21DA
  8
LAYER_1
 62
     0
 10
14.458389282226561
 20
28.750030517578129
 30
0.0
 70
    32
  0
VERTEX
  5
21DB
  8
LAYER_1
 62
     0
 10
14.457260131835939
 20
28.749862670898441
 30
0.0
 70
    32
  0
VERTEX
  5
21DC
  8
LAYER_1
 62
     0
 10
14.456130981445311
 20
28.749717712402351
 30
0.0
 70
    32
  0
VERTEX
  5
21DD
  8
LAYER_1
 62
     0
 10
14.455001831054689
 20
28.749588012695309
 30
0.0
 70
    32
  0
VERTEX
  5
21DE
  8
LAYER_1
 62
     0
 10
14.453857421875
 20
28.749481201171879
 30
0.0
 70
    32
  0
VERTEX
  5
21DF
  8
LAYER_1
 62
     0
 10
14.452713012695311
 20
28.749404907226559
 30
0.0
 70
    32
  0
VERTEX
  5
21E0
  8
LAYER_1
 62
     0
 10
14.45156860351562
 20
28.749336242675781
 30
0.0
 70
    32
  0
VERTEX
  5
21E1
  8
LAYER_1
 62
     0
 10
14.450393676757811
 20
28.749298095703129
 30
0.0
 70
    32
  0
VERTEX
  5
21E2
  8
LAYER_1
 62
     0
 10
14.448837280273439
 20
28.749275207519531
 30
0.0
 70
    32
  0
SEQEND
  5
21E3
  8
LAYER_1
 62
     0
  0
POLYLINE
  5
227E
  8
LAYER_1
 62
     0
 66
     1
 10
0.0
 20
0.0
 30
0.0
 70
     9
  0
VERTEX
  5
227F
  8
LAYER_1
 62
     0
 10
14.5087890625
 20
28.97487640380859
 30
0.0
 70
    32
  0
VERTEX
  5
2280
  8
LAYER_1
 62
     0
 10
14.508804321289061
 20
28.976005554199219
 30
0.0
 70
    32
  0
VERTEX
  5
2281
  8
LAYER_1
 62
     0
 10
14.508834838867189
 20
28.977127075195309
 30
0.0
 70
    32
  0
VERTEX
  5
2282
  8
LAYER_1
 62
     0
 10
14.50888061523437
 20
28.97824859619141
 30
0.0
 70
    32
  0
VERTEX
  5
2283
  8
LAYER_1
 62
     0
 10
14.508956909179689
 20
28.979354858398441
 30
0.0
 70
    32
  0
VERTEX
  5
2284
  8
LAYER_1
 62
     0
 10
14.509048461914061
 20
28.980461120605469
 30
0.0
 70
    32
  0
VERTEX
  5
2285
  8
LAYER_1
 62
     0
 10
14.509170532226561
 20
28.9815673828125
 30
0.0
 70
    32
  0
VERTEX
  5
2286
  8
LAYER_1
 62
     0
 10
14.509292602539061
 20
28.982666015625
 30
0.0
 70
    32
  0
VERTEX
  5
2287
  8
LAYER_1
 62
     0
 10
14.50946044921875
 20
28.983757019042969
 30
0.0
 70
    32
  0
VERTEX
  5
2288
  8
LAYER_1
 62
     0
 10
14.509628295898439
 20
28.984848022460941
 30
0.0
 70
    32
  0
VERTEX
  5
2289
  8
LAYER_1
 62
     0
 10
14.50982666015625
 20
28.985931396484379
 30
0.0
 70
    32
  0
VERTEX
  5
228A
  8
LAYER_1
 62
     0
 10
14.51004028320312
 20
28.987014770507809
 30
0.0
 70
    32
  0
VERTEX
  5
228B
  8
LAYER_1
 62
     0
 10
14.510269165039061
 20
28.988082885742191
 30
0.0
 70
    32
  0
VERTEX
  5
228C
  8
LAYER_1
 62
     0
 10
14.51052856445312
 20
28.989151000976559
 30
0.0
 70
    32
  0
VERTEX
  5
228D
  8
LAYER_1
 62
     0
 10
14.51080322265625
 20
28.990211486816399
 30
0.0
 70
    32
  0
VERTEX
  5
228E
  8
LAYER_1
 62
     0
 10
14.511093139648439
 20
28.99127197265625
 30
0.0
 70
    32
  0
VERTEX
  5
228F
  8
LAYER_1
 62
     0
 10
14.51141357421875
 20
28.992324829101559
 30
0.0
 70
    32
  0
VERTEX
  5
2290
  8
LAYER_1
 62
     0
 10
14.511734008789061
 20
28.993370056152351
 30
0.0
 70
    32
  0
VERTEX
  5
2291
  8
LAYER_1
 62
     0
 10
14.512100219726561
 20
28.99440765380859
 30
0.0
 70
    32
  0
VERTEX
  5
2292
  8
LAYER_1
 62
     0
 10
14.512466430664061
 20
28.995437622070309
 30
0.0
 70
    32
  0
VERTEX
  5
2293
  8
LAYER_1
 62
     0
 10
14.51286315917968
 20
28.996467590332031
 30
0.0
 70
    32
  0
VERTEX
  5
2294
  8
LAYER_1
 62
     0
 10
14.513259887695311
 20
28.997489929199219
 30
0.0
 70
    32
  0
VERTEX
  5
2295
  8
LAYER_1
 62
     0
 10
14.51370239257812
 20
28.998497009277351
 30
0.0
 70
    32
  0
VERTEX
  5
2296
  8
LAYER_1
 62
     0
 10
14.514144897460939
 20
28.99951171875
 30
0.0
 70
    32
  0
VERTEX
  5
2297
  8
LAYER_1
 62
     0
 10
14.514602661132811
 20
29.000503540039059
 30
0.0
 70
    32
  0
VERTEX
  5
2298
  8
LAYER_1
 62
     0
 10
14.51510620117187
 20
29.001502990722649
 30
0.0
 70
    32
  0
VERTEX
  5
2299
  8
LAYER_1
 62
     0
 10
14.51559448242187
 20
29.002487182617191
 30
0.0
 70
    32
  0
VERTEX
  5
229A
  8
LAYER_1
 62
     0
 10
14.516128540039061
 20
29.003471374511719
 30
0.0
 70
    32
  0
VERTEX
  5
229B
  8
LAYER_1
 62
     0
 10
14.51666259765625
 20
29.004447937011719
 30
0.0
 70
    32
  0
VERTEX
  5
229C
  8
LAYER_1
 62
     0
 10
14.517227172851561
 20
29.00540924072266
 30
0.0
 70
    32
  0
VERTEX
  5
229D
  8
LAYER_1
 62
     0
 10
14.517807006835939
 20
29.006370544433601
 30
0.0
 70
    32
  0
VERTEX
  5
229E
  8
LAYER_1
 62
     0
 10
14.51840209960937
 20
29.007316589355469
 30
0.0
 70
    32
  0
VERTEX
  5
229F
  8
LAYER_1
 62
     0
 10
14.51901245117187
 20
29.008262634277351
 30
0.0
 70
    32
  0
VERTEX
  5
22A0
  8
LAYER_1
 62
     0
 10
14.519638061523439
 20
29.009201049804691
 30
0.0
 70
    32
  0
VERTEX
  5
22A1
  8
LAYER_1
 62
     0
 10
14.52029418945312
 20
29.010124206542969
 30
0.0
 70
    32
  0
VERTEX
  5
22A2
  8
LAYER_1
 62
     0
 10
14.52096557617187
 20
29.01104736328125
 30
0.0
 70
    32
  0
VERTEX
  5
22A3
  8
LAYER_1
 62
     0
 10
14.521652221679689
 20
29.011962890625
 30
0.0
 70
    32
  0
VERTEX
  5
22A4
  8
LAYER_1
 62
     0
 10
14.522354125976561
 20
29.012863159179691
 30
0.0
 70
    32
  0
VERTEX
  5
22A5
  8
LAYER_1
 62
     0
 10
14.5230712890625
 20
29.013763427734379
 30
0.0
 70
    32
  0
VERTEX
  5
22A6
  8
LAYER_1
 62
     0
 10
14.5238037109375
 20
29.0146484375
 30
0.0
 70
    32
  0
VERTEX
  5
22A7
  8
LAYER_1
 62
     0
 10
14.52456665039062
 20
29.015525817871101
 30
0.0
 70
    32
  0
VERTEX
  5
22A8
  8
LAYER_1
 62
     0
 10
14.525344848632811
 20
29.01639556884766
 30
0.0
 70
    32
  0
VERTEX
  5
22A9
  8
LAYER_1
 62
     0
 10
14.526657104492189
 20
29.017822265625
 30
0.0
 70
    32
  0
SEQEND
  5
22AA
  8
LAYER_1
 62
     0
  0
POLYLINE
  5
22AB
  8
LAYER_1
 62
     0
 66
     1
 10
0.0
 20
0.0
 30
0.0
 70
     9
  0
VERTEX
  5
22AC
  8
LAYER_1
 62
     0
 10
14.526657104492189
 20
34.732231140136719
 30
0.0
 70
    32
  0
VERTEX
  5
22AD
  8
LAYER_1
 62
     0
 10
14.525863647460939
 20
34.733009338378913
 30
0.0
 70
    32
  0
VERTEX
  5
22AE
  8
LAYER_1
 62
     0
 10
14.52507019042968
 20
34.733795166015632
 30
0.0
 70
    32
  0
VERTEX
  5
22AF
  8
LAYER_1
 62
     0
 10
14.524307250976561
 20
34.734603881835938
 30
0.0
 70
    32
  0
VERTEX
  5
22B0
  8
LAYER_1
 62
     0
 10
14.5235595703125
 20
34.735420227050781
 30
0.0
 70
    32
  0
VERTEX
  5
22B1
  8
LAYER_1
 62
     0
 10
14.5228271484375
 20
34.736251831054688
 30
0.0
 70
    32
  0
VERTEX
  5
22B2
  8
LAYER_1
 62
     0
 10
14.52212524414062
 20
34.737106323242188
 30
0.0
 70
    32
  0
VERTEX
  5
22B3
  8
LAYER_1
 62
     0
 10
14.52142333984375
 20
34.737960815429688
 30
0.0
 70
    32
  0
VERTEX
  5
22B4
  8
LAYER_1
 62
     0
 10
14.520736694335939
 20
34.73883056640625
 30
0.0
 70
    32
  0
VERTEX
  5
22B5
  8
LAYER_1
 62
     0
 10
14.52008056640625
 20
34.739715576171882
 30
0.0
 70
    32
  0
VERTEX
  5
22B6
  8
LAYER_1
 62
     0
 10
14.51943969726562
 20
34.740631103515632
 30
0.0
 70
    32
  0
VERTEX
  5
22B7
  8
LAYER_1
 62
     0
 10
14.518814086914061
 20
34.741539001464851
 30
0.0
 70
    32
  0
VERTEX
  5
22B8
  8
LAYER_1
 62
     0
 10
14.518203735351561
 20
34.742446899414063
 30
0.0
 70
    32
  0
VERTEX
  5
22B9
  8
LAYER_1
 62
     0
 10
14.51760864257812
 20
34.743385314941413
 30
0.0
 70
    32
  0
VERTEX
  5
22BA
  8
LAYER_1
 62
     0
 10
14.51702880859375
 20
34.744338989257813
 30
0.0
 70
    32
  0
VERTEX
  5
22BB
  8
LAYER_1
 62
     0
 10
14.5164794921875
 20
34.745285034179688
 30
0.0
 70
    32
  0
VERTEX
  5
22BC
  8
LAYER_1
 62
     0
 10
14.515945434570311
 20
34.746253967285163
 30
0.0
 70
    32
  0
VERTEX
  5
22BD
  8
LAYER_1
 62
     0
 10
14.515426635742189
 20
34.747230529785163
 30
0.0
 70
    32
  0
VERTEX
  5
22BE
  8
LAYER_1
 62
     0
 10
14.51492309570312
 20
34.748207092285163
 30
0.0
 70
    32
  0
VERTEX
  5
22BF
  8
LAYER_1
 62
     0
 10
14.51446533203125
 20
34.749198913574219
 30
0.0
 70
    32
  0
VERTEX
  5
22C0
  8
LAYER_1
 62
     0
 10
14.513992309570311
 20
34.750205993652337
 30
0.0
 70
    32
  0
VERTEX
  5
22C1
  8
LAYER_1
 62
     0
 10
14.5135498046875
 20
34.751205444335938
 30
0.0
 70
    32
  0
VERTEX
  5
22C2
  8
LAYER_1
 62
     0
 10
14.513137817382811
 20
34.752227783203132
 30
0.0
 70
    32
  0
VERTEX
  5
22C3
  8
LAYER_1
 62
     0
 10
14.51272583007812
 20
34.753257751464837
 30
0.0
 70
    32
  0
VERTEX
  5
22C4
  8
LAYER_1
 62
     0
 10
14.512344360351561
 20
34.754287719726562
 30
0.0
 70
    32
  0
VERTEX
  5
22C5
  8
LAYER_1
 62
     0
 10
14.511978149414061
 20
34.755325317382813
 30
0.0
 70
    32
  0
VERTEX
  5
22C6
  8
LAYER_1
 62
     0
 10
14.51162719726562
 20
34.756362915039063
 30
0.0
 70
    32
  0
VERTEX
  5
22C7
  8
LAYER_1
 62
     0
 10
14.511306762695311
 20
34.757415771484382
 30
0.0
 70
    32
  0
VERTEX
  5
22C8
  8
LAYER_1
 62
     0
 10
14.511001586914061
 20
34.758468627929688
 30
0.0
 70
    32
  0
VERTEX
  5
22C9
  8
LAYER_1
 62
     0
 10
14.51071166992187
 20
34.759529113769531
 30
0.0
 70
    32
  0
VERTEX
  5
22CA
  8
LAYER_1
 62
     0
 10
14.51043701171875
 20
34.760589599609368
 30
0.0
 70
    32
  0
VERTEX
  5
22CB
  8
LAYER_1
 62
     0
 10
14.51019287109375
 20
34.76165771484375
 30
0.0
 70
    32
  0
VERTEX
  5
22CC
  8
LAYER_1
 62
     0
 10
14.509963989257811
 20
34.762725830078118
 30
0.0
 70
    32
  0
VERTEX
  5
22CD
  8
LAYER_1
 62
     0
 10
14.509750366210939
 20
34.763801574707031
 30
0.0
 70
    32
  0
VERTEX
  5
22CE
  8
LAYER_1
 62
     0
 10
14.509567260742189
 20
34.764884948730469
 30
0.0
 70
    32
  0
VERTEX
  5
22CF
  8
LAYER_1
 62
     0
 10
14.5093994140625
 20
34.765960693359382
 30
0.0
 70
    32
  0
VERTEX
  5
22D0
  8
LAYER_1
 62
     0
 10
14.509262084960939
 20
34.767044067382813
 30
0.0
 70
    32
  0
VERTEX
  5
22D1
  8
LAYER_1
 62
     0
 10
14.50912475585937
 20
34.76812744140625
 30
0.0
 70
    32
  0
VERTEX
  5
22D2
  8
LAYER_1
 62
     0
 10
14.509017944335939
 20
34.769210815429687
 30
0.0
 70
    32
  0
VERTEX
  5
22D3
  8
LAYER_1
 62
     0
 10
14.50894165039062
 20
34.770294189453132
 30
0.0
 70
    32
  0
VERTEX
  5
22D4
  8
LAYER_1
 62
     0
 10
14.508865356445311
 20
34.771377563476563
 30
0.0
 70
    32
  0
VERTEX
  5
22D5
  8
LAYER_1
 62
     0
 10
14.508834838867189
 20
34.772468566894531
 30
0.0
 70
    32
  0
VERTEX
  5
22D6
  8
LAYER_1
 62
     0
 10
14.5087890625
 20
34.774276733398437
 30
0.0
 70
    32
  0
SEQEND
  5
22D7
  8
LAYER_1
 62
     0
  0
POLYLINE
  5
22D8
  8
LAYER_1
 62
     0
 66
     1
 10
0.0
 20
0.0
 30
0.0
 70
     9
  0
VERTEX
  5
22D9
  8
LAYER_1
 62
     0
 10
14.569351196289061
 20
29.084358215332031
 30
0.0
 70
    32
  0
VERTEX
  5
22DA
  8
LAYER_1
 62
     0
 10
14.5693359375
 20
29.083251953125
 30
0.0
 70
    32
  0
VERTEX
  5
22DB
  8
LAYER_1
 62
     0
 10
14.56932067871093
 20
29.082145690917969
 30
0.0
 70
    32
  0
VERTEX
  5
22DC
  8
LAYER_1
 62
     0
 10
14.569259643554689
 20
29.081039428710941
 30
0.0
 70
    32
  0
VERTEX
  5
22DD
  8
LAYER_1
 62
     0
 10
14.569198608398439
 20
29.079940795898441
 30
0.0
 70
    32
  0
VERTEX
  5
22DE
  8
LAYER_1
 62
     0
 10
14.569091796875
 20
29.078842163085941
 30
0.0
 70
    32
  0
VERTEX
  5
22DF
  8
LAYER_1
 62
     0
 10
14.568984985351561
 20
29.077751159667969
 30
0.0
 70
    32
  0
VERTEX
  5
22E0
  8
LAYER_1
 62
     0
 10
14.56884765625
 20
29.07666015625
 30
0.0
 70
    32
  0
VERTEX
  5
22E1
  8
LAYER_1
 62
     0
 10
14.56869506835937
 20
29.075569152832031
 30
0.0
 70
    32
  0
VERTEX
  5
22E2
  8
LAYER_1
 62
     0
 10
14.56851196289062
 20
29.074485778808601
 30
0.0
 70
    32
  0
VERTEX
  5
22E3
  8
LAYER_1
 62
     0
 10
14.568313598632811
 20
29.073410034179691
 30
0.0
 70
    32
  0
VERTEX
  5
22E4
  8
LAYER_1
 62
     0
 10
14.56809997558593
 20
29.07232666015625
 30
0.0
 70
    32
  0
VERTEX
  5
22E5
  8
LAYER_1
 62
     0
 10
14.56787109375
 20
29.071258544921879
 30
0.0
 70
    32
  0
VERTEX
  5
22E6
  8
LAYER_1
 62
     0
 10
14.567611694335939
 20
29.0701904296875
 30
0.0
 70
    32
  0
VERTEX
  5
22E7
  8
LAYER_1
 62
     0
 10
14.567337036132811
 20
29.069137573242191
 30
0.0
 70
    32
  0
VERTEX
  5
22E8
  8
LAYER_1
 62
     0
 10
14.56704711914062
 20
29.068077087402351
 30
0.0
 70
    32
  0
VERTEX
  5
22E9
  8
LAYER_1
 62
     0
 10
14.56674194335937
 20
29.067031860351559
 30
0.0
 70
    32
  0
VERTEX
  5
22EA
  8
LAYER_1
 62
     0
 10
14.56640625
 20
29.065986633300781
 30
0.0
 70
    32
  0
VERTEX
  5
22EB
  8
LAYER_1
 62
     0
 10
14.566055297851561
 20
29.064956665039059
 30
0.0
 70
    32
  0
VERTEX
  5
22EC
  8
LAYER_1
 62
     0
 10
14.565673828125
 20
29.06392669677734
 30
0.0
 70
    32
  0
VERTEX
  5
22ED
  8
LAYER_1
 62
     0
 10
14.565292358398439
 20
29.06290435791016
 30
0.0
 70
    32
  0
VERTEX
  5
22EE
  8
LAYER_1
 62
     0
 10
14.56488037109375
 20
29.0618896484375
 30
0.0
 70
    32
  0
VERTEX
  5
22EF
  8
LAYER_1
 62
     0
 10
14.56443786621093
 20
29.06089019775391
 30
0.0
 70
    32
  0
VERTEX
  5
22F0
  8
LAYER_1
 62
     0
 10
14.56399536132812
 20
29.059898376464851
 30
0.0
 70
    32
  0
VERTEX
  5
22F1
  8
LAYER_1
 62
     0
 10
14.56353759765625
 20
29.058914184570309
 30
0.0
 70
    32
  0
VERTEX
  5
22F2
  8
LAYER_1
 62
     0
 10
14.56304931640625
 20
29.057937622070309
 30
0.0
 70
    32
  0
VERTEX
  5
22F3
  8
LAYER_1
 62
     0
 10
14.562545776367189
 20
29.05696868896484
 30
0.0
 70
    32
  0
VERTEX
  5
22F4
  8
LAYER_1
 62
     0
 10
14.56201171875
 20
29.056015014648441
 30
0.0
 70
    32
  0
VERTEX
  5
22F5
  8
LAYER_1
 62
     0
 10
14.561477661132811
 20
29.055068969726559
 30
0.0
 70
    32
  0
VERTEX
  5
22F6
  8
LAYER_1
 62
     0
 10
14.5609130859375
 20
29.054130554199219
 30
0.0
 70
    32
  0
VERTEX
  5
22F7
  8
LAYER_1
 62
     0
 10
14.560348510742189
 20
29.053207397460941
 30
0.0
 70
    32
  0
VERTEX
  5
22F8
  8
LAYER_1
 62
     0
 10
14.55975341796875
 20
29.052299499511719
 30
0.0
 70
    32
  0
VERTEX
  5
22F9
  8
LAYER_1
 62
     0
 10
14.559127807617189
 20
29.051399230957031
 30
0.0
 70
    32
  0
VERTEX
  5
22FA
  8
LAYER_1
 62
     0
 10
14.55850219726562
 20
29.050506591796879
 30
0.0
 70
    32
  0
VERTEX
  5
22FB
  8
LAYER_1
 62
     0
 10
14.557846069335939
 20
29.049629211425781
 30
0.0
 70
    32
  0
VERTEX
  5
22FC
  8
LAYER_1
 62
     0
 10
14.55718994140625
 20
29.04876708984375
 30
0.0
 70
    32
  0
VERTEX
  5
22FD
  8
LAYER_1
 62
     0
 10
14.55650329589843
 20
29.04791259765625
 30
0.0
 70
    32
  0
VERTEX
  5
22FE
  8
LAYER_1
 62
     0
 10
14.555801391601561
 20
29.047088623046871
 30
0.0
 70
    32
  0
VERTEX
  5
22FF
  8
LAYER_1
 62
     0
 10
14.555068969726561
 20
29.0462646484375
 30
0.0
 70
    32
  0
VERTEX
  5
2300
  8
LAYER_1
 62
     0
 10
14.554336547851561
 20
29.045455932617191
 30
0.0
 70
    32
  0
VERTEX
  5
2301
  8
LAYER_1
 62
     0
 10
14.553573608398439
 20
29.044662475585941
 30
0.0
 70
    32
  0
VERTEX
  5
2302
  8
LAYER_1
 62
     0
 10
14.552810668945311
 20
29.04388427734375
 30
0.0
 70
    32
  0
VERTEX
  5
2303
  8
LAYER_1
 62
     0
 10
14.55148315429687
 20
29.042617797851559
 30
0.0
 70
    32
  0
SEQEND
  5
2304
  8
LAYER_1
 62
     0
  0
POLYLINE
  5
2305
  8
LAYER_1
 62
     0
 66
     1
 10
0.0
 20
0.0
 30
0.0
 70
     9
  0
VERTEX
  5
2306
  8
LAYER_1
 62
     0
 10
14.55148315429687
 20
34.707138061523438
 30
0.0
 70
    32
  0
VERTEX
  5
2307
  8
LAYER_1
 62
     0
 10
14.552291870117189
 20
34.706336975097663
 30
0.0
 70
    32
  0
VERTEX
  5
2308
  8
LAYER_1
 62
     0
 10
14.55307006835937
 20
34.705535888671882
 30
0.0
 70
    32
  0
VERTEX
  5
2309
  8
LAYER_1
 62
     0
 10
14.5538330078125
 20
34.704719543457031
 30
0.0
 70
    32
  0
VERTEX
  5
230A
  8
LAYER_1
 62
     0
 10
14.554580688476561
 20
34.703887939453132
 30
0.0
 70
    32
  0
VERTEX
  5
230B
  8
LAYER_1
 62
     0
 10
14.55532836914062
 20
34.703041076660163
 30
0.0
 70
    32
  0
VERTEX
  5
230C
  8
LAYER_1
 62
     0
 10
14.5560302734375
 20
34.702186584472663
 30
0.0
 70
    32
  0
VERTEX
  5
230D
  8
LAYER_1
 62
     0
 10
14.55673217773437
 20
34.701332092285163
 30
0.0
 70
    32
  0
VERTEX
  5
230E
  8
LAYER_1
 62
     0
 10
14.55740356445312
 20
34.700447082519531
 30
0.0
 70
    32
  0
VERTEX
  5
230F
  8
LAYER_1
 62
     0
 10
14.55807495117187
 20
34.699562072753913
 30
0.0
 70
    32
  0
VERTEX
  5
2310
  8
LAYER_1
 62
     0
 10
14.5587158203125
 20
34.698654174804688
 30
0.0
 70
    32
  0
VERTEX
  5
2311
  8
LAYER_1
 62
     0
 10
14.559341430664061
 20
34.697738647460937
 30
0.0
 70
    32
  0
VERTEX
  5
2312
  8
LAYER_1
 62
     0
 10
14.559951782226561
 20
34.696830749511719
 30
0.0
 70
    32
  0
VERTEX
  5
2313
  8
LAYER_1
 62
     0
 10
14.560546875
 20
34.695892333984368
 30
0.0
 70
    32
  0
VERTEX
  5
2314
  8
LAYER_1
 62
     0
 10
14.561111450195311
 20
34.694953918457031
 30
0.0
 70
    32
  0
VERTEX
  5
2315
  8
LAYER_1
 62
     0
 10
14.561660766601561
 20
34.693984985351563
 30
0.0
 70
    32
  0
VERTEX
  5
2316
  8
LAYER_1
 62
     0
 10
14.56219482421875
 20
34.693038940429688
 30
0.0
 70
    32
  0
VERTEX
  5
2317
  8
LAYER_1
 62
     0
 10
14.56271362304687
 20
34.692062377929687
 30
0.0
 70
    32
  0
VERTEX
  5
2318
  8
LAYER_1
 62
     0
 10
14.56321716308593
 20
34.691085815429688
 30
0.0
 70
    32
  0
VERTEX
  5
2319
  8
LAYER_1
 62
     0
 10
14.56369018554687
 20
34.690093994140618
 30
0.0
 70
    32
  0
VERTEX
  5
231A
  8
LAYER_1
 62
     0
 10
14.56414794921875
 20
34.6890869140625
 30
0.0
 70
    32
  0
VERTEX
  5
231B
  8
LAYER_1
 62
     0
 10
14.564590454101561
 20
34.688079833984382
 30
0.0
 70
    32
  0
VERTEX
  5
231C
  8
LAYER_1
 62
     0
 10
14.56500244140625
 20
34.687065124511719
 30
0.0
 70
    32
  0
VERTEX
  5
231D
  8
LAYER_1
 62
     0
 10
14.5654296875
 20
34.686050415039062
 30
0.0
 70
    32
  0
VERTEX
  5
231E
  8
LAYER_1
 62
     0
 10
14.5657958984375
 20
34.68499755859375
 30
0.0
 70
    32
  0
VERTEX
  5
231F
  8
LAYER_1
 62
     0
 10
14.566162109375
 20
34.683967590332031
 30
0.0
 70
    32
  0
VERTEX
  5
2320
  8
LAYER_1
 62
     0
 10
14.566513061523439
 20
34.682914733886719
 30
0.0
 70
    32
  0
VERTEX
  5
2321
  8
LAYER_1
 62
     0
 10
14.566848754882811
 20
34.681854248046868
 30
0.0
 70
    32
  0
VERTEX
  5
2322
  8
LAYER_1
 62
     0
 10
14.567153930664061
 20
34.680793762207031
 30
0.0
 70
    32
  0
VERTEX
  5
2323
  8
LAYER_1
 62
     0
 10
14.567428588867189
 20
34.679725646972663
 30
0.0
 70
    32
  0
VERTEX
  5
2324
  8
LAYER_1
 62
     0
 10
14.567703247070311
 20
34.67864990234375
 30
0.0
 70
    32
  0
VERTEX
  5
2325
  8
LAYER_1
 62
     0
 10
14.567947387695311
 20
34.67756652832032
 30
0.0
 70
    32
  0
VERTEX
  5
2326
  8
LAYER_1
 62
     0
 10
14.56817626953125
 20
34.676467895507812
 30
0.0
 70
    32
  0
VERTEX
  5
2327
  8
LAYER_1
 62
     0
 10
14.56838989257812
 20
34.675369262695312
 30
0.0
 70
    32
  0
VERTEX
  5
2328
  8
LAYER_1
 62
     0
 10
14.56857299804687
 20
34.674270629882812
 30
0.0
 70
    32
  0
VERTEX
  5
2329
  8
LAYER_1
 62
     0
 10
14.56875610351562
 20
34.67315673828125
 30
0.0
 70
    32
  0
VERTEX
  5
232A
  8
LAYER_1
 62
     0
 10
14.568893432617189
 20
34.672050476074219
 30
0.0
 70
    32
  0
VERTEX
  5
232B
  8
LAYER_1
 62
     0
 10
14.56901550292968
 20
34.670936584472663
 30
0.0
 70
    32
  0
VERTEX
  5
232C
  8
LAYER_1
 62
     0
 10
14.56912231445312
 20
34.669815063476563
 30
0.0
 70
    32
  0
VERTEX
  5
232D
  8
LAYER_1
 62
     0
 10
14.569198608398439
 20
34.668670654296882
 30
0.0
 70
    32
  0
VERTEX
  5
232E
  8
LAYER_1
 62
     0
 10
14.56927490234375
 20
34.667549133300781
 30
0.0
 70
    32
  0
VERTEX
  5
232F
  8
LAYER_1
 62
     0
 10
14.56932067871093
 20
34.666397094726562
 30
0.0
 70
    32
  0
VERTEX
  5
2330
  8
LAYER_1
 62
     0
 10
14.569351196289061
 20
34.664497375488281
 30
0.0
 70
    32
  0
SEQEND
  5
2331
  8
LAYER_1
 62
     0
  0
POLYLINE
  5
2332
  8
LAYER_1
 62
     0
 66
     1
 10
0.0
 20
0.0
 30
0.0
 70
     9
  0
VERTEX
  5
2333
  8
LAYER_1
 62
     0
 10
-5.6180801391601562
 20
34.999565124511719
 30
0.0
 70
    32
  0
VERTEX
  5
2334
  8
LAYER_1
 62
     0
 10
14.448837280273439
 20
34.999565124511719
 30
0.0
 70
    32
  0
SEQEND
  5
2335
  8
LAYER_1
 62
     0
  0
POLYLINE
  5
2336
  8
LAYER_1
 62
     0
 66
     1
 10
0.0
 20
0.0
 30
0.0
 70
     9
  0
VERTEX
  5
2337
  8
LAYER_1
 62
     0
 10
14.448837280273439
 20
32.407577514648437
 30
0.0
 70
    32
  0
VERTEX
  5
2338
  8
LAYER_1
 62
     0
 10
-4.003570556640625
 20
32.407577514648437
 30
0.0
 70
    32
  0
SEQEND
  5
2339
  8
LAYER_1
 62
     0
  0
POLYLINE
  5
233A
  8
LAYER_1
 62
     0
 66
     1
 10
0.0
 20
0.0
 30
0.0
 70
     9
  0
VERTEX
  5
233B
  8
LAYER_1
 62
     0
 10
14.448837280273439
 20
28.749275207519531
 30
0.0
 70
    32
  0
VERTEX
  5
233C
  8
LAYER_1
 62
     0
 10
6.97552490234375
 20
28.749275207519531
 30
0.0
 70
    32
  0
SEQEND
  5
233D
  8
LAYER_1
 62
     0
  0
POLYLINE
  5
233E
  8
LAYER_1
 62
     0
 66
     1
 10
0.0
 20
0.0
 30
0.0
 70
     9
  0
VERTEX
  5
233F
  8
LAYER_1
 62
     0
 10
6.81201171875
 20
27.559577941894531
 30
0.0
 70
    32
  0
VERTEX
  5
2340
  8
LAYER_1
 62
     0
 10
-0.0354232788085938
 20
27.559577941894531
 30
0.0
 70
    32
  0
SEQEND
  5
2341
  8
LAYER_1
 62
     0
  0
POLYLINE
  5
234A
  8
LAYER_1
 62
     0
 66
     1
 10
0.0
 20
0.0
 30
0.0
 70
     9
  0
VERTEX
  5
234B
  8
LAYER_1
 62
     0
 10
-2.1898193359375
 20
30.616386413574219
 30
0.0
 70
    32
  0
VERTEX
  5
234C
  8
LAYER_1
 62
     0
 10
-2.6388702392578121
 20
32.405158996582031
 30
0.0
 70
    32
  0
SEQEND
  5
234D
  8
LAYER_1
 62
     0
  0
POLYLINE
  5
234E
  8
LAYER_1
 62
     0
 66
     1
 10
0.0
 20
0.0
 30
0.0
 70
     9
  0
VERTEX
  5
234F
  8
LAYER_1
 62
     0
 10
0.76214599609375
 20
10.74960327148437
 30
0.0
 70
    32
  0
VERTEX
  5
2350
  8
LAYER_1
 62
     0
 10
0.76214599609375
 20
27.559577941894531
 30
0.0
 70
    32
  0
SEQEND
  5
2351
  8
LAYER_1
 62
     0
  0
POLYLINE
  5
2352
  8
LAYER_1
 62
     0
 66
     1
 10
0.0
 20
0.0
 30
0.0
 70
     9
  0
VERTEX
  5
2353
  8
LAYER_1
 62
     0
 10
14.526657104492189
 20
29.017822265625
 30
0.0
 70
    32
  0
VERTEX
  5
2354
  8
LAYER_1
 62
     0
 10
14.55148315429687
 20
29.042617797851559
 30
0.0
 70
    32
  0
SEQEND
  5
2355
  8
LAYER_1
 62
     0
  0
POLYLINE
  5
2356
  8
LAYER_1
 62
     0
 66
     1
 10
0.0
 20
0.0
 30
0.0
 70
     9
  0
VERTEX
  5
2357
  8
LAYER_1
 62
     0
 10
6.847137451171875
 20
0.283966064453125
 30
0.0
 70
    32
  0
VERTEX
  5
2358
  8
LAYER_1
 62
     0
 10
6.847137451171875
 20
27.562004089355469
 30
0.0
 70
    32
  0
SEQEND
  5
2359
  8
LAYER_1
 62
     0
  0
POLYLINE
  5
235A
  8
LAYER_1
 62
     0
 66
     1
 10
0.0
 20
0.0
 30
0.0
 70
     9
  0
VERTEX
  5
235B
  8
LAYER_1
 62
     0
 10
7.09332275390625
 20
28.389404296875
 30
0.0
 70
    32
  0
VERTEX
  5
235C
  8
LAYER_1
 62
     0
 10
7.0621185302734366
 20
27.796371459960941
 30
0.0
 70
    32
  0
SEQEND
  5
235D
  8
LAYER_1
 62
     0
  0
POLYLINE
  5
235E
  8
LAYER_1
 62
     0
 66
     1
 10
0.0
 20
0.0
 30
0.0
 70
     9
  0
VERTEX
  5
235F
  8
LAYER_1
 62
     0
 10
7.05999755859375
 20
0.1496963500976562
 30
0.0
 70
    32
  0
VERTEX
  5
2360
  8
LAYER_1
 62
     0
 10
7.05999755859375
 20
27.599502563476559
 30
0.0
 70
    32
  0
SEQEND
  5
2361
  8
LAYER_1
 62
     0
  0
POLYLINE
  5
2366
  8
LAYER_1
 62
     0
 66
     1
 10
0.0
 20
0.0
 30
0.0
 70
     9
  0
VERTEX
  5
2367
  8
LAYER_1
 62
     0
 10
-1.020721435546875
 20
29.796234130859379
 30
0.0
 70
    32
  0
VERTEX
  5
2368
  8
LAYER_1
 62
     0
 10
-1.696258544921875
 20
30.05812835693359
 30
0.0
 70
    32
  0
SEQEND
  5
2369
  8
LAYER_1
 62
     0
  0
POLYLINE
  5
236A
  8
LAYER_1
 62
     0
 66
     1
 10
0.0
 20
0.0
 30
0.0
 70
     9
  0
VERTEX
  5
236B
  8
LAYER_1
 62
     0
 10
14.448837280273439
 20
28.749275207519531
 30
0.0
 70
    32
  0
VERTEX
  5
236C
  8
LAYER_1
 62
     0
 10
14.448837280273439
 20
34.999565124511719
 30
0.0
 70
    32
  0
SEQEND
  5
236D
  8
LAYER_1
 62
     0
  0
POLYLINE
  5
236E
  8
LAYER_1
 62
     0
 66
     1
 10
0.0
 20
0.0
 30
0.0
 70
     9
  0
VERTEX
  5
236F
  8
LAYER_1
 62
     0
 10
14.569351196289061
 20
29.084358215332031
 30
0.0
 70
    32
  0
VERTEX
  5
2370
  8
LAYER_1
 62
     0
 10
14.569351196289061
 20
34.664497375488281
 30
0.0
 70
    32
  0
SEQEND
  5
2371
  8
LAYER_1
 62
     0
  0
POLYLINE
  5
2372
  8
LAYER_1
 62
     0
 66
     1
 10
0.0
 20
0.0
 30
0.0
 70
     9
  0
VERTEX
  5
2373
  8
LAYER_1
 62
     0
 10
-0.142913818359375
 20
0.05987548828125
 30
0.0
 70
    32
  0
VERTEX
  5
2374
  8
LAYER_1
 62
     0
 10
6.84954833984375
 20
0.05987548828125
 30
0.0
 70
    32
  0
SEQEND
  5
2375
  8
LAYER_1
 62
     0
  0
POLYLINE
  5
2376
  8
LAYER_1
 62
     0
 66
     1
 10
0.0
 20
0.0
 30
0.0
 70
     9
  0
VERTEX
  5
2377
  8
LAYER_1
 62
     0
 10
0.0
 20
0.0
 30
0.0
 70
    32
  0
VERTEX
  5
2378
  8
LAYER_1
 62
     0
 10
6.909210205078125
 20
0.0
 30
0.0
 70
    32
  0
SEQEND
  5
2379
  8
LAYER_1
 62
     0
  0
POLYLINE
  5
237A
  8
LAYER_1
 62
     0
 66
     1
 10
0.0
 20
0.0
 30
0.0
 70
     9
  0
VERTEX
  5
237B
  8
LAYER_1
 62
     0
 10
14.526657104492189
 20
34.732231140136719
 30
0.0
 70
    32
  0
VERTEX
  5
237C
  8
LAYER_1
 62
     0
 10
14.55148315429687
 20
34.707138061523438
 30
0.0
 70
    32
  0
SEQEND
  5
237D
  8
LAYER_1
 62
     0
  0
POLYLINE
  5
23AC
  8
LAYER_1
 62
     0
 66
     1
 10
0.0
 20
0.0
 30
0.0
 70
     9
  0
VERTEX
  5
23AD
  8
LAYER_1
 62
     0
 10
7.05999755859375
 20
27.599502563476559
 30
0.0
 70
    32
  0
VERTEX
  5
23AE
  8
LAYER_1
 62
     0
 10
7.0612030029296866
 20
27.78155517578125
 30
0.0
 70
    32
  0
SEQEND
  5
23AF
  8
LAYER_1
 62
     0
  0
ATTDEF
  5
23C1
  8
LAYER_1
 62
     0
 10
-0.0000000640353051
 20
0.0050000137641177
 30
0.0
 40
0.001
  1
K-2359-8
  3

  2
MODELNUMBER
 70
     8
  0
ATTDEF
  5
23C2
  8
LAYER_1
 62
     0
 10
-0.0000000640353051
 20
0.0033333470974511
 30
0.0
 40
0.001
  1
ARCHER
  3

  2
TRADENAME
 70
     8
  0
ATTDEF
  5
23C3
  8
LAYER_1
 62
     0
 10
-0.0000000640353051
 20
0.0016666804307844
 30
0.0
 40
0.001
  1
PEDESTAL LAVATORY
  3

  2
PRODUCT
 70
     8
  0
ATTDEF
  5
23C4
  8
LAYER_1
 62
     0
 10
-0.0000000640353051
 20
0.0000000137641177
 30
0.0
 40
0.001
  1
VITREOUS CHINA
  3

  2
MATERIAL
 70
     8
  0
POLYLINE
  5
244E
  8
LAYER_1
 62
     0
 66
     1
 10
0.0
 20
0.0
 30
0.0
 70
     1
  0
VERTEX
  5
24DE
  8
LAYER_1
 62
     0
 10
-5.6438140869140616
 20
34.998054504394531
 30
0.0
  0
VERTEX
  5
24DF
  8
LAYER_1
 62
     0
 10
-5.6180801391601562
 20
34.999565124511719
 30
0.0
  0
SEQEND
  5
24E0
  8
LAYER_1
 62
     0
  0
POLYLINE
  5
244F
  8
LAYER_1
 62
     0
 66
     1
 10
0.0
 20
0.0
 30
0.0
 70
     1
  0
VERTEX
  5
24E1
  8
LAYER_1
 62
     0
 10
-5.6943817138671866
 20
34.987472534179688
 30
0.0
  0
VERTEX
  5
24E2
  8
LAYER_1
 62
     0
 10
-5.6438140869140616
 20
34.998054504394531
 30
0.0
  0
SEQEND
  5
24E3
  8
LAYER_1
 62
     0
  0
POLYLINE
  5
2450
  8
LAYER_1
 62
     0
 66
     1
 10
0.0
 20
0.0
 30
0.0
 70
     1
  0
VERTEX
  5
24E4
  8
LAYER_1
 62
     0
 10
-5.7637252807617179
 20
34.953300476074219
 30
0.0
  0
VERTEX
  5
24E5
  8
LAYER_1
 62
     0
 10
-5.6943817138671866
 20
34.987472534179688
 30
0.0
  0
SEQEND
  5
24E6
  8
LAYER_1
 62
     0
  0
POLYLINE
  5
2451
  8
LAYER_1
 62
     0
 66
     1
 10
0.0
 20
0.0
 30
0.0
 70
     1
  0
VERTEX
  5
24E7
  8
LAYER_1
 62
     0
 10
-5.828826904296875
 20
34.88494873046875
 30
0.0
  0
VERTEX
  5
24E8
  8
LAYER_1
 62
     0
 10
-5.7637252807617179
 20
34.953300476074219
 30
0.0
  0
SEQEND
  5
24E9
  8
LAYER_1
 62
     0
  0
POLYLINE
  5
2452
  8
LAYER_1
 62
     0
 66
     1
 10
0.0
 20
0.0
 30
0.0
 70
     1
  0
VERTEX
  5
24EA
  8
LAYER_1
 62
     0
 10
-5.859710693359375
 20
34.814788818359382
 30
0.0
  0
VERTEX
  5
24EB
  8
LAYER_1
 62
     0
 10
-5.828826904296875
 20
34.88494873046875
 30
0.0
  0
SEQEND
  5
24EC
  8
LAYER_1
 62
     0
  0
POLYLINE
  5
2453
  8
LAYER_1
 62
     0
 66
     1
 10
0.0
 20
0.0
 30
0.0
 70
     1
  0
VERTEX
  5
24ED
  8
LAYER_1
 62
     0
 10
-5.8654632568359366
 20
34.789398193359382
 30
0.0
  0
VERTEX
  5
24EE
  8
LAYER_1
 62
     0
 10
-5.859710693359375
 20
34.814788818359382
 30
0.0
  0
SEQEND
  5
24EF
  8
LAYER_1
 62
     0
  0
POLYLINE
  5
2454
  8
LAYER_1
 62
     0
 66
     1
 10
0.0
 20
0.0
 30
0.0
 70
     1
  0
VERTEX
  5
24F0
  8
LAYER_1
 62
     0
 10
-5.8678817749023429
 20
34.729507446289063
 30
0.0
  0
VERTEX
  5
24F1
  8
LAYER_1
 62
     0
 10
-5.8654632568359366
 20
34.789398193359382
 30
0.0
  0
SEQEND
  5
24F2
  8
LAYER_1
 62
     0
  0
POLYLINE
  5
2455
  8
LAYER_1
 62
     0
 66
     1
 10
0.0
 20
0.0
 30
0.0
 70
     1
  0
VERTEX
  5
24F3
  8
LAYER_1
 62
     0
 10
-5.8657608032226562
 20
34.712272644042969
 30
0.0
  0
VERTEX
  5
24F4
  8
LAYER_1
 62
     0
 10
-5.8678817749023429
 20
34.729507446289063
 30
0.0
  0
SEQEND
  5
24F5
  8
LAYER_1
 62
     0
  0
POLYLINE
  5
2456
  8
LAYER_1
 62
     0
 66
     1
 10
0.0
 20
0.0
 30
0.0
 70
     1
  0
VERTEX
  5
24F6
  8
LAYER_1
 62
     0
 10
-5.3896865844726562
 20
32.031471252441413
 30
0.0
  0
VERTEX
  5
24F7
  8
LAYER_1
 62
     0
 10
-5.3879547119140616
 20
32.031982421875
 30
0.0
  0
SEQEND
  5
24F8
  8
LAYER_1
 62
     0
  0
POLYLINE
  5
2457
  8
LAYER_1
 62
     0
 66
     1
 10
0.0
 20
0.0
 30
0.0
 70
     1
  0
VERTEX
  5
24F9
  8
LAYER_1
 62
     0
 10
-5.6092987060546866
 20
32.146293640136719
 30
0.0
  0
VERTEX
  5
24FA
  8
LAYER_1
 62
     0
 10
-5.5820465087890616
 20
32.110916137695313
 30
0.0
  0
SEQEND
  5
24FB
  8
LAYER_1
 62
     0
  0
POLYLINE
  5
2458
  8
LAYER_1
 62
     0
 66
     1
 10
0.0
 20
0.0
 30
0.0
 70
     1
  0
VERTEX
  5
24FC
  8
LAYER_1
 62
     0
 10
-5.6380615234375
 20
32.210708618164063
 30
0.0
  0
VERTEX
  5
24FD
  8
LAYER_1
 62
     0
 10
-5.6474456787109366
 20
32.271797180175781
 30
0.0
  0
SEQEND
  5
24FE
  8
LAYER_1
 62
     0
  0
POLYLINE
  5
2459
  8
LAYER_1
 62
     0
 66
     1
 10
0.0
 20
0.0
 30
0.0
 70
     1
  0
VERTEX
  5
24FF
  8
LAYER_1
 62
     0
 10
-5.6092987060546866
 20
32.146293640136719
 30
0.0
  0
VERTEX
  5
2500
  8
LAYER_1
 62
     0
 10
-5.6380615234375
 20
32.210708618164063
 30
0.0
  0
SEQEND
  5
2501
  8
LAYER_1
 62
     0
  0
POLYLINE
  5
245A
  8
LAYER_1
 62
     0
 66
     1
 10
0.0
 20
0.0
 30
0.0
 70
     1
  0
VERTEX
  5
2502
  8
LAYER_1
 62
     0
 10
-5.5039215087890616
 20
32.053451538085938
 30
0.0
  0
VERTEX
  5
2503
  8
LAYER_1
 62
     0
 10
-5.5820465087890616
 20
32.110916137695313
 30
0.0
  0
SEQEND
  5
2504
  8
LAYER_1
 62
     0
  0
POLYLINE
  5
245B
  8
LAYER_1
 62
     0
 66
     1
 10
0.0
 20
0.0
 30
0.0
 70
     1
  0
VERTEX
  5
2505
  8
LAYER_1
 62
     0
 10
-5.42822265625
 20
32.031074523925781
 30
0.0
  0
VERTEX
  5
2506
  8
LAYER_1
 62
     0
 10
-5.5039215087890616
 20
32.053451538085938
 30
0.0
  0
SEQEND
  5
2507
  8
LAYER_1
 62
     0
  0
POLYLINE
  5
245C
  8
LAYER_1
 62
     0
 66
     1
 10
0.0
 20
0.0
 30
0.0
 70
     1
  0
VERTEX
  5
2508
  8
LAYER_1
 62
     0
 10
-5.3896865844726562
 20
32.031471252441413
 30
0.0
  0
VERTEX
  5
2509
  8
LAYER_1
 62
     0
 10
-5.42822265625
 20
32.031074523925781
 30
0.0
  0
SEQEND
  5
250A
  8
LAYER_1
 62
     0
  0
POLYLINE
  5
245D
  8
LAYER_1
 62
     0
 66
     1
 10
0.0
 20
0.0
 30
0.0
 70
     1
  0
VERTEX
  5
250B
  8
LAYER_1
 62
     0
 10
-5.8657608032226562
 20
34.712272644042969
 30
0.0
  0
VERTEX
  5
250C
  8
LAYER_1
 62
     0
 10
-5.6474456787109366
 20
32.271797180175781
 30
0.0
  0
SEQEND
  5
250D
  8
LAYER_1
 62
     0
  0
POLYLINE
  5
245E
  8
LAYER_1
 62
     0
 66
     1
 10
0.0
 20
0.0
 30
0.0
 70
     1
  0
VERTEX
  5
250E
  8
LAYER_1
 62
     0
 10
-4.003570556640625
 20
32.407577514648437
 30
0.0
  0
VERTEX
  5
250F
  8
LAYER_1
 62
     0
 10
-4.0253677368164062
 20
34.999565124511719
 30
0.0
  0
SEQEND
  5
2510
  8
LAYER_1
 62
     0
  0
POLYLINE
  5
245F
  8
LAYER_1
 62
     0
 66
     1
 10
0.0
 20
0.0
 30
0.0
 70
     1
  0
VERTEX
  5
2511
  8
LAYER_1
 62
     0
 10
-5.3879547119140616
 20
32.031982421875
 30
0.0
  0
VERTEX
  5
2512
  8
LAYER_1
 62
     0
 10
-4.003570556640625
 20
32.407577514648437
 30
0.0
  0
SEQEND
  5
2513
  8
LAYER_1
 62
     0
  0
POLYLINE
  5
2460
  8
LAYER_1
 62
     0
 66
     1
 10
0.0
 20
0.0
 30
0.0
 70
     1
  0
VERTEX
  5
2514
  8
LAYER_1
 62
     0
 10
7.05548095703125
 20
0.1131210327148437
 30
0.0
  0
VERTEX
  5
2515
  8
LAYER_1
 62
     0
 10
7.05999755859375
 20
0.1496963500976562
 30
0.0
  0
SEQEND
  5
2516
  8
LAYER_1
 62
     0
  0
POLYLINE
  5
2461
  8
LAYER_1
 62
     0
 66
     1
 10
0.0
 20
0.0
 30
0.0
 70
     1
  0
VERTEX
  5
2517
  8
LAYER_1
 62
     0
 10
7.0372161865234366
 20
0.0704498291015625
 30
0.0
  0
VERTEX
  5
2518
  8
LAYER_1
 62
     0
 10
7.05548095703125
 20
0.1131210327148437
 30
0.0
  0
SEQEND
  5
2519
  8
LAYER_1
 62
     0
  0
POLYLINE
  5
2462
  8
LAYER_1
 62
     0
 66
     1
 10
0.0
 20
0.0
 30
0.0
 70
     1
  0
VERTEX
  5
251A
  8
LAYER_1
 62
     0
 10
7.0139007568359366
 20
0.0418853759765625
 30
0.0
  0
VERTEX
  5
251B
  8
LAYER_1
 62
     0
 10
7.0372161865234366
 20
0.0704498291015625
 30
0.0
  0
SEQEND
  5
251C
  8
LAYER_1
 62
     0
  0
POLYLINE
  5
2463
  8
LAYER_1
 62
     0
 66
     1
 10
0.0
 20
0.0
 30
0.0
 70
     1
  0
VERTEX
  5
251D
  8
LAYER_1
 62
     0
 10
6.9842681884765616
 20
0.0197982788085938
 30
0.0
  0
VERTEX
  5
251E
  8
LAYER_1
 62
     0
 10
7.0139007568359366
 20
0.0418853759765625
 30
0.0
  0
SEQEND
  5
251F
  8
LAYER_1
 62
     0
  0
POLYLINE
  5
2464
  8
LAYER_1
 62
     0
 66
     1
 10
0.0
 20
0.0
 30
0.0
 70
     1
  0
VERTEX
  5
2520
  8
LAYER_1
 62
     0
 10
6.9386749267578116
 20
0.0028533935546875
 30
0.0
  0
VERTEX
  5
2521
  8
LAYER_1
 62
     0
 10
6.9842681884765616
 20
0.0197982788085938
 30
0.0
  0
SEQEND
  5
2522
  8
LAYER_1
 62
     0
  0
POLYLINE
  5
2465
  8
LAYER_1
 62
     0
 66
     1
 10
0.0
 20
0.0
 30
0.0
 70
     1
  0
VERTEX
  5
2523
  8
LAYER_1
 62
     0
 10
6.909210205078125
 20
0.0
 30
0.0
  0
VERTEX
  5
2524
  8
LAYER_1
 62
     0
 10
6.9386749267578116
 20
0.0028533935546875
 30
0.0
  0
SEQEND
  5
2525
  8
LAYER_1
 62
     0
  0
POLYLINE
  5
2466
  8
LAYER_1
 62
     0
 66
     1
 10
0.0
 20
0.0
 30
0.0
 70
     1
  0
VERTEX
  5
2526
  8
LAYER_1
 62
     0
 10
6.8471374511718741
 20
0.2833633422851563
 30
0.0
  0
VERTEX
  5
2527
  8
LAYER_1
 62
     0
 10
6.84954833984375
 20
0.05987548828125
 30
0.0
  0
SEQEND
  5
2528
  8
LAYER_1
 62
     0
  0
POLYLINE
  5
2467
  8
LAYER_1
 62
     0
 66
     1
 10
0.0
 20
0.0
 30
0.0
 70
     1
  0
VERTEX
  5
2529
  8
LAYER_1
 62
     0
 10
1.2674102783203121
 20
9.69757080078125
 30
0.0
  0
VERTEX
  5
252A
  8
LAYER_1
 62
     0
 10
1.2678070068359371
 20
10.74960327148437
 30
0.0
  0
SEQEND
  5
252B
  8
LAYER_1
 62
     0
  0
POLYLINE
  5
2468
  8
LAYER_1
 62
     0
 66
     1
 10
0.0
 20
0.0
 30
0.0
 70
     1
  0
VERTEX
  5
252C
  8
LAYER_1
 62
     0
 10
1.2542724609375
 20
6.8076400756835929
 30
0.0
  0
VERTEX
  5
252D
  8
LAYER_1
 62
     0
 10
1.2674102783203121
 20
9.69757080078125
 30
0.0
  0
SEQEND
  5
252E
  8
LAYER_1
 62
     0
  0
POLYLINE
  5
2469
  8
LAYER_1
 62
     0
 66
     1
 10
0.0
 20
0.0
 30
0.0
 70
     1
  0
VERTEX
  5
252F
  8
LAYER_1
 62
     0
 10
1.22216796875
 20
4.7980804443359366
 30
0.0
  0
VERTEX
  5
2530
  8
LAYER_1
 62
     0
 10
1.2542724609375
 20
6.8076400756835929
 30
0.0
  0
SEQEND
  5
2531
  8
LAYER_1
 62
     0
  0
POLYLINE
  5
246A
  8
LAYER_1
 62
     0
 66
     1
 10
0.0
 20
0.0
 30
0.0
 70
     1
  0
VERTEX
  5
2532
  8
LAYER_1
 62
     0
 10
1.1680755615234371
 20
3.4642333984375
 30
0.0
  0
VERTEX
  5
2533
  8
LAYER_1
 62
     0
 10
1.22216796875
 20
4.7980804443359366
 30
0.0
  0
SEQEND
  5
2534
  8
LAYER_1
 62
     0
  0
POLYLINE
  5
246B
  8
LAYER_1
 62
     0
 66
     1
 10
0.0
 20
0.0
 30
0.0
 70
     1
  0
VERTEX
  5
2535
  8
LAYER_1
 62
     0
 10
1.0916976928710931
 20
2.598602294921875
 30
0.0
  0
VERTEX
  5
2536
  8
LAYER_1
 62
     0
 10
1.1680755615234371
 20
3.4642333984375
 30
0.0
  0
SEQEND
  5
2537
  8
LAYER_1
 62
     0
  0
POLYLINE
  5
246C
  8
LAYER_1
 62
     0
 66
     1
 10
0.0
 20
0.0
 30
0.0
 70
     1
  0
VERTEX
  5
2538
  8
LAYER_1
 62
     0
 10
1.010627746582031
 20
2.041717529296875
 30
0.0
  0
VERTEX
  5
2539
  8
LAYER_1
 62
     0
 10
1.0916976928710931
 20
2.598602294921875
 30
0.0
  0
SEQEND
  5
253A
  8
LAYER_1
 62
     0
  0
POLYLINE
  5
246D
  8
LAYER_1
 62
     0
 66
     1
 10
0.0
 20
0.0
 30
0.0
 70
     1
  0
VERTEX
  5
253B
  8
LAYER_1
 62
     0
 10
0.8942489624023438
 20
1.4829864501953121
 30
0.0
  0
VERTEX
  5
253C
  8
LAYER_1
 62
     0
 10
1.010627746582031
 20
2.041717529296875
 30
0.0
  0
SEQEND
  5
253D
  8
LAYER_1
 62
     0
  0
POLYLINE
  5
246E
  8
LAYER_1
 62
     0
 66
     1
 10
0.0
 20
0.0
 30
0.0
 70
     1
  0
VERTEX
  5
253E
  8
LAYER_1
 62
     0
 10
0.7687530517578125
 20
1.0215911865234371
 30
0.0
  0
VERTEX
  5
253F
  8
LAYER_1
 62
     0
 10
0.8942489624023438
 20
1.4829864501953121
 30
0.0
  0
SEQEND
  5
2540
  8
LAYER_1
 62
     0
  0
POLYLINE
  5
246F
  8
LAYER_1
 62
     0
 66
     1
 10
0.0
 20
0.0
 30
0.0
 70
     1
  0
VERTEX
  5
2541
  8
LAYER_1
 62
     0
 10
0.6255950927734375
 20
0.5938720703125
 30
0.0
  0
VERTEX
  5
2542
  8
LAYER_1
 62
     0
 10
0.7687530517578125
 20
1.0215911865234371
 30
0.0
  0
SEQEND
  5
2543
  8
LAYER_1
 62
     0
  0
POLYLINE
  5
2470
  8
LAYER_1
 62
     0
 66
     1
 10
0.0
 20
0.0
 30
0.0
 70
     1
  0
VERTEX
  5
2544
  8
LAYER_1
 62
     0
 10
0.4996185302734375
 20
0.2833633422851562
 30
0.0
  0
VERTEX
  5
2545
  8
LAYER_1
 62
     0
 10
0.6255950927734375
 20
0.5938720703125
 30
0.0
  0
SEQEND
  5
2546
  8
LAYER_1
 62
     0
  0
POLYLINE
  5
2471
  8
LAYER_1
 62
     0
 66
     1
 10
0.0
 20
0.0
 30
0.0
 70
     1
  0
VERTEX
  5
2547
  8
LAYER_1
 62
     0
 10
0.7515411376953125
 20
7.9670944213867179
 30
0.0
  0
VERTEX
  5
2548
  8
LAYER_1
 62
     0
 10
0.76214599609375
 20
10.74960327148437
 30
0.0
  0
SEQEND
  5
2549
  8
LAYER_1
 62
     0
  0
POLYLINE
  5
2472
  8
LAYER_1
 62
     0
 66
     1
 10
0.0
 20
0.0
 30
0.0
 70
     1
  0
VERTEX
  5
254A
  8
LAYER_1
 62
     0
 10
0.7419357299804688
 20
6.9680862426757813
 30
0.0
  0
VERTEX
  5
254B
  8
LAYER_1
 62
     0
 10
0.7515411376953125
 20
7.9670944213867179
 30
0.0
  0
SEQEND
  5
254C
  8
LAYER_1
 62
     0
  0
POLYLINE
  5
2473
  8
LAYER_1
 62
     0
 66
     1
 10
0.0
 20
0.0
 30
0.0
 70
     1
  0
VERTEX
  5
254D
  8
LAYER_1
 62
     0
 10
0.694976806640625
 20
4.9711380004882812
 30
0.0
  0
VERTEX
  5
254E
  8
LAYER_1
 62
     0
 10
0.7419357299804688
 20
6.9680862426757813
 30
0.0
  0
SEQEND
  5
254F
  8
LAYER_1
 62
     0
  0
POLYLINE
  5
2474
  8
LAYER_1
 62
     0
 66
     1
 10
0.0
 20
0.0
 30
0.0
 70
     1
  0
VERTEX
  5
2550
  8
LAYER_1
 62
     0
 10
0.6225738525390625
 20
3.65069580078125
 30
0.0
  0
VERTEX
  5
2551
  8
LAYER_1
 62
     0
 10
0.694976806640625
 20
4.9711380004882812
 30
0.0
  0
SEQEND
  5
2552
  8
LAYER_1
 62
     0
  0
POLYLINE
  5
2475
  8
LAYER_1
 62
     0
 66
     1
 10
0.0
 20
0.0
 30
0.0
 70
     1
  0
VERTEX
  5
2553
  8
LAYER_1
 62
     0
 10
0.5632171630859375
 20
3.0036087036132808
 30
0.0
  0
VERTEX
  5
2554
  8
LAYER_1
 62
     0
 10
0.6225738525390625
 20
3.65069580078125
 30
0.0
  0
SEQEND
  5
2555
  8
LAYER_1
 62
     0
  0
POLYLINE
  5
2476
  8
LAYER_1
 62
     0
 66
     1
 10
0.0
 20
0.0
 30
0.0
 70
     1
  0
VERTEX
  5
2556
  8
LAYER_1
 62
     0
 10
0.4456634521484375
 20
2.2382659912109371
 30
0.0
  0
VERTEX
  5
2557
  8
LAYER_1
 62
     0
 10
0.5632171630859375
 20
3.0036087036132808
 30
0.0
  0
SEQEND
  5
2558
  8
LAYER_1
 62
     0
  0
POLYLINE
  5
2477
  8
LAYER_1
 62
     0
 66
     1
 10
0.0
 20
0.0
 30
0.0
 70
     1
  0
VERTEX
  5
2559
  8
LAYER_1
 62
     0
 10
0.3293075561523437
 20
1.74365234375
 30
0.0
  0
VERTEX
  5
255A
  8
LAYER_1
 62
     0
 10
0.4456634521484375
 20
2.2382659912109371
 30
0.0
  0
SEQEND
  5
255B
  8
LAYER_1
 62
     0
  0
POLYLINE
  5
2478
  8
LAYER_1
 62
     0
 66
     1
 10
0.0
 20
0.0
 30
0.0
 70
     1
  0
VERTEX
  5
255C
  8
LAYER_1
 62
     0
 10
0.1773910522460937
 20
1.2707061767578121
 30
0.0
  0
VERTEX
  5
255D
  8
LAYER_1
 62
     0
 10
0.3293075561523437
 20
1.74365234375
 30
0.0
  0
SEQEND
  5
255E
  8
LAYER_1
 62
     0
  0
POLYLINE
  5
2479
  8
LAYER_1
 62
     0
 66
     1
 10
0.0
 20
0.0
 30
0.0
 70
     1
  0
VERTEX
  5
255F
  8
LAYER_1
 62
     0
 10
-0.0072860717773438
 20
0.8205413818359375
 30
0.0
  0
VERTEX
  5
2560
  8
LAYER_1
 62
     0
 10
0.1773910522460937
 20
1.2707061767578121
 30
0.0
  0
SEQEND
  5
2561
  8
LAYER_1
 62
     0
  0
POLYLINE
  5
247A
  8
LAYER_1
 62
     0
 66
     1
 10
0.0
 20
0.0
 30
0.0
 70
     1
  0
VERTEX
  5
2562
  8
LAYER_1
 62
     0
 10
-0.2740325927734375
 20
0.2830581665039062
 30
0.0
  0
VERTEX
  5
2563
  8
LAYER_1
 62
     0
 10
-0.0072860717773438
 20
0.8205413818359375
 30
0.0
  0
SEQEND
  5
2564
  8
LAYER_1
 62
     0
  0
POLYLINE
  5
247B
  8
LAYER_1
 62
     0
 66
     1
 10
0.0
 20
0.0
 30
0.0
 70
     1
  0
VERTEX
  5
2565
  8
LAYER_1
 62
     0
 10
-0.2740325927734375
 20
0.2830581665039062
 30
0.0
  0
VERTEX
  5
2566
  8
LAYER_1
 62
     0
 10
0.4996185302734375
 20
0.2833633422851562
 30
0.0
  0
SEQEND
  5
2567
  8
LAYER_1
 62
     0
  0
POLYLINE
  5
247C
  8
LAYER_1
 62
     0
 66
     1
 10
0.0
 20
0.0
 30
0.0
 70
     1
  0
VERTEX
  5
2568
  8
LAYER_1
 62
     0
 10
0.501739501953125
 20
0.05987548828125
 30
0.0
  0
VERTEX
  5
2569
  8
LAYER_1
 62
     0
 10
0.4996185302734375
 20
0.2833633422851562
 30
0.0
  0
SEQEND
  5
256A
  8
LAYER_1
 62
     0
  0
POLYLINE
  5
247D
  8
LAYER_1
 62
     0
 66
     1
 10
0.0
 20
0.0
 30
0.0
 70
     1
  0
VERTEX
  5
256B
  8
LAYER_1
 62
     0
 10
0.4996185302734375
 20
0.2833633422851562
 30
0.0
  0
VERTEX
  5
256C
  8
LAYER_1
 62
     0
 10
6.8471374511718741
 20
0.2833633422851563
 30
0.0
  0
SEQEND
  5
256D
  8
LAYER_1
 62
     0
  0
POLYLINE
  5
247E
  8
LAYER_1
 62
     0
 66
     1
 10
0.0
 20
0.0
 30
0.0
 70
     1
  0
VERTEX
  5
256E
  8
LAYER_1
 62
     0
 10
-0.2791211574480518
 20
27.751301667648779
 30
0.0
  0
VERTEX
  5
256F
  8
LAYER_1
 62
     0
 10
-0.2803878784179683
 20
27.757057189941399
 30
0.0
  0
SEQEND
  5
2570
  8
LAYER_1
 62
     0
  0
POLYLINE
  5
247F
  8
LAYER_1
 62
     0
 66
     1
 10
0.0
 20
0.0
 30
0.0
 70
     1
  0
VERTEX
  5
2571
  8
LAYER_1
 62
     0
 10
-0.271484375
 20
27.72556304931641
 30
0.0
  0
VERTEX
  5
2572
  8
LAYER_1
 62
     0
 10
-0.2791211574480518
 20
27.751301667648779
 30
0.0
  0
SEQEND
  5
2573
  8
LAYER_1
 62
     0
  0
POLYLINE
  5
2480
  8
LAYER_1
 62
     0
 66
     1
 10
0.0
 20
0.0
 30
0.0
 70
     1
  0
VERTEX
  5
2574
  8
LAYER_1
 62
     0
 10
-0.253082275390625
 20
27.685539245605469
 30
0.0
  0
VERTEX
  5
2575
  8
LAYER_1
 62
     0
 10
-0.271484375
 20
27.72556304931641
 30
0.0
  0
SEQEND
  5
2576
  8
LAYER_1
 62
     0
  0
POLYLINE
  5
2481
  8
LAYER_1
 62
     0
 66
     1
 10
0.0
 20
0.0
 30
0.0
 70
     1
  0
VERTEX
  5
2577
  8
LAYER_1
 62
     0
 10
-0.2282867431640625
 20
27.64990234375
 30
0.0
  0
VERTEX
  5
2578
  8
LAYER_1
 62
     0
 10
-0.253082275390625
 20
27.685539245605469
 30
0.0
  0
SEQEND
  5
2579
  8
LAYER_1
 62
     0
  0
POLYLINE
  5
2482
  8
LAYER_1
 62
     0
 66
     1
 10
0.0
 20
0.0
 30
0.0
 70
     1
  0
VERTEX
  5
257A
  8
LAYER_1
 62
     0
 10
-0.1998977661132812
 20
27.620979309082031
 30
0.0
  0
VERTEX
  5
257B
  8
LAYER_1
 62
     0
 10
-0.2282867431640625
 20
27.64990234375
 30
0.0
  0
SEQEND
  5
257C
  8
LAYER_1
 62
     0
  0
POLYLINE
  5
2483
  8
LAYER_1
 62
     0
 66
     1
 10
0.0
 20
0.0
 30
0.0
 70
     1
  0
VERTEX
  5
257D
  8
LAYER_1
 62
     0
 10
-0.1627655029296875
 20
27.59429931640625
 30
0.0
  0
VERTEX
  5
257E
  8
LAYER_1
 62
     0
 10
-0.1998977661132812
 20
27.620979309082031
 30
0.0
  0
SEQEND
  5
257F
  8
LAYER_1
 62
     0
  0
POLYLINE
  5
2484
  8
LAYER_1
 62
     0
 66
     1
 10
0.0
 20
0.0
 30
0.0
 70
     1
  0
VERTEX
  5
2580
  8
LAYER_1
 62
     0
 10
-0.126129150390625
 20
27.576545715332031
 30
0.0
  0
VERTEX
  5
2581
  8
LAYER_1
 62
     0
 10
-0.1627655029296875
 20
27.59429931640625
 30
0.0
  0
SEQEND
  5
2582
  8
LAYER_1
 62
     0
  0
POLYLINE
  5
2485
  8
LAYER_1
 62
     0
 66
     1
 10
0.0
 20
0.0
 30
0.0
 70
     1
  0
VERTEX
  5
2583
  8
LAYER_1
 62
     0
 10
-0.0853500366210938
 20
27.564590454101559
 30
0.0
  0
VERTEX
  5
2584
  8
LAYER_1
 62
     0
 10
-0.126129150390625
 20
27.576545715332031
 30
0.0
  0
SEQEND
  5
2585
  8
LAYER_1
 62
     0
  0
POLYLINE
  5
2486
  8
LAYER_1
 62
     0
 66
     1
 10
0.0
 20
0.0
 30
0.0
 70
     1
  0
VERTEX
  5
2586
  8
LAYER_1
 62
     0
 10
-0.0354232788085937
 20
27.559577941894531
 30
0.0
  0
VERTEX
  5
2587
  8
LAYER_1
 62
     0
 10
-0.0853500366210938
 20
27.564590454101559
 30
0.0
  0
SEQEND
  5
2588
  8
LAYER_1
 62
     0
  0
POLYLINE
  5
2487
  8
LAYER_1
 62
     0
 66
     1
 10
0.0
 20
0.0
 30
0.0
 70
     1
  0
VERTEX
  5
2589
  8
LAYER_1
 62
     0
 10
6.8182525634765616
 20
27.559661865234371
 30
0.0
  0
VERTEX
  5
258A
  8
LAYER_1
 62
     0
 10
6.81201171875
 20
27.559577941894531
 30
0.0
  0
SEQEND
  5
258B
  8
LAYER_1
 62
     0
  0
POLYLINE
  5
2488
  8
LAYER_1
 62
     0
 66
     1
 10
0.0
 20
0.0
 30
0.0
 70
     1
  0
VERTEX
  5
258C
  8
LAYER_1
 62
     0
 10
6.827545166015625
 20
27.56005859375
 30
0.0
  0
VERTEX
  5
258D
  8
LAYER_1
 62
     0
 10
6.8182525634765616
 20
27.559661865234371
 30
0.0
  0
SEQEND
  5
258E
  8
LAYER_1
 62
     0
  0
POLYLINE
  5
2489
  8
LAYER_1
 62
     0
 66
     1
 10
0.0
 20
0.0
 30
0.0
 70
     1
  0
VERTEX
  5
258F
  8
LAYER_1
 62
     0
 10
6.8367462158203116
 20
27.560775756835941
 30
0.0
  0
VERTEX
  5
2590
  8
LAYER_1
 62
     0
 10
6.827545166015625
 20
27.56005859375
 30
0.0
  0
SEQEND
  5
2591
  8
LAYER_1
 62
     0
  0
POLYLINE
  5
248A
  8
LAYER_1
 62
     0
 66
     1
 10
0.0
 20
0.0
 30
0.0
 70
     1
  0
VERTEX
  5
2592
  8
LAYER_1
 62
     0
 10
6.8458709716796866
 20
27.561836242675781
 30
0.0
  0
VERTEX
  5
2593
  8
LAYER_1
 62
     0
 10
6.8367462158203116
 20
27.560775756835941
 30
0.0
  0
SEQEND
  5
2594
  8
LAYER_1
 62
     0
  0
POLYLINE
  5
248B
  8
LAYER_1
 62
     0
 66
     1
 10
0.0
 20
0.0
 30
0.0
 70
     1
  0
VERTEX
  5
2595
  8
LAYER_1
 62
     0
 10
6.856353759765625
 20
27.563468933105469
 30
0.0
  0
VERTEX
  5
2596
  8
LAYER_1
 62
     0
 10
6.8458709716796866
 20
27.561836242675781
 30
0.0
  0
SEQEND
  5
2597
  8
LAYER_1
 62
     0
  0
POLYLINE
  5
248C
  8
LAYER_1
 62
     0
 66
     1
 10
0.0
 20
0.0
 30
0.0
 70
     1
  0
VERTEX
  5
2598
  8
LAYER_1
 62
     0
 10
6.87109375
 20
27.566543579101559
 30
0.0
  0
VERTEX
  5
2599
  8
LAYER_1
 62
     0
 10
6.856353759765625
 20
27.563468933105469
 30
0.0
  0
SEQEND
  5
259A
  8
LAYER_1
 62
     0
  0
POLYLINE
  5
248D
  8
LAYER_1
 62
     0
 66
     1
 10
0.0
 20
0.0
 30
0.0
 70
     1
  0
VERTEX
  5
259B
  8
LAYER_1
 62
     0
 10
6.886932373046875
 20
27.57089996337891
 30
0.0
  0
VERTEX
  5
259C
  8
LAYER_1
 62
     0
 10
6.87109375
 20
27.566543579101559
 30
0.0
  0
SEQEND
  5
259D
  8
LAYER_1
 62
     0
  0
POLYLINE
  5
248E
  8
LAYER_1
 62
     0
 66
     1
 10
0.0
 20
0.0
 30
0.0
 70
     1
  0
VERTEX
  5
259E
  8
LAYER_1
 62
     0
 10
6.907806396484375
 20
27.57843017578125
 30
0.0
  0
VERTEX
  5
259F
  8
LAYER_1
 62
     0
 10
6.886932373046875
 20
27.57089996337891
 30
0.0
  0
SEQEND
  5
25A0
  8
LAYER_1
 62
     0
  0
POLYLINE
  5
248F
  8
LAYER_1
 62
     0
 66
     1
 10
0.0
 20
0.0
 30
0.0
 70
     1
  0
VERTEX
  5
25A1
  8
LAYER_1
 62
     0
 10
6.9251861572265616
 20
27.586372375488281
 30
0.0
  0
VERTEX
  5
25A2
  8
LAYER_1
 62
     0
 10
6.907806396484375
 20
27.57843017578125
 30
0.0
  0
SEQEND
  5
25A3
  8
LAYER_1
 62
     0
  0
POLYLINE
  5
2490
  8
LAYER_1
 62
     0
 66
     1
 10
0.0
 20
0.0
 30
0.0
 70
     1
  0
VERTEX
  5
25A4
  8
LAYER_1
 62
     0
 10
6.94305419921875
 20
27.596321105957031
 30
0.0
  0
VERTEX
  5
25A5
  8
LAYER_1
 62
     0
 10
6.9251861572265616
 20
27.586372375488281
 30
0.0
  0
SEQEND
  5
25A6
  8
LAYER_1
 62
     0
  0
POLYLINE
  5
2491
  8
LAYER_1
 62
     0
 66
     1
 10
0.0
 20
0.0
 30
0.0
 70
     1
  0
VERTEX
  5
25A7
  8
LAYER_1
 62
     0
 10
6.9703521728515616
 20
27.61563873291016
 30
0.0
  0
VERTEX
  5
25A8
  8
LAYER_1
 62
     0
 10
6.94305419921875
 20
27.596321105957031
 30
0.0
  0
SEQEND
  5
25A9
  8
LAYER_1
 62
     0
  0
POLYLINE
  5
2492
  8
LAYER_1
 62
     0
 66
     1
 10
0.0
 20
0.0
 30
0.0
 70
     1
  0
VERTEX
  5
25AA
  8
LAYER_1
 62
     0
 10
6.9876556396484366
 20
27.631103515625
 30
0.0
  0
VERTEX
  5
25AB
  8
LAYER_1
 62
     0
 10
6.9703521728515616
 20
27.61563873291016
 30
0.0
  0
SEQEND
  5
25AC
  8
LAYER_1
 62
     0
  0
POLYLINE
  5
2493
  8
LAYER_1
 62
     0
 66
     1
 10
0.0
 20
0.0
 30
0.0
 70
     1
  0
VERTEX
  5
25AD
  8
LAYER_1
 62
     0
 10
7.0044097900390616
 20
27.649215698242191
 30
0.0
  0
VERTEX
  5
25AE
  8
LAYER_1
 62
     0
 10
6.9876556396484366
 20
27.631103515625
 30
0.0
  0
SEQEND
  5
25AF
  8
LAYER_1
 62
     0
  0
POLYLINE
  5
2494
  8
LAYER_1
 62
     0
 66
     1
 10
0.0
 20
0.0
 30
0.0
 70
     1
  0
VERTEX
  5
25B0
  8
LAYER_1
 62
     0
 10
7.017669677734375
 20
27.666534423828129
 30
0.0
  0
VERTEX
  5
25B1
  8
LAYER_1
 62
     0
 10
7.0044097900390616
 20
27.649215698242191
 30
0.0
  0
SEQEND
  5
25B2
  8
LAYER_1
 62
     0
  0
POLYLINE
  5
2495
  8
LAYER_1
 62
     0
 66
     1
 10
0.0
 20
0.0
 30
0.0
 70
     1
  0
VERTEX
  5
25B3
  8
LAYER_1
 62
     0
 10
7.0315399169921866
 20
27.688850402832031
 30
0.0
  0
VERTEX
  5
25B4
  8
LAYER_1
 62
     0
 10
7.017669677734375
 20
27.666534423828129
 30
0.0
  0
SEQEND
  5
25B5
  8
LAYER_1
 62
     0
  0
POLYLINE
  5
2496
  8
LAYER_1
 62
     0
 66
     1
 10
0.0
 20
0.0
 30
0.0
 70
     1
  0
VERTEX
  5
25B6
  8
LAYER_1
 62
     0
 10
7.0483856201171866
 20
27.726516723632809
 30
0.0
  0
VERTEX
  5
25B7
  8
LAYER_1
 62
     0
 10
7.0315399169921866
 20
27.688850402832031
 30
0.0
  0
SEQEND
  5
25B8
  8
LAYER_1
 62
     0
  0
POLYLINE
  5
2497
  8
LAYER_1
 62
     0
 66
     1
 10
0.0
 20
0.0
 30
0.0
 70
     1
  0
VERTEX
  5
25B9
  8
LAYER_1
 62
     0
 10
7.055908203125
 20
27.752395629882809
 30
0.0
  0
VERTEX
  5
25BA
  8
LAYER_1
 62
     0
 10
7.0483856201171866
 20
27.726516723632809
 30
0.0
  0
SEQEND
  5
25BB
  8
LAYER_1
 62
     0
  0
POLYLINE
  5
2498
  8
LAYER_1
 62
     0
 66
     1
 10
0.0
 20
0.0
 30
0.0
 70
     1
  0
VERTEX
  5
25BC
  8
LAYER_1
 62
     0
 10
7.0598602294921866
 20
27.773300170898441
 30
0.0
  0
VERTEX
  5
25BD
  8
LAYER_1
 62
     0
 10
7.055908203125
 20
27.752395629882809
 30
0.0
  0
SEQEND
  5
25BE
  8
LAYER_1
 62
     0
  0
POLYLINE
  5
2499
  8
LAYER_1
 62
     0
 66
     1
 10
0.0
 20
0.0
 30
0.0
 70
     1
  0
VERTEX
  5
25BF
  8
LAYER_1
 62
     0
 10
7.0621185302734366
 20
27.796371459960941
 30
0.0
  0
VERTEX
  5
25C0
  8
LAYER_1
 62
     0
 10
7.0598602294921866
 20
27.773300170898441
 30
0.0
  0
SEQEND
  5
25C1
  8
LAYER_1
 62
     0
  0
POLYLINE
  5
249A
  8
LAYER_1
 62
     0
 66
     1
 10
0.0
 20
0.0
 30
0.0
 70
     1
  0
VERTEX
  5
25C2
  8
LAYER_1
 62
     0
 10
7.45648193359375
 20
28.748931884765621
 30
0.0
  0
VERTEX
  5
25C3
  8
LAYER_1
 62
     0
 10
7.4730224609375
 20
28.749275207519531
 30
0.0
  0
SEQEND
  5
25C4
  8
LAYER_1
 62
     0
  0
POLYLINE
  5
249B
  8
LAYER_1
 62
     0
 66
     1
 10
0.0
 20
0.0
 30
0.0
 70
     1
  0
VERTEX
  5
25C5
  8
LAYER_1
 62
     0
 10
7.4148101806640616
 20
28.744873046875
 30
0.0
  0
VERTEX
  5
25C6
  8
LAYER_1
 62
     0
 10
7.45648193359375
 20
28.748931884765621
 30
0.0
  0
SEQEND
  5
25C7
  8
LAYER_1
 62
     0
  0
POLYLINE
  5
249C
  8
LAYER_1
 62
     0
 66
     1
 10
0.0
 20
0.0
 30
0.0
 70
     1
  0
VERTEX
  5
25C8
  8
LAYER_1
 62
     0
 10
7.3900299072265616
 20
28.740226745605469
 30
0.0
  0
VERTEX
  5
25C9
  8
LAYER_1
 62
     0
 10
7.4148101806640616
 20
28.744873046875
 30
0.0
  0
SEQEND
  5
25CA
  8
LAYER_1
 62
     0
  0
POLYLINE
  5
249D
  8
LAYER_1
 62
     0
 66
     1
 10
0.0
 20
0.0
 30
0.0
 70
     1
  0
VERTEX
  5
25CB
  8
LAYER_1
 62
     0
 10
7.35504150390625
 20
28.73069000244141
 30
0.0
  0
VERTEX
  5
25CC
  8
LAYER_1
 62
     0
 10
7.3900299072265616
 20
28.740226745605469
 30
0.0
  0
SEQEND
  5
25CD
  8
LAYER_1
 62
     0
  0
POLYLINE
  5
249E
  8
LAYER_1
 62
     0
 66
     1
 10
0.0
 20
0.0
 30
0.0
 70
     1
  0
VERTEX
  5
25CE
  8
LAYER_1
 62
     0
 10
7.3194122314453116
 20
28.71710205078125
 30
0.0
  0
VERTEX
  5
25CF
  8
LAYER_1
 62
     0
 10
7.35504150390625
 20
28.73069000244141
 30
0.0
  0
SEQEND
  5
25D0
  8
LAYER_1
 62
     0
  0
POLYLINE
  5
249F
  8
LAYER_1
 62
     0
 66
     1
 10
0.0
 20
0.0
 30
0.0
 70
     1
  0
VERTEX
  5
25D1
  8
LAYER_1
 62
     0
 10
7.285614013671875
 20
28.700149536132809
 30
0.0
  0
VERTEX
  5
25D2
  8
LAYER_1
 62
     0
 10
7.3194122314453116
 20
28.71710205078125
 30
0.0
  0
SEQEND
  5
25D3
  8
LAYER_1
 62
     0
  0
POLYLINE
  5
24A0
  8
LAYER_1
 62
     0
 66
     1
 10
0.0
 20
0.0
 30
0.0
 70
     1
  0
VERTEX
  5
25D4
  8
LAYER_1
 62
     0
 10
7.2556304931640616
 20
28.681289672851559
 30
0.0
  0
VERTEX
  5
25D5
  8
LAYER_1
 62
     0
 10
7.285614013671875
 20
28.700149536132809
 30
0.0
  0
SEQEND
  5
25D6
  8
LAYER_1
 62
     0
  0
POLYLINE
  5
24A1
  8
LAYER_1
 62
     0
 66
     1
 10
0.0
 20
0.0
 30
0.0
 70
     1
  0
VERTEX
  5
25D7
  8
LAYER_1
 62
     0
 10
7.2160186767578116
 20
28.649612426757809
 30
0.0
  0
VERTEX
  5
25D8
  8
LAYER_1
 62
     0
 10
7.2556304931640616
 20
28.681289672851559
 30
0.0
  0
SEQEND
  5
25D9
  8
LAYER_1
 62
     0
  0
POLYLINE
  5
24A2
  8
LAYER_1
 62
     0
 66
     1
 10
0.0
 20
0.0
 30
0.0
 70
     1
  0
VERTEX
  5
25DA
  8
LAYER_1
 62
     0
 10
7.1971282958984366
 20
28.63108062744141
 30
0.0
  0
VERTEX
  5
25DB
  8
LAYER_1
 62
     0
 10
7.2160186767578116
 20
28.649612426757809
 30
0.0
  0
SEQEND
  5
25DC
  8
LAYER_1
 62
     0
  0
POLYLINE
  5
24A3
  8
LAYER_1
 62
     0
 66
     1
 10
0.0
 20
0.0
 30
0.0
 70
     1
  0
VERTEX
  5
25DD
  8
LAYER_1
 62
     0
 10
7.1699676513671866
 20
28.599151611328129
 30
0.0
  0
VERTEX
  5
25DE
  8
LAYER_1
 62
     0
 10
7.1971282958984366
 20
28.63108062744141
 30
0.0
  0
SEQEND
  5
25DF
  8
LAYER_1
 62
     0
  0
POLYLINE
  5
24A4
  8
LAYER_1
 62
     0
 66
     1
 10
0.0
 20
0.0
 30
0.0
 70
     1
  0
VERTEX
  5
25E0
  8
LAYER_1
 62
     0
 10
7.148712158203125
 20
28.568099975585941
 30
0.0
  0
VERTEX
  5
25E1
  8
LAYER_1
 62
     0
 10
7.1699676513671866
 20
28.599151611328129
 30
0.0
  0
SEQEND
  5
25E2
  8
LAYER_1
 62
     0
  0
POLYLINE
  5
24A5
  8
LAYER_1
 62
     0
 66
     1
 10
0.0
 20
0.0
 30
0.0
 70
     1
  0
VERTEX
  5
25E3
  8
LAYER_1
 62
     0
 10
7.125525338309151
 20
28.52430325462705
 30
0.0
  0
VERTEX
  5
25E4
  8
LAYER_1
 62
     0
 10
7.148712158203125
 20
28.568099975585941
 30
0.0
  0
SEQEND
  5
25E5
  8
LAYER_1
 62
     0
  0
POLYLINE
  5
24A6
  8
LAYER_1
 62
     0
 66
     1
 10
0.0
 20
0.0
 30
0.0
 70
     1
  0
VERTEX
  5
25E6
  8
LAYER_1
 62
     0
 10
7.1112823486328116
 20
28.486930847167969
 30
0.0
  0
VERTEX
  5
25E7
  8
LAYER_1
 62
     0
 10
7.125525338309151
 20
28.52430325462705
 30
0.0
  0
SEQEND
  5
25E8
  8
LAYER_1
 62
     0
  0
POLYLINE
  5
24A7
  8
LAYER_1
 62
     0
 66
     1
 10
0.0
 20
0.0
 30
0.0
 70
     1
  0
VERTEX
  5
25E9
  8
LAYER_1
 62
     0
 10
7.0998687744140616
 20
28.442703247070309
 30
0.0
  0
VERTEX
  5
25EA
  8
LAYER_1
 62
     0
 10
7.1112823486328116
 20
28.486930847167969
 30
0.0
  0
SEQEND
  5
25EB
  8
LAYER_1
 62
     0
  0
POLYLINE
  5
24A8
  8
LAYER_1
 62
     0
 66
     1
 10
0.0
 20
0.0
 30
0.0
 70
     1
  0
VERTEX
  5
25EC
  8
LAYER_1
 62
     0
 10
7.09332275390625
 20
28.389404296875
 30
0.0
  0
VERTEX
  5
25ED
  8
LAYER_1
 62
     0
 10
7.0998687744140616
 20
28.442703247070309
 30
0.0
  0
SEQEND
  5
25EE
  8
LAYER_1
 62
     0
  0
POLYLINE
  5
24A9
  8
LAYER_1
 62
     0
 66
     1
 10
0.0
 20
0.0
 30
0.0
 70
     1
  0
VERTEX
  5
25EF
  8
LAYER_1
 62
     0
 10
8.6091156005859375
 20
32.405158996582031
 30
0.0
  0
VERTEX
  5
25F0
  8
LAYER_1
 62
     0
 10
8.6097452874075842
 20
32.407577514648437
 30
0.0
  0
SEQEND
  5
25F1
  8
LAYER_1
 62
     0
  0
POLYLINE
  5
24AA
  8
LAYER_1
 62
     0
 66
     1
 10
0.0
 20
0.0
 30
0.0
 70
     1
  0
VERTEX
  5
25F2
  8
LAYER_1
 62
     0
 10
8.5500640869140625
 20
32.178352355957031
 30
0.0
  0
VERTEX
  5
25F3
  8
LAYER_1
 62
     0
 10
8.6091156005859375
 20
32.405158996582031
 30
0.0
  0
SEQEND
  5
25F4
  8
LAYER_1
 62
     0
  0
POLYLINE
  5
24AB
  8
LAYER_1
 62
     0
 66
     1
 10
0.0
 20
0.0
 30
0.0
 70
     1
  0
VERTEX
  5
25F5
  8
LAYER_1
 62
     0
 10
8.197906494140625
 20
30.611541748046879
 30
0.0
  0
VERTEX
  5
25F6
  8
LAYER_1
 62
     0
 10
8.5500640869140625
 20
32.178352355957031
 30
0.0
  0
SEQEND
  5
25F7
  8
LAYER_1
 62
     0
  0
POLYLINE
  5
24AC
  8
LAYER_1
 62
     0
 66
     1
 10
0.0
 20
0.0
 30
0.0
 70
     1
  0
VERTEX
  5
25F8
  8
LAYER_1
 62
     0
 10
8.1764373779297994
 20
30.502288818359862
 30
0.0
  0
VERTEX
  5
25F9
  8
LAYER_1
 62
     0
 10
8.197906494140625
 20
30.611541748046879
 30
0.0
  0
SEQEND
  5
25FA
  8
LAYER_1
 62
     0
  0
POLYLINE
  5
24AD
  8
LAYER_1
 62
     0
 66
     1
 10
0.0
 20
0.0
 30
0.0
 70
     1
  0
VERTEX
  5
25FB
  8
LAYER_1
 62
     0
 10
8.1098336595293432
 20
30.273576439453869
 30
0.0
  0
VERTEX
  5
25FC
  8
LAYER_1
 62
     0
 10
8.1764373779297994
 20
30.502288818359862
 30
0.0
  0
SEQEND
  5
25FD
  8
LAYER_1
 62
     0
  0
POLYLINE
  5
24AE
  8
LAYER_1
 62
     0
 66
     1
 10
0.0
 20
0.0
 30
0.0
 70
     1
  0
VERTEX
  5
25FE
  8
LAYER_1
 62
     0
 10
8.0975741849580132
 20
30.249037611026239
 30
0.0
  0
VERTEX
  5
25FF
  8
LAYER_1
 62
     0
 10
8.1098336595293432
 20
30.273576439453869
 30
0.0
  0
SEQEND
  5
2600
  8
LAYER_1
 62
     0
  0
POLYLINE
  5
24AF
  8
LAYER_1
 62
     0
 66
     1
 10
0.0
 20
0.0
 30
0.0
 70
     1
  0
VERTEX
  5
2601
  8
LAYER_1
 62
     0
 10
8.0211024176084038
 20
30.0959700739445
 30
0.0
  0
VERTEX
  5
2602
  8
LAYER_1
 62
     0
 10
8.0975741849580132
 20
30.249037611026239
 30
0.0
  0
SEQEND
  5
2603
  8
LAYER_1
 62
     0
  0
POLYLINE
  5
24B0
  8
LAYER_1
 62
     0
 66
     1
 10
0.0
 20
0.0
 30
0.0
 70
     1
  0
VERTEX
  5
2604
  8
LAYER_1
 62
     0
 10
7.9060821533203116
 20
29.972015380859379
 30
0.0
  0
VERTEX
  5
2605
  8
LAYER_1
 62
     0
 10
8.0211024176084038
 20
30.0959700739445
 30
0.0
  0
SEQEND
  5
2606
  8
LAYER_1
 62
     0
  0
POLYLINE
  5
24B1
  8
LAYER_1
 62
     0
 66
     1
 10
0.0
 20
0.0
 30
0.0
 70
     1
  0
VERTEX
  5
2607
  8
LAYER_1
 62
     0
 10
7.83001708984375
 20
29.91571044921875
 30
0.0
  0
VERTEX
  5
2608
  8
LAYER_1
 62
     0
 10
7.9060821533203116
 20
29.972015380859379
 30
0.0
  0
SEQEND
  5
2609
  8
LAYER_1
 62
     0
  0
POLYLINE
  5
24B2
  8
LAYER_1
 62
     0
 66
     1
 10
0.0
 20
0.0
 30
0.0
 70
     1
  0
VERTEX
  5
260A
  8
LAYER_1
 62
     0
 10
6.5693511962890616
 20
29.27935791015625
 30
0.0
  0
VERTEX
  5
260B
  8
LAYER_1
 62
     0
 10
7.83001708984375
 20
29.91571044921875
 30
0.0
  0
SEQEND
  5
260C
  8
LAYER_1
 62
     0
  0
POLYLINE
  5
24B3
  8
LAYER_1
 62
     0
 66
     1
 10
0.0
 20
0.0
 30
0.0
 70
     1
  0
VERTEX
  5
260D
  8
LAYER_1
 62
     0
 10
6.5655835590488119
 20
28.906377880261079
 30
0.0
  0
VERTEX
  5
260E
  8
LAYER_1
 62
     0
 10
6.53125
 20
29.004035949707031
 30
0.0
  0
SEQEND
  5
260F
  8
LAYER_1
 62
     0
  0
POLYLINE
  5
24B4
  8
LAYER_1
 62
     0
 66
     1
 10
0.0
 20
0.0
 30
0.0
 70
     1
  0
VERTEX
  5
2610
  8
LAYER_1
 62
     0
 10
6.6251983642578116
 20
28.845077514648441
 30
0.0
  0
VERTEX
  5
2611
  8
LAYER_1
 62
     0
 10
6.5655835590488119
 20
28.906377880261079
 30
0.0
  0
SEQEND
  5
2612
  8
LAYER_1
 62
     0
  0
POLYLINE
  5
24B5
  8
LAYER_1
 62
     0
 66
     1
 10
0.0
 20
0.0
 30
0.0
 70
     1
  0
VERTEX
  5
2613
  8
LAYER_1
 62
     0
 10
6.7433013916015616
 20
28.78507232666016
 30
0.0
  0
VERTEX
  5
2614
  8
LAYER_1
 62
     0
 10
6.6251983642578116
 20
28.845077514648441
 30
0.0
  0
SEQEND
  5
2615
  8
LAYER_1
 62
     0
  0
POLYLINE
  5
24B6
  8
LAYER_1
 62
     0
 66
     1
 10
0.0
 20
0.0
 30
0.0
 70
     1
  0
VERTEX
  5
2616
  8
LAYER_1
 62
     0
 10
6.8689958727037581
 20
28.757180085053321
 30
0.0
  0
VERTEX
  5
2617
  8
LAYER_1
 62
     0
 10
6.7433013916015616
 20
28.78507232666016
 30
0.0
  0
SEQEND
  5
2618
  8
LAYER_1
 62
     0
  0
POLYLINE
  5
24B7
  8
LAYER_1
 62
     0
 66
     1
 10
0.0
 20
0.0
 30
0.0
 70
     1
  0
VERTEX
  5
2619
  8
LAYER_1
 62
     0
 10
6.97552490234375
 20
28.749275207519531
 30
0.0
  0
VERTEX
  5
261A
  8
LAYER_1
 62
     0
 10
6.8689958727037581
 20
28.757180085053321
 30
0.0
  0
SEQEND
  5
261B
  8
LAYER_1
 62
     0
  0
POLYLINE
  5
24B8
  8
LAYER_1
 62
     0
 66
     1
 10
0.0
 20
0.0
 30
0.0
 70
     1
  0
VERTEX
  5
261C
  8
LAYER_1
 62
     0
 10
6.5693511962890616
 20
29.27935791015625
 30
0.0
  0
VERTEX
  5
261D
  8
LAYER_1
 62
     0
 10
6.5310211181640616
 20
29.005722045898441
 30
0.0
  0
SEQEND
  5
261E
  8
LAYER_1
 62
     0
  0
POLYLINE
  5
24B9
  8
LAYER_1
 62
     0
 66
     1
 10
0.0
 20
0.0
 30
0.0
 70
     1
  0
VERTEX
  5
261F
  8
LAYER_1
 62
     0
 10
-2.172607421875
 20
30.55745697021484
 30
0.0
  0
VERTEX
  5
2620
  8
LAYER_1
 62
     0
 10
-2.1898193359375
 20
30.616386413574219
 30
0.0
  0
SEQEND
  5
2621
  8
LAYER_1
 62
     0
  0
POLYLINE
  5
24BA
  8
LAYER_1
 62
     0
 66
     1
 10
0.0
 20
0.0
 30
0.0
 70
     1
  0
VERTEX
  5
2622
  8
LAYER_1
 62
     0
 10
-2.1284027099609371
 20
30.450927734375
 30
0.0
  0
VERTEX
  5
2623
  8
LAYER_1
 62
     0
 10
-2.172607421875
 20
30.55745697021484
 30
0.0
  0
SEQEND
  5
2624
  8
LAYER_1
 62
     0
  0
POLYLINE
  5
24BB
  8
LAYER_1
 62
     0
 66
     1
 10
0.0
 20
0.0
 30
0.0
 70
     1
  0
VERTEX
  5
2625
  8
LAYER_1
 62
     0
 10
-2.0188217163085929
 20
30.286186218261719
 30
0.0
  0
VERTEX
  5
2626
  8
LAYER_1
 62
     0
 10
-2.1284027099609371
 20
30.450927734375
 30
0.0
  0
SEQEND
  5
2627
  8
LAYER_1
 62
     0
  0
POLYLINE
  5
24BC
  8
LAYER_1
 62
     0
 66
     1
 10
0.0
 20
0.0
 30
0.0
 70
     1
  0
VERTEX
  5
2628
  8
LAYER_1
 62
     0
 10
-1.920509338378906
 20
30.189620971679691
 30
0.0
  0
VERTEX
  5
2629
  8
LAYER_1
 62
     0
 10
-2.0188217163085929
 20
30.286186218261719
 30
0.0
  0
SEQEND
  5
262A
  8
LAYER_1
 62
     0
  0
POLYLINE
  5
24BD
  8
LAYER_1
 62
     0
 66
     1
 10
0.0
 20
0.0
 30
0.0
 70
     1
  0
VERTEX
  5
262B
  8
LAYER_1
 62
     0
 10
-1.801239013671875
 20
30.107673645019531
 30
0.0
  0
VERTEX
  5
262C
  8
LAYER_1
 62
     0
 10
-1.920509338378906
 20
30.189620971679691
 30
0.0
  0
SEQEND
  5
262D
  8
LAYER_1
 62
     0
  0
POLYLINE
  5
24BE
  8
LAYER_1
 62
     0
 66
     1
 10
0.0
 20
0.0
 30
0.0
 70
     1
  0
VERTEX
  5
262E
  8
LAYER_1
 62
     0
 10
-1.696258544921875
 20
30.05812835693359
 30
0.0
  0
VERTEX
  5
262F
  8
LAYER_1
 62
     0
 10
-1.801239013671875
 20
30.107673645019531
 30
0.0
  0
SEQEND
  5
2630
  8
LAYER_1
 62
     0
  0
POLYLINE
  5
24BF
  8
LAYER_1
 62
     0
 66
     1
 10
0.0
 20
0.0
 30
0.0
 70
     1
  0
VERTEX
  5
2631
  8
LAYER_1
 62
     0
 10
-1.020721435546875
 20
29.796234130859379
 30
0.0
  0
VERTEX
  5
2632
  8
LAYER_1
 62
     0
 10
-0.79998779296875
 20
29.571243286132809
 30
0.0
  0
SEQEND
  5
2633
  8
LAYER_1
 62
     0
  0
POLYLINE
  5
24C0
  8
LAYER_1
 62
     0
 66
     1
 10
0.0
 20
0.0
 30
0.0
 70
     1
  0
VERTEX
  5
2634
  8
LAYER_1
 62
     0
 10
-0.79998779296875
 20
29.571243286132809
 30
0.0
  0
VERTEX
  5
2635
  8
LAYER_1
 62
     0
 10
0.1232376098632812
 20
29.368621826171879
 30
0.0
  0
SEQEND
  5
2636
  8
LAYER_1
 62
     0
  0
POLYLINE
  5
24C1
  8
LAYER_1
 62
     0
 66
     1
 10
0.0
 20
0.0
 30
0.0
 70
     1
  0
VERTEX
  5
2637
  8
LAYER_1
 62
     0
 10
0.3551864624023437
 20
29.345039367675781
 30
0.0
  0
VERTEX
  5
2638
  8
LAYER_1
 62
     0
 10
0.1232376098632812
 20
29.368621826171879
 30
0.0
  0
SEQEND
  5
2639
  8
LAYER_1
 62
     0
  0
POLYLINE
  5
24C2
  8
LAYER_1
 62
     0
 66
     1
 10
0.0
 20
0.0
 30
0.0
 70
     1
  0
VERTEX
  5
263A
  8
LAYER_1
 62
     0
 10
6.4782562255859366
 20
29.325859069824219
 30
0.0
  0
VERTEX
  5
263B
  8
LAYER_1
 62
     0
 10
6.5693511962890616
 20
29.27935791015625
 30
0.0
  0
SEQEND
  5
263C
  8
LAYER_1
 62
     0
  0
POLYLINE
  5
24C3
  8
LAYER_1
 62
     0
 66
     1
 10
0.0
 20
0.0
 30
0.0
 70
     1
  0
VERTEX
  5
263D
  8
LAYER_1
 62
     0
 10
6.36328125
 20
29.3516845703125
 30
0.0
  0
VERTEX
  5
263E
  8
LAYER_1
 62
     0
 10
6.4782562255859366
 20
29.325859069824219
 30
0.0
  0
SEQEND
  5
263F
  8
LAYER_1
 62
     0
  0
POLYLINE
  5
24C4
  8
LAYER_1
 62
     0
 66
     1
 10
0.0
 20
0.0
 30
0.0
 70
     1
  0
VERTEX
  5
2640
  8
LAYER_1
 62
     0
 10
0.3551864624023437
 20
29.345039367675781
 30
0.0
  0
VERTEX
  5
2641
  8
LAYER_1
 62
     0
 10
6.36328125
 20
29.3516845703125
 30
0.0
  0
SEQEND
  5
2642
  8
LAYER_1
 62
     0
  0
POLYLINE
  5
24C5
  8
LAYER_1
 62
     0
 66
     1
 10
0.0
 20
0.0
 30
0.0
 70
     1
  0
VERTEX
  5
2643
  8
LAYER_1
 62
     0
 10
7.0612030029296866
 20
27.78155517578125
 30
0.0
  0
VERTEX
  5
2644
  8
LAYER_1
 62
     0
 10
9.7536773681640625
 20
28.749275207519531
 30
0.0
  0
SEQEND
  5
2645
  8
LAYER_1
 62
     0
  0
ENDSEC
  0
EOF
