  0
SECTION
  2
HEADER
  9
$ACADVER
  1
AC1009
  9
$INSBASE
 10
548.62353093463207
 20
86.083423562751847
 30
0.0
  9
$EXTMIN
 10
529.75973093463222
 20
86.083423562751804
 30
0.0
  9
$EXTMAX
 10
548.63008677293567
 20
120.61624766865179
 30
0.0
  9
$LIMMIN
 10
0.0
 20
0.0
  9
$LIMMAX
 10
11.692913385800001
 20
8.2677165353999982
  9
$ORTHOMODE
 70
     1
  9
$REGENMODE
 70
     1
  9
$FILLMODE
 70
     1
  9
$QTEXTMODE
 70
     0
  9
$MIRRTEXT
 70
     0
  9
$DRAGMODE
 70
     2
  9
$LTSCALE
 40
0.6431102362
  9
$OSMODE
 70
  3071
  9
$ATTMODE
 70
     1
  9
$TEXTSIZE
 40
0.2
  9
$TRACEWID
 40
0.05
  9
$TEXTSTYLE
  7
STANDARD
  9
$CLAYER
  8
0
  9
$CELTYPE
  6
BYLAYER
  9
$CECOLOR
 62
   256
  9
$DIMSCALE
 40
1.0
  9
$DIMASZ
 40
0.1875
  9
$DIMEXO
 40
0.0625
  9
$DIMDLI
 40
0.4443307087
  9
$DIMRND
 40
0.0
  9
$DIMDLE
 40
0.0
  9
$DIMEXE
 40
0.125
  9
$DIMTP
 40
0.01
  9
$DIMTM
 40
0.01
  9
$DIMTXT
 40
2.0
  9
$DIMCEN
 40
0.1052362205
  9
$DIMTSZ
 40
0.0
  9
$DIMTOL
 70
     1
  9
$DIMLIM
 70
     0
  9
$DIMTIH
 70
     1
  9
$DIMTOH
 70
     1
  9
$DIMSE1
 70
     0
  9
$DIMSE2
 70
     0
  9
$DIMTAD
 70
     0
  9
$DIMZIN
 70
     0
  9
$DIMBLK
  1

  9
$DIMASO
 70
     1
  9
$DIMSHO
 70
     1
  9
$DIMPOST
  1
\X
  9
$DIMAPOST
  1

  9
$DIMALT
 70
     1
  9
$DIMALTD
 70
     2
  9
$DIMALTF
 40
25.399999999999999
  9
$DIMLFAC
 40
1.0
  9
$DIMTOFL
 70
     0
  9
$DIMTVP
 40
0.0
  9
$DIMTIX
 70
     0
  9
$DIMSOXD
 70
     0
  9
$DIMSAH
 70
     0
  9
$DIMBLK1
  1

  9
$DIMBLK2
  1

  9
$DIMSTYLE
  2
STANDARD
  9
$DIMCLRD
 70
     0
  9
$DIMCLRE
 70
     0
  9
$DIMCLRT
 70
     0
  9
$DIMTFAC
 40
1.0
  9
$DIMGAP
 40
0.09
  9
$LUNITS
 70
     2
  9
$LUPREC
 70
     4
  9
$SKETCHINC
 40
0.1
  9
$FILLETRAD
 40
0.0
  9
$AUNITS
 70
     0
  9
$AUPREC
 70
     0
  9
$MENU
  1
.
  9
$ELEVATION
 40
0.0
  9
$PELEVATION
 40
0.0
  9
$THICKNESS
 40
0.0
  9
$LIMCHECK
 70
     0
  9
$BLIPMODE
 70
     0
  9
$CHAMFERA
 40
0.0
  9
$CHAMFERB
 40
0.0
  9
$SKPOLY
 70
     0
  9
$TDCREATE
 40
2458060.4683680669
  9
$TDUPDATE
 40
2458618.8216631939
  9
$TDINDWG
 40
0.24937125
  9
$TDUSRTIMER
 40
0.24937125
  9
$USRTIMER
 70
     1
  9
$ANGBASE
 50
0.0
  9
$ANGDIR
 70
     0
  9
$PDMODE
 70
     0
  9
$PDSIZE
 40
0.3125
  9
$PLINEWID
 40
0.0
  9
$COORDS
 70
     1
  9
$SPLFRAME
 70
     0
  9
$SPLINETYPE
 70
     6
  9
$SPLINESEGS
 70
     8
  9
$ATTDIA
 70
     1
  9
$ATTREQ
 70
     1
  9
$HANDLING
 70
     1
  9
$HANDSEED
  5
459C
  9
$SURFTAB1
 70
     6
  9
$SURFTAB2
 70
     6
  9
$SURFTYPE
 70
     6
  9
$SURFU
 70
     6
  9
$SURFV
 70
     6
  9
$UCSNAME
  2

  9
$UCSORG
 10
0.0
 20
0.0
 30
0.0
  9
$UCSXDIR
 10
1.0
 20
0.0
 30
0.0
  9
$UCSYDIR
 10
0.0
 20
1.0
 30
0.0
  9
$PUCSNAME
  2

  9
$PUCSORG
 10
0.0
 20
0.0
 30
0.0
  9
$PUCSXDIR
 10
1.0
 20
0.0
 30
0.0
  9
$PUCSYDIR
 10
0.0
 20
1.0
 30
0.0
  9
$USERI1
 70
     0
  9
$USERI2
 70
     0
  9
$USERI3
 70
     0
  9
$USERI4
 70
     0
  9
$USERI5
 70
     0
  9
$USERR1
 40
0.0
  9
$USERR2
 40
0.0
  9
$USERR3
 40
0.0
  9
$USERR4
 40
0.0
  9
$USERR5
 40
0.0
  9
$WORLDVIEW
 70
     1
  9
$SHADEDGE
 70
     3
  9
$SHADEDIF
 70
    70
  9
$TILEMODE
 70
     1
  9
$MAXACTVP
 70
    64
  9
$PLIMCHECK
 70
     0
  9
$PEXTMIN
 10
1.0000000000000000E+020
 20
1.0000000000000000E+020
 30
1.0000000000000000E+020
  9
$PEXTMAX
 10
-1.0000000000000000E+020
 20
-1.0000000000000000E+020
 30
-1.0000000000000000E+020
  9
$PLIMMIN
 10
0.0
 20
0.0
  9
$PLIMMAX
 10
12.0
 20
9.0
  9
$UNITMODE
 70
     0
  9
$VISRETAIN
 70
     1
  9
$PLINEGEN
 70
     0
  9
$PSLTSCALE
 70
     1
  0
ENDSEC
  0
SECTION
  2
TABLES
  0
TABLE
  2
VPORT
 70
     1
  0
VPORT
  2
*ACTIVE
 70
     0
 10
0.0
 20
0.0
 11
1.0
 21
1.0
 12
0.0
 22
0.0
 13
0.0
 23
0.0
 14
1.0
 24
1.0
 15
0.0
 25
0.0
 16
0.0
 26
0.0
 36
110.66276579995839
 17
539.19490885378411
 27
103.34983561570181
 37
0.0
 40
39.379720452354391
 41
2.0984340044742731
 42
50.0
 43
0.0
 44
0.0
 50
0.0
 51
0.0
 71
     0
 72
   100
 73
     1
 74
     1
 75
     0
 76
     0
 77
     0
 78
     0
  0
ENDTAB
  0
TABLE
  2
LTYPE
 70
     2
  0
LTYPE
  2
CONTINUOUS
 70
     0
  3
Solid line
 72
    65
 73
     0
 40
0.0
  0
LTYPE
  2
PHANTOM2
 70
     0
  3
___ _ _ ___ _ _ ___ _ _ ___ _ _
 72
    65
 73
     6
 40
1.25
 49
0.625
 49
-0.125
 49
0.125
 49
-0.125
 49
0.125
 49
-0.125
  0
ENDTAB
  0
TABLE
  2
LAYER
 70
     2
  0
LAYER
  2
0
 70
     0
 62
   255
  6
CONTINUOUS
  0
LAYER
  2
DEFPOINTS
 70
     0
 62
     7
  6
CONTINUOUS
  0
ENDTAB
  0
TABLE
  2
STYLE
 70
     1
  0
STYLE
  2
STANDARD
 70
     0
 40
0.0
 41
0.8
 50
0.0
 71
     0
 42
0.2
  3
txt
  4

  0
ENDTAB
  0
TABLE
  2
VIEW
 70
     0
  0
ENDTAB
  0
TABLE
  2
UCS
 70
     0
  0
ENDTAB
  0
TABLE
  2
APPID
 70
     9
  0
APPID
  2
ACAD
 70
     0
  0
APPID
  2
ACAD_MLEADERVER
 70
     0
  0
APPID
  2
ACAD_EXEMPT_FROM_CAD_STANDARDS
 70
     0
  0
APPID
  2
ACAD_NAV_VCDISPLAY
 70
     0
  0
APPID
  2
ACAECLAYERSTANDARD
 70
     0
  0
APPID
  2
ACCMTRANSPARENCY
 70
     0
  0
APPID
  2
ACAD_DSTYLE_DIMJAG
 70
     0
  0
APPID
  2
ACAD_DSTYLE_DIMTALN
 70
     0
  0
APPID
  2
ACDBATTR
 70
     0
  0
ENDTAB
  0
TABLE
  2
DIMSTYLE
 70
     1
  0
DIMSTYLE
  2
STANDARD
 70
     0
  3

  4

  5

  6

  7

 40
1.0
 41
0.1875
 42
0.0625
 43
0.38
 44
0.125
 45
0.0
 46
0.0
 47
0.01
 48
0.01
140
0.15625
141
0.09
142
0.0
143
25.399999999999999
144
1.0
145
0.0
146
1.0
147
0.09
 71
     1
 72
     0
 73
     1
 74
     1
 75
     0
 76
     0
 77
     0
 78
     4
170
     0
171
     2
172
     0
173
     0
174
     0
175
     0
176
     0
177
     0
178
     0
  0
ENDTAB
  0
ENDSEC
  0
SECTION
  2
BLOCKS
  0
BLOCK
  8
0
  2
$MODEL_SPACE
 70
     0
 10
0.0
 20
0.0
 30
0.0
  3
$MODEL_SPACE
  1

  0
ENDBLK
  5
21
  8
0
  0
BLOCK
 67
     1
  8
0
  2
$PAPER_SPACE
 70
     0
 10
0.0
 20
0.0
 30
0.0
  3
$PAPER_SPACE
  1

  0
ENDBLK
  5
1D
 67
     1
  8
0
  0
ENDSEC
  0
SECTION
  2
ENTITIES
  0
ATTDEF
  5
3930
  8
DEFPOINTS
 10
548.61942010626933
 20
86.096926359052105
 30
0.0
 40
0.001
  1
K-2362-1
  3

  2
MODELNUMBER
 70
     0
1001
ACDBATTR
1070
     0
1070
     1
  0
ATTDEF
  5
3931
  8
DEFPOINTS
 10
548.61942010626933
 20
86.095259692385454
 30
0.0
 40
0.001
  1
CIMARRON
  3

  2
TRADENAME
 70
     0
1001
ACDBATTR
1070
     0
1070
     1
  0
ATTDEF
  5
3932
  8
DEFPOINTS
 10
548.61942010626933
 20
86.093593025718775
 30
0.0
 40
0.001
  1
BATHROOM SINK
  3

  2
PRODUCT
 70
     0
1001
ACDBATTR
1070
     0
1070
     1
  0
ATTDEF
  5
3933
  8
DEFPOINTS
 10
548.61942010626933
 20
86.09192635905211
 30
0.0
 40
0.001
  1
VITREOUS CHINA
  3

  2
MATERIAL
 70
     0
1001
ACDBATTR
1070
     0
1070
     1
  0
LINE
  5
4433
  8
0
 10
529.83264299123221
 20
118.9420292416518
 30
0.0
 11
529.75973093463222
 21
120.4058426669105
 31
0.0
  0
LINE
  5
4434
  8
0
 10
544.16748426822096
 20
113.3804176790243
 30
0.0
 11
544.34427255473224
 21
114.3443699463518
 31
0.0
  0
LINE
  5
4435
  8
0
 10
548.62353093463207
 20
120.41595988445179
 30
0.0
 11
548.62353093463207
 21
115.0134235597518
 31
0.0
  0
LINE
  5
4436
  8
0
 10
536.47049527243223
 20
113.2334235627518
 30
0.0
 11
543.99053578163205
 21
113.2334235627518
 31
0.0
  0
LINE
  5
4437
  8
0
 10
544.94457005843208
 20
114.8334119751518
 30
0.0
 11
548.44353093463224
 21
114.8334235627518
 31
0.0
  0
ARC
  5
4438
  8
0
 10
759.63096424200853
 20
109.9425824618389
 30
0.0
 40
214.85625484262249
 50
186.10370386083801
 51
186.30124190123999
  0
ARC
  5
4439
  8
0
 10
319.09076092503221
 20
110.34965442325181
 30
0.0
 40
218.56398918310001
 50
353.69872523190003
 51
0.1923557923999883
  0
ARC
  5
443A
  8
0
 10
545.49248484583222
 20
87.043240688051824
 30
0.0
 40
0.5031385754
 50
6.1647368389997608
 51
25.105478192698769
  0
ARC
  5
443B
  8
0
 10
545.80969211864829
 20
86.346307909117257
 30
0.0
 40
0.2634565359065748
 50
273.7768673564151
 51
3.1642714801809468
  0
ARC
  5
443C
  8
0
 10
536.60433150094264
 20
86.352690445032991
 30
0.0
 40
0.2701560468426256
 50
178.26875771135471
 51
265.3501328549317
  0
ARC
  5
443D
  8
0
 10
529.9833211778157
 20
120.392898337356
 30
0.0
 40
0.2239646233547837
 50
94.248034649506053
 51
176.6866687742222
  0
ARC
  5
443E
  8
0
 10
530.03205857604962
 20
118.9636627794885
 30
0.0
 40
0.2005856062318742
 50
186.19150151106231
 51
238.8657173208544
  0
ARC
  5
443F
  8
0
 10
536.49199036036919
 20
113.43745226745951
 30
0.0
 40
0.2051578688476269
 50
192.38397826445271
 51
263.98588853875412
  0
ARC
  5
4440
  8
0
 10
543.97846506011933
 20
113.4279545765858
 30
0.0
 40
0.1949051504222956
 50
273.55067203543109
 51
345.88330557701579
  0
ARC
  5
4441
  8
0
 10
548.41833351724301
 20
115.03862097760459
 30
0.0
 40
0.2067386997452558
 50
277.00064438824211
 51
352.99935546695161
  0
LINE
  5
4442
  8
0
 10
529.96673115900433
 20
120.61624766865179
 30
0.0
 11
548.42612343700034
 21
120.61624766865179
 31
0.0
  0
LINE
  5
4443
  8
0
 10
529.92834667492809
 20
118.7919699520519
 30
0.0
 11
548.62353093463207
 21
118.7919699520519
 31
0.0
  0
LINE
  5
4444
  8
0
 10
536.58243091300074
 20
86.083423562751847
 30
0.0
 11
545.82704627515113
 21
86.083423562751847
 31
0.0
  0
ARC
  5
4445
  8
0
 10
544.96310233985218
 20
114.19771102634429
 30
0.0
 40
0.6359710227435479
 50
91.669843127170779
 51
166.6672306322572
  0
ARC
  5
4446
  8
0
 10
548.40439302006087
 20
120.39740154323241
 30
0.0
 40
0.2199223445478429
 50
4.8407116756307786
 51
84.329379666486645
  0
ARC
  5
4447
  8
0
 10
513.14177976812471
 20
85.667847070689561
 30
0.0
 40
37.134840045113748
 50
56.138786679971943
 51
63.125124788952022
  0
ARC
  5
4448
  8
0
 10
529.31686003768425
 20
109.7506477878883
 30
0.0
 40
8.124260441893675
 50
37.783049104587207
 51
56.231102318756591
  0
ARC
  5
4449
  8
0
 10
533.41472435142794
 20
112.98193817643229
 30
0.0
 40
2.9061647020310399
 50
8.140492908376153
 51
36.932221385479778
  0
ARC
  5
444A
  8
0
 10
533.62618108722972
 20
111.106692654415
 30
0.0
 40
4.0274045084113288
 50
359.66898466841297
 51
31.874800070816711
  0
ARC
  5
444B
  8
0
 10
635.72232686566099
 20
108.8929429605072
 30
0.0
 40
92.344679136912561
 50
178.6463663301131
 51
193.55028035402029
  0
ARC
  5
444C
  8
0
 10
551.40023080742753
 20
110.0467746799353
 30
0.0
 40
8.0625717658191434
 50
156.7170172549059
 51
172.67725581742309
  0
ENDSEC
  0
EOF
