  0
SECTION
  2
HEADER
  9
$ACADVER
  1
AC1009
  9
$INSBASE
 10
5.4485206437627554
 20
6.2800716416059119
 30
0.0
  9
$EXTMIN
 10
-3.0415708800121228
 20
6.270985277635539
 30
-0.0015258207003583
  9
$EXTMAX
 10
13.938612246602951
 20
11.05757188756092
 30
0.0000000349246037
  9
$LIMMIN
 10
0.0
 20
0.0
  9
$LIMMAX
 10
11.692913385800001
 20
8.2677165353999982
  9
$ORTHOMODE
 70
     0
  9
$REGENMODE
 70
     1
  9
$FILLMODE
 70
     1
  9
$QTEXTMODE
 70
     0
  9
$MIRRTEXT
 70
     0
  9
$DRAGMODE
 70
     2
  9
$LTSCALE
 40
0.6431102362
  9
$OSMODE
 70
    39
  9
$ATTMODE
 70
     1
  9
$TEXTSIZE
 40
0.2
  9
$TRACEWID
 40
0.05
  9
$TEXTSTYLE
  7
STANDARD
  9
$CLAYER
  8
0
  9
$CELTYPE
  6
BYLAYER
  9
$CECOLOR
 62
   256
  9
$DIMSCALE
 40
1.0
  9
$DIMASZ
 40
0.1875
  9
$DIMEXO
 40
0.0625
  9
$DIMDLI
 40
0.4443307087
  9
$DIMRND
 40
0.0
  9
$DIMDLE
 40
0.0
  9
$DIMEXE
 40
0.125
  9
$DIMTP
 40
0.01
  9
$DIMTM
 40
0.01
  9
$DIMTXT
 40
0.15625
  9
$DIMCEN
 40
0.1052362205
  9
$DIMTSZ
 40
0.0
  9
$DIMTOL
 70
     1
  9
$DIMLIM
 70
     0
  9
$DIMTIH
 70
     1
  9
$DIMTOH
 70
     1
  9
$DIMSE1
 70
     0
  9
$DIMSE2
 70
     0
  9
$DIMTAD
 70
     0
  9
$DIMZIN
 70
     0
  9
$DIMBLK
  1

  9
$DIMASO
 70
     1
  9
$DIMSHO
 70
     1
  9
$DIMPOST
  1

  9
$DIMAPOST
  1

  9
$DIMALT
 70
     0
  9
$DIMALTD
 70
     2
  9
$DIMALTF
 40
25.399999999999999
  9
$DIMLFAC
 40
1.0
  9
$DIMTOFL
 70
     0
  9
$DIMTVP
 40
0.0
  9
$DIMTIX
 70
     0
  9
$DIMSOXD
 70
     0
  9
$DIMSAH
 70
     0
  9
$DIMBLK1
  1

  9
$DIMBLK2
  1

  9
$DIMSTYLE
  2
STANDARD
  9
$DIMCLRD
 70
     0
  9
$DIMCLRE
 70
     0
  9
$DIMCLRT
 70
     0
  9
$DIMTFAC
 40
1.0
  9
$DIMGAP
 40
0.09
  9
$LUNITS
 70
     2
  9
$LUPREC
 70
     4
  9
$SKETCHINC
 40
0.1
  9
$FILLETRAD
 40
0.0
  9
$AUNITS
 70
     0
  9
$AUPREC
 70
     0
  9
$MENU
  1
.
  9
$ELEVATION
 40
0.0
  9
$PELEVATION
 40
0.0
  9
$THICKNESS
 40
0.0
  9
$LIMCHECK
 70
     0
  9
$BLIPMODE
 70
     0
  9
$CHAMFERA
 40
0.0
  9
$CHAMFERB
 40
0.0
  9
$SKPOLY
 70
     0
  9
$TDCREATE
 40
2457598.4426568751
  9
$TDUPDATE
 40
2457598.6382795018
  9
$TDINDWG
 40
0.1267975
  9
$TDUSRTIMER
 40
0.1267975
  9
$USRTIMER
 70
     1
  9
$ANGBASE
 50
0.0
  9
$ANGDIR
 70
     0
  9
$PDMODE
 70
     0
  9
$PDSIZE
 40
0.3125
  9
$PLINEWID
 40
0.0
  9
$COORDS
 70
     1
  9
$SPLFRAME
 70
     0
  9
$SPLINETYPE
 70
     6
  9
$SPLINESEGS
 70
     8
  9
$ATTDIA
 70
     1
  9
$ATTREQ
 70
     1
  9
$HANDLING
 70
     1
  9
$HANDSEED
  5
14E6
  9
$SURFTAB1
 70
     6
  9
$SURFTAB2
 70
     6
  9
$SURFTYPE
 70
     6
  9
$SURFU
 70
     6
  9
$SURFV
 70
     6
  9
$UCSNAME
  2

  9
$UCSORG
 10
0.0
 20
0.0
 30
0.0
  9
$UCSXDIR
 10
1.0
 20
0.0
 30
0.0
  9
$UCSYDIR
 10
0.0
 20
1.0
 30
0.0
  9
$PUCSNAME
  2

  9
$PUCSORG
 10
0.0
 20
0.0
 30
0.0
  9
$PUCSXDIR
 10
1.0
 20
0.0
 30
0.0
  9
$PUCSYDIR
 10
0.0
 20
1.0
 30
0.0
  9
$USERI1
 70
     0
  9
$USERI2
 70
     0
  9
$USERI3
 70
     0
  9
$USERI4
 70
     0
  9
$USERI5
 70
     0
  9
$USERR1
 40
0.0
  9
$USERR2
 40
0.0
  9
$USERR3
 40
0.0
  9
$USERR4
 40
0.0
  9
$USERR5
 40
0.0
  9
$WORLDVIEW
 70
     1
  9
$SHADEDGE
 70
     3
  9
$SHADEDIF
 70
    70
  9
$TILEMODE
 70
     1
  9
$MAXACTVP
 70
    64
  9
$PLIMCHECK
 70
     0
  9
$PEXTMIN
 10
1.0000000000000000E+020
 20
1.0000000000000000E+020
 30
1.0000000000000000E+020
  9
$PEXTMAX
 10
-1.0000000000000000E+020
 20
-1.0000000000000000E+020
 30
-1.0000000000000000E+020
  9
$PLIMMIN
 10
0.0
 20
0.0
  9
$PLIMMAX
 10
12.0
 20
9.0
  9
$UNITMODE
 70
     0
  9
$VISRETAIN
 70
     1
  9
$PLINEGEN
 70
     0
  9
$PSLTSCALE
 70
     1
  0
ENDSEC
  0
SECTION
  2
TABLES
  0
TABLE
  2
VPORT
 70
     1
  0
VPORT
  2
*ACTIVE
 70
     0
 10
0.0
 20
0.0
 11
1.0
 21
1.0
 12
0.0000000228950228
 22
-0.0025976451868157
 13
0.0
 23
0.0
 14
1.0
 24
1.0
 15
0.0
 25
0.0
 16
-0.0000000000000107
 26
0.0
 36
49.688563459226472
 17
5.4485206604003897
 27
8.6668762277850462
 37
0.0
 40
9.5402190187538238
 41
1.786624203821656
 42
50.0
 43
0.0
 44
0.0
 50
0.0
 51
0.0
 71
     0
 72
   100
 73
     1
 74
     1
 75
     0
 76
     0
 77
     0
 78
     0
  0
ENDTAB
  0
TABLE
  2
LTYPE
 70
     1
  0
LTYPE
  2
CONTINUOUS
 70
     0
  3
Solid line
 72
    65
 73
     0
 40
0.0
  0
ENDTAB
  0
TABLE
  2
LAYER
 70
     2
  0
LAYER
  2
0
 70
     0
 62
     7
  6
CONTINUOUS
  0
LAYER
  2
DEFPOINTS
 70
     0
 62
     7
  6
CONTINUOUS
  0
ENDTAB
  0
TABLE
  2
STYLE
 70
     1
  0
STYLE
  2
STANDARD
 70
     0
 40
0.0
 41
0.8
 50
0.0
 71
     0
 42
0.2
  3
txt
  4

  0
ENDTAB
  0
TABLE
  2
VIEW
 70
     1
  0
ENDTAB
  0
TABLE
  2
UCS
 70
     0
  0
ENDTAB
  0
TABLE
  2
APPID
 70
     5
  0
APPID
  2
ACAD
 70
     0
  0
APPID
  2
ACAD_MLEADERVER
 70
     0
  0
APPID
  2
ACAD_EXEMPT_FROM_CAD_STANDARDS
 70
     0
  0
APPID
  2
ACAD_NAV_VCDISPLAY
 70
     0
  0
APPID
  2
ACDBATTR
 70
     0
  0
ENDTAB
  0
TABLE
  2
DIMSTYLE
 70
     1
  0
DIMSTYLE
  2
STANDARD
 70
     0
  3

  4

  5

  6

  7

 40
1.0
 41
0.1875
 42
0.0625
 43
0.38
 44
0.125
 45
0.0
 46
0.0
 47
0.01
 48
0.01
140
0.15625
141
0.09
142
0.0
143
25.399999999999999
144
1.0
145
0.0
146
1.0
147
0.09
 71
     1
 72
     0
 73
     1
 74
     1
 75
     0
 76
     0
 77
     0
 78
     4
170
     0
171
     2
172
     0
173
     0
174
     0
175
     0
176
     0
177
     0
178
     0
  0
ENDTAB
  0
ENDSEC
  0
SECTION
  2
BLOCKS
  0
BLOCK
  8
0
  2
$MODEL_SPACE
 70
     0
 10
0.0
 20
0.0
 30
0.0
  3
$MODEL_SPACE
  1

  0
ENDBLK
  5
21
  8
0
  0
BLOCK
 67
     1
  8
0
  2
$PAPER_SPACE
 70
     0
 10
0.0
 20
0.0
 30
0.0
  3
$PAPER_SPACE
  1

  0
ENDBLK
  5
1D
 67
     1
  8
0
  0
ENDSEC
  0
SECTION
  2
ENTITIES
  0
LINE
  5
1086
  8
0
 10
5.4485206437627554
 20
6.2800716416059119
 30
0.0
 11
2.999520797110129
 21
6.2800716416059119
 31
0.0
  0
ARC
  5
1087
  8
0
 10
2.9978382413511531
 20
6.412182884623701
 30
0.0
 40
0.1321219570154281
 50
198.94003747206969
 51
270.72967394583668
  0
ARC
  5
1088
  8
0
 10
2.253330795364604
 20
6.1774149934450184
 30
0.0
 40
0.6485735829162095
 50
17.208833760127149
 51
54.902132036035283
  0
ARC
  5
1089
  8
0
 10
2.0122429271505728
 20
5.789648814964484
 30
0.0
 40
1.104751199832992
 50
56.235374416529929
 51
74.08342670479621
  0
ARC
  5
108A
  8
0
 10
1.621636746133063
 20
4.4719821860007851
 30
0.0
 40
2.4790610957414621
 50
73.75344118445814
 51
81.706029180484776
  0
ARC
  5
108B
  8
0
 10
1.6809775726229139
 20
5.2452725794703481
 30
0.0
 40
1.7065109420849169
 50
79.898544337034338
 51
83.711052747190834
  0
ARC
  5
108C
  8
0
 10
1.2414077594049351
 20
4.501086731828706
 30
0.0
 40
2.519562238558902
 50
75.601977917950421
 51
87.214413436222358
  0
ARC
  5
108D
  8
0
 10
1.01011856653173
 20
5.5774903785007748
 30
0.0
 40
1.4829874964015739
 50
76.200237904689246
 51
76.613907213568865
  0
ARC
  5
108E
  8
0
 10
-0.6900445236969759
 20
1.9451805504284001
 30
0.0
 40
5.470974599349363
 50
68.067427281152135
 51
78.397132389772068
  0
ARC
  5
108F
  8
0
 10
1.463870695667338
 20
9.7133445786333592
 30
0.0
 40
2.6292964566261769
 50
246.04338317460369
 51
246.3781559756483
  0
ARC
  5
1090
  8
0
 10
0.4032782599311773
 20
7.3201237841298701
 30
0.0
 40
0.0118685987871124
 50
233.0330260900221
 51
233.73967590394841
  0
ARC
  5
1091
  8
0
 10
-0.3813452227657095
 20
6.350387492024363
 30
0.0
 40
1.235545075063591
 50
51.004025472078723
 51
73.255134707013582
  0
ARC
  5
1092
  8
0
 10
-3.0655499741757728
 20
0.5720788896055833
 30
0.0
 40
7.596357799208481
 50
66.408364800891263
 51
66.498591486926031
  0
ARC
  5
1093
  8
0
 10
-5.6897974357582584
 20
-1.0514028026526601
 30
0.0
 40
10.283236603131829
 50
56.648468885292971
 51
63.453661422193811
  0
ARC
  5
1094
  8
0
 10
-0.3362962192159884
 20
9.3725577470317951
 30
0.0
 40
1.4402696227938729
 50
237.99360104441291
 51
238.25878416553411
  0
ARC
  5
1095
  8
0
 10
-3.7790629002819069
 20
4.6665038533897416
 30
0.0
 40
4.3957349776295578
 50
52.443300794511877
 51
67.224058824756384
  0
ARC
  5
1096
  8
0
 10
125.25978669140579
 20
179.6385494733162
 30
0.0
 40
213.13862324919691
 50
233.3087347736398
 51
233.31336495947971
  0
ARC
  5
1097
  8
0
 10
-10.195646319665419
 20
2.1103465094769138
 30
0.0
 40
10.46420237266439
 50
39.240615739161619
 51
46.391329940902452
  0
ARC
  5
1098
  8
0
 10
-2.9544268710630628
 20
9.7124066406501157
 30
0.0
 40
0.0346829672781408
 50
182.28793958701149
 51
226.7722385523698
  0
ARC
  5
1099
  8
0
 10
-52847.905095247959
 20
-2296.952782872318
 30
0.0
 40
52895.234627857477
 50
2.4993560524852878
 51
2.5006439535492029
  0
ARC
  5
109A
  8
0
 10
-2.8884420626327261
 20
10.90460966726271
 30
0.0
 40
0.1526106944724353
 50
86.357855015906708
 51
182.15332475475449
  0
ARC
  5
109B
  8
0
 10
27263.07323849951
 20
396633.25282654579
 30
0.0
 40
397558.29563685111
 50
266.06736597969029
 51
266.06740716354068
  0
ARC
  5
109C
  8
0
 10
-2.607166417236761
 20
10.81190444375191
 30
0.0
 40
0.2258136007569084
 50
79.812455096975981
 51
86.57044292439403
  0
ARC
  5
109D
  8
0
 10
-3.1840932802157411
 20
6.7525096776275824
 30
0.0
 40
4.3258566655601616
 50
81.604339514419209
 51
81.801681158573814
  0
ARC
  5
109E
  8
0
 10
-2.5463066769571649
 20
11.05757117808735
 30
0.0
 40
0.0262989171744035
 50
256.41681104659028
 51
257.22478134136929
  0
ARC
  5
109F
  8
0
 10
-3.1641305572372072
 20
8.3807215613913151
 30
0.0
 40
2.720923553767411
 50
76.640163124572695
 51
77.001429262733879
  0
ARC
  5
10A0
  8
0
 10
-2.5592999235761691
 20
10.89876719777048
 30
0.0
 40
0.1314325125390995
 50
69.786764065226208
 51
79.530819349781737
  0
ARC
  5
10A1
  8
0
 10
1.223232501225574
 20
22.456277515156081
 30
0.0
 40
12.02939591904015
 50
251.9006476803545
 51
251.99688942239061
  0
ARC
  5
10A2
  8
0
 10
-2.285331438893436
 20
11.500577767665201
 30
0.0
 40
0.5280077267612726
 50
246.6416390517129
 51
248.233411780008
  0
ARC
  5
10A3
  8
0
 10
-2.620259007984707
 20
10.676823049594869
 30
0.0
 40
0.3612581452900809
 50
51.550892654891562
 51
67.348695568665946
  0
ARC
  5
10A4
  8
0
 10
-0.7838003016596318
 20
13.016367253961871
 30
0.0
 40
2.6129788067471469
 50
231.91337990483419
 51
233.76610039700171
  0
ARC
  5
10A5
  8
0
 10
14.840041763508509
 20
41.799980356636638
 30
0.0
 40
35.341506604711
 50
240.93616596352879
 51
241.08106108670361
  0
ARC
  5
10A6
  8
0
 10
3.9449924184882681
 20
26.28872470053593
 30
0.0
 40
16.621025797968429
 50
248.11610531585021
 51
248.44766741965361
  0
ARC
  5
10A7
  8
0
 10
-13.715667852625151
 20
-31.09964367554246
 30
0.0
 40
43.49246241202021
 50
74.458919688886596
 51
74.592864201118303
  0
ARC
  5
10A8
  8
0
 10
1.7755261079093709
 20
32.027131003099463
 30
0.0
 40
21.568729465652471
 50
259.74925400206291
 51
260.03517792318951
  0
ARC
  5
10A9
  8
0
 10
-1.7313563571722519
 20
12.640985358531889
 30
0.0
 40
1.8708353217988569
 50
263.0787205585562
 51
269.51471062909479
  0
ARC
  5
10AA
  8
0
 10
-1.6561803468499221
 20
6.3833834546988193
 30
0.0
 40
4.3876656551186723
 50
90.602184170156605
 51
91.202315237008676
  0
ARC
  5
10AB
  8
0
 10
-1.7906948409936729
 20
13.034696930060431
 30
0.0
 40
2.265615431802388
 50
272.2361538634085
 51
294.36207522041542
  0
ARC
  5
10AC
  8
0
 10
146.126847104972
 20
-286.6428531048366
 30
0.0
 40
331.93055276071772
 50
116.255387284722
 51
116.2834628932444
  0
ARC
  5
10AD
  8
0
 10
-0.6546125317599448
 20
10.942173182170441
 30
0.0
 40
0.1150007876453011
 50
85.728982906239963
 51
118.94709221031
  0
ARC
  5
10AE
  8
0
 10
-32.922975475522612
 20
-333.35825675954521
 30
0.0
 40
345.92422434411981
 50
84.611237616633275
 51
84.646152061795846
  0
ARC
  5
10AF
  8
0
 10
-0.4702837074482673
 20
10.700770952816621
 30
0.0
 40
0.3380758736486074
 50
83.340219036427925
 51
84.209878375886873
  0
ARC
  5
10B0
  8
0
 10
-0.927192616258786
 20
8.155019432294047
 30
0.0
 40
2.9239425646461861
 50
79.824714483062124
 51
80.231139963116263
  0
ARC
  5
10B1
  8
0
 10
-0.4693727329946924
 20
10.784985660692721
 30
0.0
 40
0.2548465008222216
 50
71.776131450430626
 51
76.677589711894953
  0
ARC
  5
10B2
  8
0
 10
0.6572623985396078
 20
14.06705311247272
 30
0.0
 40
3.2152291474418511
 50
250.99697308488871
 51
255.46633635858359
  0
ARC
  5
10B3
  8
0
 10
1.3318834224787599
 20
16.78012492084909
 30
0.0
 40
6.0108433030394481
 50
255.73141162674199
 51
280.62263205638141
  0
ARC
  5
10B4
  8
0
 10
1.0602747383848969
 20
18.266744427584079
 30
0.0
 40
7.5220576092764446
 50
280.56863622355229
 51
286.50227344782911
  0
ARC
  5
10B5
  8
0
 10
3.2136750550348618
 20
11.004072159631789
 30
0.0
 40
0.0531622621687879
 50
78.317609463852335
 51
108.3474636632146
  0
ARC
  5
10B6
  8
0
 10
5.4485804051108948
 20
19.55949739552624
 30
0.0
 40
8.7894257539263911
 50
255.3420889668547
 51
269.99961043268098
  0
ARC
  5
10B7
  8
0
 10
-2.9391317937503132
 20
11.08019962727341
 30
0.0
 40
0.2058502969577866
 50
240.3334965100004
 51
243.9817836761527
  0
ARC
  5
10B8
  8
0
 10
-1.8556445004011759
 20
13.128695282272989
 30
0.0
 40
2.5231372866512372
 50
242.2762825740854
 51
266.1343123514327
  0
ARC
  5
10B9
  8
0
 10
-1.902023654172218
 20
12.95438810818375
 30
0.0
 40
2.3463538889816391
 50
266.9773434390068
 51
298.82219691697583
  0
ARC
  5
10BA
  8
0
 10
-0.7640001029436477
 20
10.865006960731611
 30
0.0
 40
0.0343853759444624
 50
80.068295904482568
 51
101.512117103612
  0
ARC
  5
10BB
  8
0
 10
1.2038176820101181
 20
17.354056774971721
 30
0.0
 40
6.7467285994372812
 50
253.094688782943
 51
286.90531121705698
  0
ARC
  5
10BC
  8
0
 10
3.1750724290192451
 20
10.84537819094013
 30
0.0
 40
0.0543127769716126
 50
81.408833125939452
 51
99.931704095519081
  0
ARC
  5
10BD
  8
0
 10
5.4473373789622448
 20
19.540079923782159
 30
0.0
 40
8.9327059272452125
 50
255.317197677434
 51
270.00758964639232
  0
LINE
  5
10BE
  8
0
 10
5.4485206437627554
 20
6.2800716416059119
 30
0.0
 11
7.8975204904153742
 21
6.2800716416059119
 31
0.0
  0
ARC
  5
10BF
  8
0
 10
7.8992030461743417
 20
6.412182884623701
 30
0.0
 40
0.1321219570154281
 50
269.27032605416332
 51
341.05996252793028
  0
ARC
  5
10C0
  8
0
 10
8.6437104921608992
 20
6.1774149934450184
 30
0.0
 40
0.6485735829162095
 50
125.0978679639647
 51
162.79116623987281
  0
ARC
  5
10C1
  8
0
 10
8.8847983603749299
 20
5.789648814964484
 30
0.0
 40
1.104751199832992
 50
105.9165732952038
 51
123.76462558347011
  0
ARC
  5
10C2
  8
0
 10
9.2754045413924402
 20
4.4719821860007851
 30
0.0
 40
2.4790610957414621
 50
98.293970819515621
 51
106.2465588155418
  0
ARC
  5
10C3
  8
0
 10
9.2160637149025888
 20
5.2452725794703481
 30
0.0
 40
1.7065109420849169
 50
96.28894725280918
 51
100.10145566296561
  0
ARC
  5
10C4
  8
0
 10
9.6556335281205676
 20
4.501086731828706
 30
0.0
 40
2.519562238558902
 50
92.785586563777628
 51
104.39802208205001
  0
ARC
  5
10C5
  8
0
 10
9.8869227209937733
 20
5.5774903785007748
 30
0.0
 40
1.4829874964015739
 50
103.38609278643111
 51
103.7997620953107
  0
ARC
  5
10C6
  8
0
 10
11.587085811222479
 20
1.9451805504284001
 30
0.0
 40
5.470974599349363
 50
101.6028676102279
 51
111.93257271884789
  0
ARC
  5
10C7
  8
0
 10
9.4331705918581648
 20
9.7133445786333592
 30
0.0
 40
2.6292964566261769
 50
293.62184402435167
 51
293.95661682539628
  0
ARC
  5
10C8
  8
0
 10
10.49376302759433
 20
7.3201237841298701
 30
0.0
 40
0.0118685987871124
 50
306.2603240960517
 51
306.96697390997792
  0
ARC
  5
10C9
  8
0
 10
11.27838651029122
 20
6.350387492024363
 30
0.0
 40
1.235545075063591
 50
106.7448652929864
 51
128.99597452792131
  0
ARC
  5
10CA
  8
0
 10
13.96259126170127
 20
0.5720788896055833
 30
0.0
 40
7.596357799208481
 50
113.5014085130739
 51
113.59163519910869
  0
ARC
  5
10CB
  8
0
 10
16.586838723283751
 20
-1.0514028026526601
 30
0.0
 40
10.283236603131829
 50
116.5463385778062
 51
123.351531114707
  0
ARC
  5
10CC
  8
0
 10
11.23333750674149
 20
9.3725577470317951
 30
0.0
 40
1.4402696227938729
 50
301.74121583446589
 51
302.00639895558709
  0
ARC
  5
10CD
  8
0
 10
14.67610418780742
 20
4.6665038533897416
 30
0.0
 40
4.3957349776295578
 50
112.7759411752436
 51
127.5566992054881
  0
ARC
  5
10CE
  8
0
 10
-114.3627454038803
 20
179.6385494733162
 30
0.0
 40
213.13862324919691
 50
306.6866350405204
 51
306.6912652263602
  0
ARC
  5
10CF
  8
0
 10
21.092687607190928
 20
2.1103465094769138
 30
0.0
 40
10.46420237266439
 50
133.60867005909751
 51
140.7593842608384
  0
ARC
  5
10D0
  8
0
 10
13.85146815858856
 20
9.7124066406501157
 30
0.0
 40
0.0346829672781408
 50
313.2277614476302
 51
357.71206041298848
  0
ARC
  5
10D1
  8
0
 10
52858.802136535509
 20
-2296.952782872318
 30
0.0
 40
52895.234627857477
 50
177.4993560464508
 51
177.5006439475147
  0
ARC
  5
10D2
  8
0
 10
13.785483350158239
 20
10.90460966726271
 30
0.0
 40
0.1526106944724353
 50
357.84667524524542
 51
93.642144984092866
  0
ARC
  5
10D3
  8
0
 10
-27252.176197211978
 20
396633.25282654579
 30
0.0
 40
397558.29563685111
 50
273.93259283645898
 51
273.93263402030959
  0
ARC
  5
10D4
  8
0
 10
13.50420770476226
 20
10.81190444375191
 30
0.0
 40
0.2258136007569084
 50
93.429557075605572
 51
100.187544903024
  0
ARC
  5
10D5
  8
0
 10
14.081134567741239
 20
6.7525096776275824
 30
0.0
 40
4.3258566655601616
 50
98.198318841426172
 51
98.395660485580379
  0
ARC
  5
10D6
  8
0
 10
13.44334796448266
 20
11.05757117808735
 30
0.0
 40
0.0262989171744035
 50
282.77521865863071
 51
283.58318895340972
  0
ARC
  5
10D7
  8
0
 10
14.061171844762701
 20
8.3807215613913151
 30
0.0
 40
2.720923553767411
 50
102.99857073726611
 51
103.35983687542731
  0
ARC
  5
10D8
  8
0
 10
13.45634121110167
 20
10.89876719777048
 30
0.0
 40
0.1314325125390995
 50
100.46918065021821
 51
110.21323593477381
  0
ARC
  5
10D9
  8
0
 10
9.6738087862999365
 20
22.456277515156081
 30
0.0
 40
12.02939591904015
 50
288.00311057760939
 51
288.0993523196455
  0
ARC
  5
10DA
  8
0
 10
13.18237272641894
 20
11.500577767665201
 30
0.0
 40
0.5280077267612726
 50
291.76658821999189
 51
293.3583609482875
  0
ARC
  5
10DB
  8
0
 10
13.517300295510211
 20
10.676823049594869
 30
0.0
 40
0.3612581452900809
 50
112.651304431334
 51
128.44910734510839
  0
ARC
  5
10DC
  8
0
 10
11.68084158918513
 20
13.016367253961871
 30
0.0
 40
2.6129788067471469
 50
306.23389960299829
 51
308.0866200951657
  0
ARC
  5
10DD
  8
0
 10
-3.9430004759830051
 20
41.799980356636638
 30
0.0
 40
35.341506604711
 50
298.91893891329642
 51
299.06383403647118
  0
ARC
  5
10DE
  8
0
 10
6.9520488690372337
 20
26.28872470053593
 30
0.0
 40
16.621025797968429
 50
291.55233258034599
 51
291.88389468414982
  0
ARC
  5
10DF
  8
0
 10
24.612709140150649
 20
-31.09964367554246
 30
0.0
 40
43.49246241202021
 50
105.40713579888209
 51
105.5410803111134
  0
ARC
  5
10E0
  8
0
 10
9.1215151796161322
 20
32.027131003099463
 30
0.0
 40
21.568729465652471
 50
279.96482207681049
 51
280.25074599793669
  0
ARC
  5
10E1
  8
0
 10
12.62839764469776
 20
12.640985358531889
 30
0.0
 40
1.8708353217988569
 50
270.48528937090572
 51
276.9212794414438
  0
ARC
  5
10E2
  8
0
 10
12.55322163437542
 20
6.3833834546988193
 30
0.0
 40
4.3876656551186723
 50
88.797684762991324
 51
89.397815829843779
  0
ARC
  5
10E3
  8
0
 10
12.68773612851918
 20
13.034696930060431
 30
0.0
 40
2.265615431802388
 50
245.63792477958421
 51
267.76384613659161
  0
ARC
  5
10E4
  8
0
 10
-135.2298058174465
 20
-286.6428531048366
 30
0.0
 40
331.93055276071772
 50
63.716537106755062
 51
63.744612715278024
  0
ARC
  5
10E5
  8
0
 10
11.55165381928545
 20
10.942173182170441
 30
0.0
 40
0.1150007876453011
 50
61.052907789689961
 51
94.271017093760037
  0
ARC
  5
10E6
  8
0
 10
43.820016763048109
 20
-333.35825675954521
 30
0.0
 40
345.92422434411981
 50
95.353847938204169
 51
95.388762383366725
  0
ARC
  5
10E7
  8
0
 10
11.367324994973769
 20
10.700770952816621
 30
0.0
 40
0.3380758736486074
 50
95.790121624113127
 51
96.659780963572075
  0
ARC
  5
10E8
  8
0
 10
11.824233903784281
 20
8.155019432294047
 30
0.0
 40
2.9239425646461861
 50
99.768860036884149
 51
100.1752855169379
  0
ARC
  5
10E9
  8
0
 10
11.366414020520191
 20
10.784985660692721
 30
0.0
 40
0.2548465008222216
 50
103.322410288105
 51
108.2238685495693
  0
ARC
  5
10EA
  8
0
 10
10.239778888985891
 20
14.06705311247272
 30
0.0
 40
3.2152291474418511
 50
284.53366364141601
 51
289.00302691511121
  0
ARC
  5
10EB
  8
0
 10
9.5651578650467428
 20
16.78012492084909
 30
0.0
 40
6.0108433030394481
 50
259.3773679436182
 51
284.26858837325761
  0
ARC
  5
10EC
  8
0
 10
9.8367665491405987
 20
18.266744427584079
 30
0.0
 40
7.5220576092764446
 50
253.49772655217089
 51
259.4313637764472
  0
ARC
  5
10ED
  8
0
 10
7.6833662324906413
 20
11.004072159631789
 30
0.0
 40
0.0531622621687879
 50
71.652536336785374
 51
101.68239053614759
  0
ARC
  5
10EE
  8
0
 10
5.448460882414615
 20
19.55949739552624
 30
0.0
 40
8.7894257539263911
 50
270.0003895673189
 51
284.65791103314479
  0
ARC
  5
10EF
  8
0
 10
13.83617308127581
 20
11.08019962727341
 30
0.0
 40
0.2058502969577866
 50
296.0182163238473
 51
299.66650348999951
  0
ARC
  5
10F0
  8
0
 10
12.752685787926669
 20
13.128695282272989
 30
0.0
 40
2.5231372866512372
 50
273.8656876485673
 51
297.72371742591457
  0
ARC
  5
10F1
  8
0
 10
12.79906494169772
 20
12.95438810818375
 30
0.0
 40
2.3463538889816391
 50
241.1778030830242
 51
273.0226565609932
  0
ARC
  5
10F2
  8
0
 10
11.661041390469149
 20
10.865006960731611
 30
0.0
 40
0.0343853759444624
 50
78.487882896388015
 51
99.931704095517446
  0
ARC
  5
10F3
  8
0
 10
9.6932236055153762
 20
17.354056774971721
 30
0.0
 40
6.7467285994372812
 50
253.094688782943
 51
286.90531121705698
  0
ARC
  5
10F4
  8
0
 10
7.7219688585062514
 20
10.84537819094013
 30
0.0
 40
0.0543127769716126
 50
80.068295904480905
 51
98.591166874060548
  0
ARC
  5
10F5
  8
0
 10
5.449703908563257
 20
19.540079923782159
 30
0.0
 40
8.9327059272452125
 50
269.99241035360768
 51
284.68280232256598
  0
ATTDEF
  5
1312
  8
DEFPOINTS
 10
5.4437129313237094
 20
6.271252455570095
 30
0.0
 40
0.001
  1
GLASS
  3

  2
MATERIAL
 70
     0
1001
ACDBATTR
1070
     0
1070
     1
  0
ATTDEF
  5
1313
  8
DEFPOINTS
 10
5.4437129313237094
 20
6.2729191222367611
 30
0.0
 40
0.001
  1
BATHROOM SINK
  3

  2
PRODUCT
 70
     0
1001
ACDBATTR
1070
     0
1070
     1
  0
ATTDEF
  5
1314
  8
DEFPOINTS
 10
5.4437129313237094
 20
6.2745857889034262
 30
0.0
 40
0.001
  1
BRIOLETTE
  3

  2
TRADENAME
 70
     0
1001
ACDBATTR
1070
     0
1070
     1
  0
ATTDEF
  5
1315
  8
DEFPOINTS
 10
5.4437129313237094
 20
6.2762524555700914
 30
0.0
 40
0.001
  1
K-2373
  3

  2
MODELNUMBER
 70
     0
1001
ACDBATTR
1070
     0
1070
     1
  0
ENDSEC
  0
EOF
