  0
SECTION
  2
HEADER
  9
$ACADVER
  1
AC1009
  9
$INSBASE
 10
5.448457470271749
 20
32.602060546642633
 30
0.0
  9
$EXTMIN
 10
-3.0417248249099842
 20
24.110458413092601
 30
-0.0015258207003583
  9
$EXTMAX
 10
13.93863988917612
 20
41.093054353273907
 30
0.0000000349246037
  9
$LIMMIN
 10
0.0
 20
0.0
  9
$LIMMAX
 10
11.692913385800001
 20
8.2677165353999982
  9
$ORTHOMODE
 70
     0
  9
$REGENMODE
 70
     1
  9
$FILLMODE
 70
     1
  9
$QTEXTMODE
 70
     0
  9
$MIRRTEXT
 70
     0
  9
$DRAGMODE
 70
     2
  9
$LTSCALE
 40
0.6431102362
  9
$OSMODE
 70
    39
  9
$ATTMODE
 70
     1
  9
$TEXTSIZE
 40
0.2
  9
$TRACEWID
 40
0.05
  9
$TEXTSTYLE
  7
STANDARD
  9
$CLAYER
  8
0
  9
$CELTYPE
  6
BYLAYER
  9
$CECOLOR
 62
   256
  9
$DIMSCALE
 40
1.0
  9
$DIMASZ
 40
0.1875
  9
$DIMEXO
 40
0.0625
  9
$DIMDLI
 40
0.4443307087
  9
$DIMRND
 40
0.0
  9
$DIMDLE
 40
0.0
  9
$DIMEXE
 40
0.125
  9
$DIMTP
 40
0.01
  9
$DIMTM
 40
0.01
  9
$DIMTXT
 40
0.15625
  9
$DIMCEN
 40
0.1052362205
  9
$DIMTSZ
 40
0.0
  9
$DIMTOL
 70
     1
  9
$DIMLIM
 70
     0
  9
$DIMTIH
 70
     1
  9
$DIMTOH
 70
     1
  9
$DIMSE1
 70
     0
  9
$DIMSE2
 70
     0
  9
$DIMTAD
 70
     0
  9
$DIMZIN
 70
     0
  9
$DIMBLK
  1

  9
$DIMASO
 70
     1
  9
$DIMSHO
 70
     1
  9
$DIMPOST
  1

  9
$DIMAPOST
  1

  9
$DIMALT
 70
     0
  9
$DIMALTD
 70
     2
  9
$DIMALTF
 40
25.399999999999999
  9
$DIMLFAC
 40
1.0
  9
$DIMTOFL
 70
     0
  9
$DIMTVP
 40
0.0
  9
$DIMTIX
 70
     0
  9
$DIMSOXD
 70
     0
  9
$DIMSAH
 70
     0
  9
$DIMBLK1
  1

  9
$DIMBLK2
  1

  9
$DIMSTYLE
  2
STANDARD
  9
$DIMCLRD
 70
     0
  9
$DIMCLRE
 70
     0
  9
$DIMCLRT
 70
     0
  9
$DIMTFAC
 40
1.0
  9
$DIMGAP
 40
0.09
  9
$LUNITS
 70
     2
  9
$LUPREC
 70
     4
  9
$SKETCHINC
 40
0.1
  9
$FILLETRAD
 40
0.0
  9
$AUNITS
 70
     0
  9
$AUPREC
 70
     0
  9
$MENU
  1
.
  9
$ELEVATION
 40
0.0
  9
$PELEVATION
 40
0.0
  9
$THICKNESS
 40
0.0
  9
$LIMCHECK
 70
     0
  9
$BLIPMODE
 70
     0
  9
$CHAMFERA
 40
0.0
  9
$CHAMFERB
 40
0.0
  9
$SKPOLY
 70
     0
  9
$TDCREATE
 40
2457598.4426568751
  9
$TDUPDATE
 40
2457598.6417109841
  9
$TDINDWG
 40
0.0797203356
  9
$TDUSRTIMER
 40
0.0797203356
  9
$USRTIMER
 70
     1
  9
$ANGBASE
 50
0.0
  9
$ANGDIR
 70
     0
  9
$PDMODE
 70
     0
  9
$PDSIZE
 40
0.3125
  9
$PLINEWID
 40
0.0
  9
$COORDS
 70
     1
  9
$SPLFRAME
 70
     0
  9
$SPLINETYPE
 70
     6
  9
$SPLINESEGS
 70
     8
  9
$ATTDIA
 70
     1
  9
$ATTREQ
 70
     1
  9
$HANDLING
 70
     1
  9
$HANDSEED
  5
133E
  9
$SURFTAB1
 70
     6
  9
$SURFTAB2
 70
     6
  9
$SURFTYPE
 70
     6
  9
$SURFU
 70
     6
  9
$SURFV
 70
     6
  9
$UCSNAME
  2

  9
$UCSORG
 10
0.0
 20
0.0
 30
0.0
  9
$UCSXDIR
 10
1.0
 20
0.0
 30
0.0
  9
$UCSYDIR
 10
0.0
 20
1.0
 30
0.0
  9
$PUCSNAME
  2

  9
$PUCSORG
 10
0.0
 20
0.0
 30
0.0
  9
$PUCSXDIR
 10
1.0
 20
0.0
 30
0.0
  9
$PUCSYDIR
 10
0.0
 20
1.0
 30
0.0
  9
$USERI1
 70
     0
  9
$USERI2
 70
     0
  9
$USERI3
 70
     0
  9
$USERI4
 70
     0
  9
$USERI5
 70
     0
  9
$USERR1
 40
0.0
  9
$USERR2
 40
0.0
  9
$USERR3
 40
0.0
  9
$USERR4
 40
0.0
  9
$USERR5
 40
0.0
  9
$WORLDVIEW
 70
     1
  9
$SHADEDGE
 70
     3
  9
$SHADEDIF
 70
    70
  9
$TILEMODE
 70
     1
  9
$MAXACTVP
 70
    64
  9
$PLIMCHECK
 70
     0
  9
$PEXTMIN
 10
1.0000000000000000E+020
 20
1.0000000000000000E+020
 30
1.0000000000000000E+020
  9
$PEXTMAX
 10
-1.0000000000000000E+020
 20
-1.0000000000000000E+020
 30
-1.0000000000000000E+020
  9
$PLIMMIN
 10
0.0
 20
0.0
  9
$PLIMMAX
 10
12.0
 20
9.0
  9
$UNITMODE
 70
     0
  9
$VISRETAIN
 70
     1
  9
$PLINEGEN
 70
     0
  9
$PSLTSCALE
 70
     1
  0
ENDSEC
  0
SECTION
  2
TABLES
  0
TABLE
  2
VPORT
 70
     1
  0
VPORT
  2
*ACTIVE
 70
     0
 10
0.0
 20
0.0
 11
1.0
 21
1.0
 12
0.0000001718654303
 22
-0.0003897654983831
 13
0.0
 23
0.0
 14
1.0
 24
1.0
 15
0.0
 25
0.0
 16
-0.0000000000000151
 26
0.0
 36
67.630143142475816
 17
5.4484573602676392
 27
32.602146148681641
 37
0.0
 40
17.617085535342131
 41
1.786624203821656
 42
50.0
 43
0.0
 44
0.0
 50
0.0
 51
0.0
 71
     0
 72
   100
 73
     1
 74
     1
 75
     0
 76
     0
 77
     0
 78
     0
  0
ENDTAB
  0
TABLE
  2
LTYPE
 70
     1
  0
LTYPE
  2
CONTINUOUS
 70
     0
  3
Solid line
 72
    65
 73
     0
 40
0.0
  0
ENDTAB
  0
TABLE
  2
LAYER
 70
     2
  0
LAYER
  2
0
 70
     0
 62
     7
  6
CONTINUOUS
  0
LAYER
  2
DEFPOINTS
 70
     0
 62
     7
  6
CONTINUOUS
  0
ENDTAB
  0
TABLE
  2
STYLE
 70
     1
  0
STYLE
  2
STANDARD
 70
     0
 40
0.0
 41
0.8
 50
0.0
 71
     0
 42
0.2
  3
txt
  4

  0
ENDTAB
  0
TABLE
  2
VIEW
 70
     2
  0
ENDTAB
  0
TABLE
  2
UCS
 70
     0
  0
ENDTAB
  0
TABLE
  2
APPID
 70
     5
  0
APPID
  2
ACAD
 70
     0
  0
APPID
  2
ACAD_MLEADERVER
 70
     0
  0
APPID
  2
ACAD_EXEMPT_FROM_CAD_STANDARDS
 70
     0
  0
APPID
  2
ACAD_NAV_VCDISPLAY
 70
     0
  0
APPID
  2
ACDBATTR
 70
     0
  0
ENDTAB
  0
TABLE
  2
DIMSTYLE
 70
     1
  0
DIMSTYLE
  2
STANDARD
 70
     0
  3

  4

  5

  6

  7

 40
1.0
 41
0.1875
 42
0.0625
 43
0.38
 44
0.125
 45
0.0
 46
0.0
 47
0.01
 48
0.01
140
0.15625
141
0.09
142
0.0
143
25.399999999999999
144
1.0
145
0.0
146
1.0
147
0.09
 71
     1
 72
     0
 73
     1
 74
     1
 75
     0
 76
     0
 77
     0
 78
     4
170
     0
171
     2
172
     0
173
     0
174
     0
175
     0
176
     0
177
     0
178
     0
  0
ENDTAB
  0
ENDSEC
  0
SECTION
  2
BLOCKS
  0
BLOCK
  8
0
  2
$MODEL_SPACE
 70
     0
 10
0.0
 20
0.0
 30
0.0
  3
$MODEL_SPACE
  1

  0
ENDBLK
  5
21
  8
0
  0
BLOCK
 67
     1
  8
0
  2
$PAPER_SPACE
 70
     0
 10
0.0
 20
0.0
 30
0.0
  3
$PAPER_SPACE
  1

  0
ENDBLK
  5
1D
 67
     1
  8
0
  0
ENDSEC
  0
SECTION
  2
ENTITIES
  0
ARC
  5
D50
  8
0
 10
5.5797631239963668
 20
-200.91029659886431
 30
0.0
 40
225.035527572506
 50
90.033431427532179
 51
90.609580919413844
  0
ARC
  5
D51
  8
0
 10
3.184503978390441
 20
24.153001126074809
 30
0.0
 40
0.0405213355470666
 50
239.45933613632809
 51
271.56638182157519
  0
ARC
  5
D5A
  8
0
 10
-99.625640694995624
 20
-149.3883662784809
 30
0.0
 40
201.6685069075134
 50
59.356443024500798
 51
60.642429130750727
  0
ARC
  5
D5B
  8
0
 10
-0.7369011427749758
 20
26.4168486144818
 30
0.0
 40
0.0403423393741224
 50
209.42129383298931
 51
241.82585293341961
  0
ARC
  5
D5C
  8
0
 10
-176.94443872793289
 20
-72.697761747485913
 30
0.0
 40
202.1298886523054
 50
29.357214745855959
 51
30.639728366106532
  0
ARC
  5
D5D
  8
0
 10
-3.0006264820499711
 20
30.338222146255049
 30
0.0
 40
0.0405787021653258
 50
179.40086906208739
 51
214.3333277191924
  0
ARC
  5
D5E
  8
0
 10
-204.43661065238319
 20
32.602060546642633
 30
0.0
 40
201.40812615334809
 50
359.35609944530722
 51
0.6439556869672699
  0
ARC
  5
D5F
  8
0
 10
-3.0004939685454621
 20
34.866023989861382
 30
0.0
 40
0.0407127279167056
 50
149.43506555306379
 51
180.50040398930349
  0
ARC
  5
D60
  8
0
 10
-176.51752425173339
 20
137.6614235439942
 30
0.0
 40
201.6398614065678
 50
329.35652781807789
 51
330.64250707890773
  0
ARC
  5
D61
  8
0
 10
-0.7367892387479808
 20
38.787383833407041
 30
0.0
 40
0.0404595938375121
 50
119.33944860066249
 51
152.58211417650139
  0
ARC
  5
D62
  8
0
 10
-99.522211036625734
 20
214.41647405296769
 30
0.0
 40
201.46422246551069
 50
299.35628449201158
 51
300.64378967960101
  0
ARC
  5
D63
  8
0
 10
3.1845658858149228
 20
41.051079401266257
 30
0.0
 40
0.0407208341079011
 50
89.436798905090157
 51
120.45866263885139
  0
ARC
  5
D64
  8
0
 10
5.5782649057678446
 20
265.65819134739593
 30
0.0
 40
224.5791459142242
 50
269.38939783252499
 51
269.96688286747252
  0
ARC
  5
D66
  8
0
 10
5.4484574926000002
 20
32.602137806800002
 30
0.0
 40
7.9308100367640764
 50
90.0
 51
270.0
  0
ARC
  5
D67
  8
0
 10
5.4484574926000038
 20
32.602060546642633
 30
0.0
 40
1.1024999999999989
 50
90.000000000000071
 51
269.99999999999989
  0
ARC
  5
D68
  8
0
 10
5.4484574926000038
 20
32.602060546642633
 30
0.0
 40
0.8449999999999917
 50
89.999999999999886
 51
270.00000000000011
  0
ARC
  5
D69
  8
0
 10
5.3171518612036133
 20
-200.91029659886431
 30
0.0
 40
225.035527572506
 50
89.390419080586142
 51
89.966568572467835
  0
ARC
  5
D6A
  8
0
 10
7.7124110068095391
 20
24.153001126074809
 30
0.0
 40
0.0405213355470666
 50
268.43361817842481
 51
300.5406638636718
  0
ARC
  5
D6B
  8
0
 10
110.52255568019559
 20
-149.3883662784809
 30
0.0
 40
201.6685069075134
 50
119.3575708692492
 51
120.6435569754991
  0
ARC
  5
D6C
  8
0
 10
11.633816127974949
 20
26.4168486144818
 30
0.0
 40
0.0403423393741224
 50
298.1741470665803
 51
330.57870616701081
  0
ARC
  5
D6D
  8
0
 10
187.84135371313289
 20
-72.697761747485913
 30
0.0
 40
202.1298886523054
 50
149.3602716338934
 51
150.642785254144
  0
ARC
  5
D6E
  8
0
 10
13.897541467249949
 20
30.338222146255049
 30
0.0
 40
0.0405787021653258
 50
325.66667228080757
 51
0.5991309379125129
  0
ARC
  5
D6F
  8
0
 10
215.33352563758319
 20
32.602060546642633
 30
0.0
 40
201.40812615334809
 50
179.3560443130327
 51
180.64390055469281
  0
ARC
  5
D70
  8
0
 10
13.89740895374544
 20
34.866023989861382
 30
0.0
 40
0.0407127279167056
 50
359.49959601069651
 51
30.564934446936121
  0
ARC
  5
D71
  8
0
 10
187.4144392369333
 20
137.6614235439942
 30
0.0
 40
201.6398614065678
 50
209.3574929210923
 51
210.64347218192199
  0
ARC
  5
D72
  8
0
 10
11.63370422394796
 20
38.787383833407041
 30
0.0
 40
0.0404595938375121
 50
27.41788582349864
 51
60.66055139933745
  0
ARC
  5
D73
  8
0
 10
110.4191260218257
 20
214.41647405296769
 30
0.0
 40
201.46422246551069
 50
239.35621032039899
 51
240.6437155079883
  0
ARC
  5
D74
  8
0
 10
7.7123490993850572
 20
41.051079401266257
 30
0.0
 40
0.0407208341079011
 50
59.541337361148621
 51
90.563201094909857
  0
ARC
  5
D75
  8
0
 10
5.3186500794321354
 20
265.65819134739593
 30
0.0
 40
224.5791459142242
 50
270.03311713252748
 51
270.61060216747501
  0
ARC
  5
D77
  8
0
 10
5.4484574925999798
 20
32.602137806800002
 30
0.0
 40
7.9308100367640764
 50
270.0
 51
90.0
  0
ARC
  5
D78
  8
0
 10
5.4484574925999851
 20
32.602060546642633
 30
0.0
 40
1.1024999999999989
 50
270.00000000000011
 51
89.999999999999915
  0
ARC
  5
D79
  8
0
 10
5.4484574925999851
 20
32.602060546642633
 30
0.0
 40
0.8450000000000059
 50
269.99999999999972
 51
90.000000000000355
  0
ATTDEF
  5
105A
  8
DEFPOINTS
 10
5.4418195236772116
 20
32.619256687101682
 30
0.0
 40
0.001
  1
K-2373
  3

  2
MODELNUMBER
 70
     0
1001
ACDBATTR
1070
     0
1070
     1
  0
ATTDEF
  5
105B
  8
DEFPOINTS
 10
5.4418195236772116
 20
32.617590020435017
 30
0.0
 40
0.001
  1
BRIOLETTE
  3

  2
TRADENAME
 70
     0
1001
ACDBATTR
1070
     0
1070
     1
  0
ATTDEF
  5
105C
  8
DEFPOINTS
 10
5.4418195236772116
 20
32.615923353768352
 30
0.0
 40
0.001
  1
BATHROOM SINK
  3

  2
PRODUCT
 70
     0
1001
ACDBATTR
1070
     0
1070
     1
  0
ATTDEF
  5
105D
  8
DEFPOINTS
 10
5.4418195236772116
 20
32.614256687101687
 30
0.0
 40
0.001
  1
GLASS
  3

  2
MATERIAL
 70
     0
1001
ACDBATTR
1070
     0
1070
     1
  0
ENDSEC
  0
EOF
