  0
SECTION
  2
HEADER
  9
$ACADVER
  1
AC1009
  9
$INSBASE
 10
3404.8409935101249175
 20
194.4530887474840029
 30
0.0
  9
$EXTMIN
 10
3387.1244602931619738
 20
190.7185263011839993
 30
0.0
  9
$EXTMAX
 10
3422.5575267270878612
 20
198.3900967550763994
 30
0.0
  9
$LIMMIN
 10
0.0
 20
0.0
  9
$LIMMAX
 10
11.6929133858000007
 20
8.2677165353999982
  9
$ORTHOMODE
 70
     0
  9
$REGENMODE
 70
     1
  9
$FILLMODE
 70
     1
  9
$QTEXTMODE
 70
     0
  9
$MIRRTEXT
 70
     0
  9
$DRAGMODE
 70
     2
  9
$LTSCALE
 40
0.6431102362
  9
$OSMODE
 70
  4095
  9
$ATTMODE
 70
     1
  9
$TEXTSIZE
 40
0.2
  9
$TRACEWID
 40
0.05
  9
$TEXTSTYLE
  7
STANDARD
  9
$CLAYER
  8
0
  9
$CELTYPE
  6
BYLAYER
  9
$CECOLOR
 62
   256
  9
$DIMSCALE
 40
1.0
  9
$DIMASZ
 40
0.1875
  9
$DIMEXO
 40
0.0625
  9
$DIMDLI
 40
0.4443307087
  9
$DIMRND
 40
0.0
  9
$DIMDLE
 40
0.0
  9
$DIMEXE
 40
0.125
  9
$DIMTP
 40
0.01
  9
$DIMTM
 40
0.01
  9
$DIMTXT
 40
2.0
  9
$DIMCEN
 40
0.1052362205
  9
$DIMTSZ
 40
0.0
  9
$DIMTOL
 70
     1
  9
$DIMLIM
 70
     0
  9
$DIMTIH
 70
     1
  9
$DIMTOH
 70
     1
  9
$DIMSE1
 70
     0
  9
$DIMSE2
 70
     0
  9
$DIMTAD
 70
     0
  9
$DIMZIN
 70
     0
  9
$DIMBLK
  1

  9
$DIMASO
 70
     1
  9
$DIMSHO
 70
     1
  9
$DIMPOST
  1
\X
  9
$DIMAPOST
  1

  9
$DIMALT
 70
     1
  9
$DIMALTD
 70
     2
  9
$DIMALTF
 40
25.3999999999999986
  9
$DIMLFAC
 40
1.0
  9
$DIMTOFL
 70
     0
  9
$DIMTVP
 40
0.0
  9
$DIMTIX
 70
     0
  9
$DIMSOXD
 70
     0
  9
$DIMSAH
 70
     0
  9
$DIMBLK1
  1

  9
$DIMBLK2
  1

  9
$DIMSTYLE
  2
STANDARD
  9
$DIMCLRD
 70
     0
  9
$DIMCLRE
 70
     0
  9
$DIMCLRT
 70
     0
  9
$DIMTFAC
 40
1.0
  9
$DIMGAP
 40
0.09
  9
$LUNITS
 70
     2
  9
$LUPREC
 70
     4
  9
$SKETCHINC
 40
0.1
  9
$FILLETRAD
 40
0.0
  9
$AUNITS
 70
     0
  9
$AUPREC
 70
     0
  9
$MENU
  1
.
  9
$ELEVATION
 40
0.0
  9
$PELEVATION
 40
0.0
  9
$THICKNESS
 40
0.0
  9
$LIMCHECK
 70
     0
  9
$BLIPMODE
 70
     0
  9
$CHAMFERA
 40
0.0
  9
$CHAMFERB
 40
0.0
  9
$SKPOLY
 70
     0
  9
$TDCREATE
 40
2458060.468368056230247
  9
$TDUPDATE
 40
2459012.765775463078171
  9
$TDINDWG
 40
0.6691737269
  9
$TDUSRTIMER
 40
0.6691737269
  9
$USRTIMER
 70
     1
  9
$ANGBASE
 50
0.0
  9
$ANGDIR
 70
     0
  9
$PDMODE
 70
     0
  9
$PDSIZE
 40
0.3125
  9
$PLINEWID
 40
0.0
  9
$COORDS
 70
     1
  9
$SPLFRAME
 70
     0
  9
$SPLINETYPE
 70
     6
  9
$SPLINESEGS
 70
     8
  9
$ATTDIA
 70
     1
  9
$ATTREQ
 70
     1
  9
$HANDLING
 70
     1
  9
$HANDSEED
  5
8979
  9
$SURFTAB1
 70
     6
  9
$SURFTAB2
 70
     6
  9
$SURFTYPE
 70
     6
  9
$SURFU
 70
     6
  9
$SURFV
 70
     6
  9
$UCSNAME
  2

  9
$UCSORG
 10
0.0
 20
0.0
 30
0.0
  9
$UCSXDIR
 10
1.0
 20
0.0
 30
0.0
  9
$UCSYDIR
 10
0.0
 20
1.0
 30
0.0
  9
$PUCSNAME
  2

  9
$PUCSORG
 10
0.0
 20
0.0
 30
0.0
  9
$PUCSXDIR
 10
1.0
 20
0.0
 30
0.0
  9
$PUCSYDIR
 10
0.0
 20
1.0
 30
0.0
  9
$USERI1
 70
     0
  9
$USERI2
 70
     0
  9
$USERI3
 70
     0
  9
$USERI4
 70
     0
  9
$USERI5
 70
     0
  9
$USERR1
 40
0.0
  9
$USERR2
 40
0.0
  9
$USERR3
 40
0.0
  9
$USERR4
 40
0.0
  9
$USERR5
 40
0.0
  9
$WORLDVIEW
 70
     1
  9
$SHADEDGE
 70
     3
  9
$SHADEDIF
 70
    70
  9
$TILEMODE
 70
     1
  9
$MAXACTVP
 70
    64
  9
$PLIMCHECK
 70
     0
  9
$PEXTMIN
 10
1.0000000000000000E+20
 20
1.0000000000000000E+20
 30
1.0000000000000000E+20
  9
$PEXTMAX
 10
-1.0000000000000000E+20
 20
-1.0000000000000000E+20
 30
-1.0000000000000000E+20
  9
$PLIMMIN
 10
0.0
 20
0.0
  9
$PLIMMAX
 10
12.0
 20
9.0
  9
$UNITMODE
 70
     0
  9
$VISRETAIN
 70
     1
  9
$PLINEGEN
 70
     0
  9
$PSLTSCALE
 70
     1
  0
ENDSEC
  0
SECTION
  2
TABLES
  0
TABLE
  2
VPORT
 70
     1
  0
VPORT
  2
*ACTIVE
 70
     0
 10
0.0
 20
0.0
 11
1.0
 21
1.0
 12
0.0
 22
0.1763340469945724
 13
0.0
 23
0.0
 14
1.0
 24
1.0
 15
0.0
 25
0.0
 16
0.0
 26
0.0
 36
103.8625165832234956
 17
3404.841064453125
 27
194.5543060302734091
 37
0.0
 40
36.6132134257308479
 41
2.127494456762749
 42
50.0
 43
0.0
 44
0.0
 50
0.0
 51
0.0
 71
     0
 72
   100
 73
     1
 74
     1
 75
     0
 76
     0
 77
     0
 78
     0
  0
ENDTAB
  0
TABLE
  2
LTYPE
 70
     2
  0
LTYPE
  2
CONTINUOUS
 70
     0
  3
Solid line
 72
    65
 73
     0
 40
0.0
  0
LTYPE
  2
PHANTOM2
 70
     0
  3
___ _ _ ___ _ _ ___ _ _ ___ _ _
 72
    65
 73
     6
 40
1.25
 49
0.625
 49
-0.125
 49
0.125
 49
-0.125
 49
0.125
 49
-0.125
  0
ENDTAB
  0
TABLE
  2
LAYER
 70
     2
  0
LAYER
  2
0
 70
     0
 62
   255
  6
CONTINUOUS
  0
LAYER
  2
DEFPOINTS
 70
     0
 62
     7
  6
CONTINUOUS
  0
ENDTAB
  0
TABLE
  2
STYLE
 70
     1
  0
STYLE
  2
STANDARD
 70
     0
 40
0.0
 41
0.8
 50
0.0
 71
     0
 42
0.2
  3
txt
  4

  0
ENDTAB
  0
TABLE
  2
VIEW
 70
     0
  0
ENDTAB
  0
TABLE
  2
UCS
 70
     0
  0
ENDTAB
  0
TABLE
  2
APPID
 70
     9
  0
APPID
  2
ACAD
 70
     0
  0
APPID
  2
ACAD_MLEADERVER
 70
     0
  0
APPID
  2
ACAD_EXEMPT_FROM_CAD_STANDARDS
 70
     0
  0
APPID
  2
ACAD_NAV_VCDISPLAY
 70
     0
  0
APPID
  2
ACAECLAYERSTANDARD
 70
     0
  0
APPID
  2
ACCMTRANSPARENCY
 70
     0
  0
APPID
  2
ACAD_DSTYLE_DIMJAG
 70
     0
  0
APPID
  2
ACAD_DSTYLE_DIMTALN
 70
     0
  0
APPID
  2
ACDBATTR
 70
     0
  0
ENDTAB
  0
TABLE
  2
DIMSTYLE
 70
     1
  0
DIMSTYLE
  2
STANDARD
 70
     0
  3

  4

  5

  6

  7

 40
1.0
 41
0.1875
 42
0.0625
 43
0.38
 44
0.125
 45
0.0
 46
0.0
 47
0.01
 48
0.01
140
0.15625
141
0.09
142
0.0
143
25.3999999999999986
144
1.0
145
0.0
146
1.0
147
0.09
 71
     1
 72
     0
 73
     1
 74
     1
 75
     0
 76
     0
 77
     0
 78
     4
170
     0
171
     2
172
     0
173
     0
174
     0
175
     0
176
     0
177
     0
178
     0
  0
ENDTAB
  0
ENDSEC
  0
SECTION
  2
BLOCKS
  0
BLOCK
  8
0
  2
$MODEL_SPACE
 70
     0
 10
0.0
 20
0.0
 30
0.0
  3
$MODEL_SPACE
  1

  0
ENDBLK
  5
21
  8
0
  0
BLOCK
 67
     1
  8
0
  2
$PAPER_SPACE
 70
     0
 10
0.0
 20
0.0
 30
0.0
  3
$PAPER_SPACE
  1

  0
ENDBLK
  5
1D
 67
     1
  8
0
  0
ENDSEC
  0
SECTION
  2
ENTITIES
  0
ATTDEF
  5
3930
  8
DEFPOINTS
 10
3404.8418591440481578
 20
194.450473897328493
 30
0.0
 40
0.001
  1
K-2749-1
  3

  2
MODELNUMBER
 70
     0
1001
ACDBATTR
1070
     0
1070
     1
  0
ATTDEF
  5
3931
  8
DEFPOINTS
 10
3404.8418591440481578
 20
194.4488072306619131
 30
0.0
 40
0.001
  1
VOX
  3

  2
TRADENAME
 70
     0
1001
ACDBATTR
1070
     0
1070
     1
  0
ATTDEF
  5
3932
  8
DEFPOINTS
 10
3404.8418591440481578
 20
194.4471405639951911
 30
0.0
 40
0.001
  1
BATHROOM SINK
  3

  2
PRODUCT
 70
     0
1001
ACDBATTR
1070
     0
1070
     1
  0
ARC
  5
8624
  8
0
 10
3403.6696956902510465
 20
190.8366379486832898
 30
0.0
 40
0.1181116474993811
 50
185.0006273566391997
 51
270.0
  0
LINE
  5
8625
  8
0
 10
3403.5520336059507827
 20
190.8263425519839984
 30
0.0
 11
3403.4586109604088051
 21
191.8940336294839994
 31
0.0
  0
ARC
  5
8626
  8
0
 10
3398.8398700408511104
 20
192.0530545557772086
 30
0.0
 40
0.1590209262932305
 50
186.5007241382016048
 51
270.0
  0
LINE
  5
8627
  8
0
 10
3398.6818715515510121
 20
192.0350508789838955
 30
0.0
 11
3398.6349874810630354
 21
192.470748756439491
 31
0.0
  0
ARC
  5
8628
  8
0
 10
3389.7850871404498321
 20
192.7995454404839961
 30
0.0
 40
0.3149606298999998
 50
185.0005173583992075
 51
270.0
  0
LINE
  5
8629
  8
0
 10
3389.4713252787178135
 20
192.7720919797012016
 30
0.0
 11
3389.3523425133239471
 21
194.1319297895661009
 31
0.0
  0
ARC
  5
862A
  8
0
 10
3388.2115646385491345
 20
194.0262455882318022
 30
0.0
 40
1.1456628256111649
 50
4.7081339309272554
 51
21.874395282451399
  0
ARC
  5
862B
  8
0
 10
3387.3491522812719268
 20
194.6105690624933118
 30
0.0
 40
0.1574803150218457
 50
181.1211050307468042
 51
269.9992780944656943
  0
LINE
  5
862C
  8
0
 10
3387.1917021122540064
 20
194.607487845880911
 30
0.0
 11
3387.1244602931628833
 21
198.043544806005599
 31
0.0
  0
ARC
  5
862D
  8
0
 10
3388.3394943691291701
 20
198.0296811837467885
 30
0.0
 40
1.2151131658468881
 50
166.9440775917273072
 51
179.3462795357542063
  0
ARC
  5
862E
  8
0
 10
3387.2926160239580895
 20
198.238192526305312
 30
0.0
 40
0.1519042287710626
 50
89.9240510673209315
 51
154.253754861596093
  0
LINE
  5
862F
  8
0
 10
3398.4638914713500526
 20
192.4845848105840105
 30
0.0
 11
3400.0566672168110927
 21
192.3557815059878067
 31
0.0
  0
ARC
  5
8630
  8
0
 10
3400.7297729425531543
 20
200.6793759778342974
 30
0.0
 40
8.3507662073477587
 50
265.3767115927605005
 51
269.6581254349686105
  0
ARC
  5
8631
  8
0
 10
3400.7093950316120754
 20
197.2642215462539923
 30
0.0
 40
4.9355509797526764
 50
269.6581254349686105
 51
275.2114281874485755
  0
LINE
  5
8632
  8
0
 10
3401.15769713364989
 20
192.3490726472840038
 30
0.0
 11
3402.3643671340091714
 21
192.4845848105840105
 31
0.0
  0
ARC
  5
8633
  8
0
 10
3406.0122913299987886
 20
190.8366379486832898
 30
0.0
 40
0.1181116474993811
 50
270.0
 51
354.9993726433608003
  0
LINE
  5
8634
  8
0
 10
3406.1299534142999619
 20
190.8263425519839984
 30
0.0
 11
3406.2233760598410299
 21
191.8940336294839994
 31
0.0
  0
ARC
  5
8635
  8
0
 10
3410.8421169793991794
 20
192.0530545557772086
 30
0.0
 40
0.1590209262932305
 50
270.0
 51
353.49927586179831
  0
LINE
  5
8636
  8
0
 10
3411.000115468698823
 20
192.0350508789838955
 30
0.0
 11
3411.0469995391867997
 21
192.470748756439491
 31
0.0
  0
ARC
  5
8637
  8
0
 10
3419.896899879800003
 20
192.7995454404839961
 30
0.0
 40
0.3149606298999998
 50
270.0
 51
354.9994826416007072
  0
LINE
  5
8638
  8
0
 10
3420.2106617415320216
 20
192.7720919797012016
 30
0.0
 11
3420.3296445069267975
 21
194.1319297895661009
 31
0.0
  0
ARC
  5
8639
  8
0
 10
3421.4704223817011552
 20
194.0262455882318022
 30
0.0
 40
1.1456628256111649
 50
158.1256047175486117
 51
175.2918660690727108
  0
ARC
  5
863A
  8
0
 10
3422.3328347389779083
 20
194.6105690624933118
 30
0.0
 40
0.157480315021848
 50
270.0007219055343057
 51
358.8788949692532242
  0
LINE
  5
863B
  8
0
 10
3422.4902849079958287
 20
194.607487845880911
 30
0.0
 11
3422.5575267270878612
 21
198.043544806005599
 31
0.0
  0
ARC
  5
863C
  8
0
 10
3421.3424926511202102
 20
198.0296811837467885
 30
0.0
 40
1.2151131658468881
 50
0.6537204642457926
 51
13.0559224082726395
  0
ARC
  5
863D
  8
0
 10
3422.389370996290836
 20
198.2381925263051983
 30
0.0
 40
0.1519042287720796
 50
25.7462451382835411
 51
89.9240510666673316
  0
LINE
  5
863E
  8
0
 10
3411.2180955488997824
 20
192.4845848105840105
 30
0.0
 11
3409.6253198034391971
 21
192.3557815059878067
 31
0.0
  0
ARC
  5
863F
  8
0
 10
3408.9522140776971355
 20
200.6793759778342974
 30
0.0
 40
8.3507662073477587
 50
270.3418745650313895
 51
274.6232884072393858
  0
ARC
  5
8640
  8
0
 10
3408.9725919886382144
 20
197.2642215462539923
 30
0.0
 40
4.9355509797526764
 50
264.7885718125514245
 51
270.3418745650313895
  0
LINE
  5
8641
  8
0
 10
3408.5242898865990355
 20
192.3490726472840038
 30
0.0
 11
3407.3176198862411184
 21
192.4845848105840105
 31
0.0
  0
LINE
  5
8642
  8
0
 10
3387.2928173819068434
 20
198.3900966216205006
 30
0.0
 11
3422.3895723542418636
 21
198.3900966216205006
 31
0.0
  0
LINE
  5
8643
  8
0
 10
3387.3491502970791771
 20
194.4530887474840029
 30
0.0
 11
3422.3328367231711127
 21
194.4530887474840029
 31
0.0
  0
LINE
  5
8644
  8
0
 10
3389.7850871404498321
 20
192.4845848105840105
 30
0.0
 11
3419.896899879800003
 21
192.4845848105840105
 31
0.0
  0
LINE
  5
8645
  8
0
 10
3398.8398700408511104
 20
191.8940336294839994
 30
0.0
 11
3410.8421169793991794
 21
191.8940336294839994
 31
0.0
  0
LINE
  5
8646
  8
0
 10
3403.6696956902510465
 20
190.7185263011839993
 30
0.0
 11
3406.0122913299987886
 21
190.7185263011839993
 31
0.0
  0
ENDSEC
  0
EOF
