  0
SECTION
  2
HEADER
  9
$ACADVER
  1
AC1009
  9
$INSBASE
 10
3441.853624483565909
 20
208.7630475549212861
 30
0.0
  9
$EXTMIN
 10
3424.1370911696972144
 20
198.5268271479959878
 30
0.0
  9
$EXTMAX
 10
3459.5701577974350585
 20
218.999268073322213
 30
0.0
  9
$LIMMIN
 10
0.0
 20
0.0
  9
$LIMMAX
 10
11.6929133858000007
 20
8.2677165353999982
  9
$ORTHOMODE
 70
     0
  9
$REGENMODE
 70
     1
  9
$FILLMODE
 70
     1
  9
$QTEXTMODE
 70
     0
  9
$MIRRTEXT
 70
     0
  9
$DRAGMODE
 70
     2
  9
$LTSCALE
 40
0.6431102362
  9
$OSMODE
 70
  4095
  9
$ATTMODE
 70
     1
  9
$TEXTSIZE
 40
0.2
  9
$TRACEWID
 40
0.05
  9
$TEXTSTYLE
  7
STANDARD
  9
$CLAYER
  8
DEFPOINTS
  9
$CELTYPE
  6
BYLAYER
  9
$CECOLOR
 62
   256
  9
$DIMSCALE
 40
1.0
  9
$DIMASZ
 40
0.1875
  9
$DIMEXO
 40
0.0625
  9
$DIMDLI
 40
0.4443307087
  9
$DIMRND
 40
0.0
  9
$DIMDLE
 40
0.0
  9
$DIMEXE
 40
0.125
  9
$DIMTP
 40
0.01
  9
$DIMTM
 40
0.01
  9
$DIMTXT
 40
2.0
  9
$DIMCEN
 40
0.1052362205
  9
$DIMTSZ
 40
0.0
  9
$DIMTOL
 70
     1
  9
$DIMLIM
 70
     0
  9
$DIMTIH
 70
     1
  9
$DIMTOH
 70
     1
  9
$DIMSE1
 70
     0
  9
$DIMSE2
 70
     0
  9
$DIMTAD
 70
     0
  9
$DIMZIN
 70
     0
  9
$DIMBLK
  1

  9
$DIMASO
 70
     1
  9
$DIMSHO
 70
     1
  9
$DIMPOST
  1
\X
  9
$DIMAPOST
  1

  9
$DIMALT
 70
     1
  9
$DIMALTD
 70
     2
  9
$DIMALTF
 40
25.3999999999999986
  9
$DIMLFAC
 40
1.0
  9
$DIMTOFL
 70
     0
  9
$DIMTVP
 40
0.0
  9
$DIMTIX
 70
     0
  9
$DIMSOXD
 70
     0
  9
$DIMSAH
 70
     0
  9
$DIMBLK1
  1

  9
$DIMBLK2
  1

  9
$DIMSTYLE
  2
STANDARD
  9
$DIMCLRD
 70
     0
  9
$DIMCLRE
 70
     0
  9
$DIMCLRT
 70
     0
  9
$DIMTFAC
 40
1.0
  9
$DIMGAP
 40
0.09
  9
$LUNITS
 70
     2
  9
$LUPREC
 70
     4
  9
$SKETCHINC
 40
0.1
  9
$FILLETRAD
 40
0.0
  9
$AUNITS
 70
     0
  9
$AUPREC
 70
     0
  9
$MENU
  1
.
  9
$ELEVATION
 40
0.0
  9
$PELEVATION
 40
0.0
  9
$THICKNESS
 40
0.0
  9
$LIMCHECK
 70
     0
  9
$BLIPMODE
 70
     0
  9
$CHAMFERA
 40
0.0
  9
$CHAMFERB
 40
0.0
  9
$SKPOLY
 70
     0
  9
$TDCREATE
 40
2458060.468368056230247
  9
$TDUPDATE
 40
2459012.765636574011296
  9
$TDINDWG
 40
0.6961760417
  9
$TDUSRTIMER
 40
0.6961760417
  9
$USRTIMER
 70
     1
  9
$ANGBASE
 50
0.0
  9
$ANGDIR
 70
     0
  9
$PDMODE
 70
     0
  9
$PDSIZE
 40
0.3125
  9
$PLINEWID
 40
0.0
  9
$COORDS
 70
     1
  9
$SPLFRAME
 70
     0
  9
$SPLINETYPE
 70
     6
  9
$SPLINESEGS
 70
     8
  9
$ATTDIA
 70
     1
  9
$ATTREQ
 70
     1
  9
$HANDLING
 70
     1
  9
$HANDSEED
  5
853E
  9
$SURFTAB1
 70
     6
  9
$SURFTAB2
 70
     6
  9
$SURFTYPE
 70
     6
  9
$SURFU
 70
     6
  9
$SURFV
 70
     6
  9
$UCSNAME
  2

  9
$UCSORG
 10
0.0
 20
0.0
 30
0.0
  9
$UCSXDIR
 10
1.0
 20
0.0
 30
0.0
  9
$UCSYDIR
 10
0.0
 20
1.0
 30
0.0
  9
$PUCSNAME
  2

  9
$PUCSORG
 10
0.0
 20
0.0
 30
0.0
  9
$PUCSXDIR
 10
1.0
 20
0.0
 30
0.0
  9
$PUCSYDIR
 10
0.0
 20
1.0
 30
0.0
  9
$USERI1
 70
     0
  9
$USERI2
 70
     0
  9
$USERI3
 70
     0
  9
$USERI4
 70
     0
  9
$USERI5
 70
     0
  9
$USERR1
 40
0.0
  9
$USERR2
 40
0.0
  9
$USERR3
 40
0.0
  9
$USERR4
 40
0.0
  9
$USERR5
 40
0.0
  9
$WORLDVIEW
 70
     1
  9
$SHADEDGE
 70
     3
  9
$SHADEDIF
 70
    70
  9
$TILEMODE
 70
     1
  9
$MAXACTVP
 70
    64
  9
$PLIMCHECK
 70
     0
  9
$PEXTMIN
 10
1.0000000000000000E+20
 20
1.0000000000000000E+20
 30
1.0000000000000000E+20
  9
$PEXTMAX
 10
-1.0000000000000000E+20
 20
-1.0000000000000000E+20
 30
-1.0000000000000000E+20
  9
$PLIMMIN
 10
0.0
 20
0.0
  9
$PLIMMAX
 10
12.0
 20
9.0
  9
$UNITMODE
 70
     0
  9
$VISRETAIN
 70
     1
  9
$PLINEGEN
 70
     0
  9
$PSLTSCALE
 70
     1
  0
ENDSEC
  0
SECTION
  2
TABLES
  0
TABLE
  2
VPORT
 70
     1
  0
VPORT
  2
*ACTIVE
 70
     0
 10
0.0
 20
0.0
 11
1.0
 21
1.0
 12
0.0
 22
0.1990380013088675
 13
0.0
 23
0.0
 14
1.0
 24
1.0
 15
0.0
 25
0.0
 16
0.0
 26
0.0
 36
117.235372657613695
 17
3441.8536376953129547
 27
208.7630462646484091
 37
0.0
 40
41.3289627787487106
 41
2.127494456762749
 42
50.0
 43
0.0
 44
0.0
 50
0.0
 51
0.0
 71
     0
 72
   100
 73
     1
 74
     1
 75
     0
 76
     0
 77
     0
 78
     0
  0
ENDTAB
  0
TABLE
  2
LTYPE
 70
     2
  0
LTYPE
  2
CONTINUOUS
 70
     0
  3
Solid line
 72
    65
 73
     0
 40
0.0
  0
LTYPE
  2
PHANTOM2
 70
     0
  3
___ _ _ ___ _ _ ___ _ _ ___ _ _
 72
    65
 73
     6
 40
1.25
 49
0.625
 49
-0.125
 49
0.125
 49
-0.125
 49
0.125
 49
-0.125
  0
ENDTAB
  0
TABLE
  2
LAYER
 70
     2
  0
LAYER
  2
0
 70
     0
 62
   255
  6
CONTINUOUS
  0
LAYER
  2
DEFPOINTS
 70
     0
 62
     7
  6
CONTINUOUS
  0
ENDTAB
  0
TABLE
  2
STYLE
 70
     1
  0
STYLE
  2
STANDARD
 70
     0
 40
0.0
 41
0.8
 50
0.0
 71
     0
 42
0.2
  3
txt
  4

  0
ENDTAB
  0
TABLE
  2
VIEW
 70
     0
  0
ENDTAB
  0
TABLE
  2
UCS
 70
     0
  0
ENDTAB
  0
TABLE
  2
APPID
 70
     9
  0
APPID
  2
ACAD
 70
     0
  0
APPID
  2
ACAD_MLEADERVER
 70
     0
  0
APPID
  2
ACAD_EXEMPT_FROM_CAD_STANDARDS
 70
     0
  0
APPID
  2
ACAD_NAV_VCDISPLAY
 70
     0
  0
APPID
  2
ACAECLAYERSTANDARD
 70
     0
  0
APPID
  2
ACCMTRANSPARENCY
 70
     0
  0
APPID
  2
ACAD_DSTYLE_DIMJAG
 70
     0
  0
APPID
  2
ACAD_DSTYLE_DIMTALN
 70
     0
  0
APPID
  2
ACDBATTR
 70
     0
  0
ENDTAB
  0
TABLE
  2
DIMSTYLE
 70
     1
  0
DIMSTYLE
  2
STANDARD
 70
     0
  3

  4

  5

  6

  7

 40
1.0
 41
0.1875
 42
0.0625
 43
0.38
 44
0.125
 45
0.0
 46
0.0
 47
0.01
 48
0.01
140
0.15625
141
0.09
142
0.0
143
25.3999999999999986
144
1.0
145
0.0
146
1.0
147
0.09
 71
     1
 72
     0
 73
     1
 74
     1
 75
     0
 76
     0
 77
     0
 78
     4
170
     0
171
     2
172
     0
173
     0
174
     0
175
     0
176
     0
177
     0
178
     0
  0
ENDTAB
  0
ENDSEC
  0
SECTION
  2
BLOCKS
  0
BLOCK
  8
0
  2
$MODEL_SPACE
 70
     0
 10
0.0
 20
0.0
 30
0.0
  3
$MODEL_SPACE
  1

  0
ENDBLK
  5
21
  8
0
  0
BLOCK
 67
     1
  8
0
  2
$PAPER_SPACE
 70
     0
 10
0.0
 20
0.0
 30
0.0
  3
$PAPER_SPACE
  1

  0
ENDBLK
  5
1D
 67
     1
  8
0
  0
ENDSEC
  0
SECTION
  2
ENTITIES
  0
ATTDEF
  5
3930
  8
DEFPOINTS
 10
3441.8444280229068681
 20
208.7668723202112915
 30
0.0
 40
0.001
  1
K-2749-1
  3

  2
MODELNUMBER
 70
     0
1001
ACDBATTR
1070
     0
1070
     1
  0
ATTDEF
  5
3931
  8
DEFPOINTS
 10
3441.8444280229068681
 20
208.7652056535445979
 30
0.0
 40
0.001
  1
VOX
  3

  2
TRADENAME
 70
     0
1001
ACDBATTR
1070
     0
1070
     1
  0
ATTDEF
  5
3932
  8
DEFPOINTS
 10
3441.8444280229068681
 20
208.7635389868779043
 30
0.0
 40
0.001
  1
BATHROOM SINK
  3

  2
PRODUCT
 70
     0
1001
ACDBATTR
1070
     0
1070
     1
  0
ARC
  5
8276
  8
0
 10
3425.7118914245402266
 20
200.1016273053984946
 30
0.0
 40
1.5748001579363511
 50
180.000000013691988
 51
269.9985081312730131
  0
ARC
  5
8277
  8
0
 10
3426.0752824411038091
 20
200.4899206142873993
 30
0.0
 40
1.4356320851463089
 50
194.3326889664199939
 51
270.6704197598853057
  0
LINE
  5
8278
  8
0
 10
3424.6843349022910843
 20
200.1345272713963084
 30
0.0
 11
3424.6843352589557981
 21
211.8797328884180899
 31
0.0
  0
ARC
  5
8279
  8
0
 10
3425.9929713614028515
 20
211.6271351523186013
 30
0.0
 40
1.3327918310485141
 50
89.7156457167353381
 51
169.0749190020700894
  0
ARC
  5
827A
  8
0
 10
3424.373091542999191
 20
218.7632677000198953
 30
0.0
 40
0.2360003733022647
 50
89.9389145735275548
 51
180.0519227276355139
  0
LINE
  5
827B
  8
0
 10
3424.1370912666029653
 20
200.1016273050221059
 30
0.0
 11
3424.1370912666029653
 21
218.7630538311881878
 31
0.0
  0
CIRCLE
  5
827D
  8
0
 10
3441.8536248381910809
 20
215.4559610062962918
 30
0.0
 40
0.6889763780000003
  0
ARC
  5
827F
  8
0
 10
3441.8461339087311899
 20
211.829050937337513
 30
0.0
 40
0.9529582165735019
 50
65.6852147664560704
 51
112.6635202093463022
  0
ARC
  5
8280
  8
0
 10
3441.5164214663159328
 20
212.6217602060137892
 30
0.0
 40
0.0944222945092715
 50
113.3870810410674039
 51
250.5645795967600975
  0
ARC
  5
8281
  8
0
 10
3441.8520603411161574
 20
213.2623320805217872
 30
0.0
 40
0.8167418611612381
 50
243.2937408091509042
 51
297.6387920450671913
  0
ARC
  5
8282
  8
0
 10
3442.1822939917219628
 20
212.6206353603571984
 30
0.0
 40
0.0952135925202299
 50
300.7272633706789975
 51
53.8101927157738587
  0
ARC
  5
8283
  8
0
 10
3441.8552718867517797
 20
213.7054729761048009
 30
0.0
 40
0.9763837842878778
 50
256.4386016311195249
 51
283.0033539373441727
  0
CIRCLE
  5
8284
  8
0
 10
3441.8536249221810976
 20
206.006858387259399
 30
0.0
 40
1.298146167236059
  0
CIRCLE
  5
8285
  8
0
 10
3441.8536248381910809
 20
206.0071844216963086
 30
0.0
 40
0.8858267716999996
  0
LINE
  5
8286
  8
0
 10
3425.2013596732440419
 20
199.3509305003196914
 30
0.0
 11
3440.64820224167579
 21
205.5250496774661997
 31
0.0
  0
LINE
  5
8287
  8
0
 10
3425.0576661959821649
 20
212.5766288660670966
 30
0.0
 11
3440.6447757925811857
 21
206.4800045099053136
 31
0.0
  0
POINT
  5
8288
  8
DEFPOINTS
 10
3441.8536248381910809
 20
215.4559610062962918
 30
0.0
  0
ARC
  5
8289
  8
0
 10
3457.9953575425911367
 20
200.1016273054005978
 30
0.0
 40
1.574800157938137
 50
270.0014918687601266
 51
359.9999999862315008
  0
ARC
  5
828A
  8
0
 10
3457.6319665260270995
 20
200.4899206142873993
 30
0.0
 40
1.4356320851463089
 50
269.329580240114808
 51
345.6673110335800061
  0
LINE
  5
828B
  8
0
 10
3459.0229140648411885
 20
200.1345272713963084
 30
0.0
 11
3459.02291370817602
 21
211.8797328884180899
 31
0.0
  0
ARC
  5
828C
  8
0
 10
3457.7142776057298761
 20
211.6271351523186013
 30
0.0
 40
1.3327918310485141
 50
10.9250809979298502
 51
90.2843542832646477
  0
ARC
  5
828D
  8
0
 10
3459.3341574241321723
 20
218.7632677000198953
 30
0.0
 40
0.2360003733022647
 50
359.9480772723628093
 51
90.0610854264724452
  0
LINE
  5
828E
  8
0
 10
3459.5701577005288527
 20
200.1016273050221059
 30
0.0
 11
3459.5701577005279432
 21
218.7630538311881878
 31
0.0
  0
LINE
  5
828F
  8
0
 10
3458.5058892938877761
 20
199.3509305003196914
 30
0.0
 11
3443.0590467254551186
 21
205.5250496774661997
 31
0.0
  0
LINE
  5
8290
  8
0
 10
3458.6495827711501079
 20
212.5766288660670966
 30
0.0
 11
3443.0624731745501776
 21
206.4800045099053136
 31
0.0
  0
LINE
  5
8291
  8
0
 10
3424.3733431528189612
 20
218.9992679391963009
 30
0.0
 11
3459.3339058143142211
 21
218.9992679391963009
 31
0.0
  0
LINE
  5
8292
  8
0
 10
3425.9995858714651149
 20
212.9599105696962908
 30
0.0
 11
3457.7076630956680674
 21
212.9599105696962908
 31
0.0
  0
LINE
  5
8293
  8
0
 10
3426.0920804350121216
 20
199.0543868071960105
 30
0.0
 11
3457.6151685321201512
 21
199.0543868071960105
 31
0.0
  0
LINE
  5
8294
  8
0
 10
3425.711850419860184
 20
198.5268271479963005
 30
0.0
 11
3457.9953985472898239
 21
198.5268271479963005
 31
0.0
  0
ENDSEC
  0
EOF
