  0
SECTION
  2
HEADER
  9
$ACADVER
  1
AC1009
  9
$INSBASE
 10
3401.9971205832889609
 20
182.9058543324096888
 30
0.0
  9
$EXTMIN
 10
3391.6486089922718747
 20
179.1712918861097137
 30
0.0
  9
$EXTMAX
 10
3412.1210089922929001
 20
186.8428622065461866
 30
0.0
  9
$LIMMIN
 10
0.0
 20
0.0
  9
$LIMMAX
 10
11.6929133858000007
 20
8.2677165353999982
  9
$ORTHOMODE
 70
     0
  9
$REGENMODE
 70
     1
  9
$FILLMODE
 70
     1
  9
$QTEXTMODE
 70
     0
  9
$MIRRTEXT
 70
     0
  9
$DRAGMODE
 70
     2
  9
$LTSCALE
 40
0.6431102362
  9
$OSMODE
 70
  4095
  9
$ATTMODE
 70
     1
  9
$TEXTSIZE
 40
0.2
  9
$TRACEWID
 40
0.05
  9
$TEXTSTYLE
  7
STANDARD
  9
$CLAYER
  8
0
  9
$CELTYPE
  6
BYLAYER
  9
$CECOLOR
 62
   256
  9
$DIMSCALE
 40
1.0
  9
$DIMASZ
 40
0.1875
  9
$DIMEXO
 40
0.0625
  9
$DIMDLI
 40
0.4443307087
  9
$DIMRND
 40
0.0
  9
$DIMDLE
 40
0.0
  9
$DIMEXE
 40
0.125
  9
$DIMTP
 40
0.01
  9
$DIMTM
 40
0.01
  9
$DIMTXT
 40
2.0
  9
$DIMCEN
 40
0.1052362205
  9
$DIMTSZ
 40
0.0
  9
$DIMTOL
 70
     1
  9
$DIMLIM
 70
     0
  9
$DIMTIH
 70
     1
  9
$DIMTOH
 70
     1
  9
$DIMSE1
 70
     0
  9
$DIMSE2
 70
     0
  9
$DIMTAD
 70
     0
  9
$DIMZIN
 70
     0
  9
$DIMBLK
  1

  9
$DIMASO
 70
     1
  9
$DIMSHO
 70
     1
  9
$DIMPOST
  1
\X
  9
$DIMAPOST
  1

  9
$DIMALT
 70
     1
  9
$DIMALTD
 70
     2
  9
$DIMALTF
 40
25.3999999999999986
  9
$DIMLFAC
 40
1.0
  9
$DIMTOFL
 70
     0
  9
$DIMTVP
 40
0.0
  9
$DIMTIX
 70
     0
  9
$DIMSOXD
 70
     0
  9
$DIMSAH
 70
     0
  9
$DIMBLK1
  1

  9
$DIMBLK2
  1

  9
$DIMSTYLE
  2
STANDARD
  9
$DIMCLRD
 70
     0
  9
$DIMCLRE
 70
     0
  9
$DIMCLRT
 70
     0
  9
$DIMTFAC
 40
1.0
  9
$DIMGAP
 40
0.09
  9
$LUNITS
 70
     2
  9
$LUPREC
 70
     4
  9
$SKETCHINC
 40
0.1
  9
$FILLETRAD
 40
0.0
  9
$AUNITS
 70
     0
  9
$AUPREC
 70
     0
  9
$MENU
  1
.
  9
$ELEVATION
 40
0.0
  9
$PELEVATION
 40
0.0
  9
$THICKNESS
 40
0.0
  9
$LIMCHECK
 70
     0
  9
$BLIPMODE
 70
     0
  9
$CHAMFERA
 40
0.0
  9
$CHAMFERB
 40
0.0
  9
$SKPOLY
 70
     0
  9
$TDCREATE
 40
2458060.468368056230247
  9
$TDUPDATE
 40
2459012.7654976858757436
  9
$TDINDWG
 40
0.666858912
  9
$TDUSRTIMER
 40
0.666858912
  9
$USRTIMER
 70
     1
  9
$ANGBASE
 50
0.0
  9
$ANGDIR
 70
     0
  9
$PDMODE
 70
     0
  9
$PDSIZE
 40
0.3125
  9
$PLINEWID
 40
0.0
  9
$COORDS
 70
     1
  9
$SPLFRAME
 70
     0
  9
$SPLINETYPE
 70
     6
  9
$SPLINESEGS
 70
     8
  9
$ATTDIA
 70
     1
  9
$ATTREQ
 70
     1
  9
$HANDLING
 70
     1
  9
$HANDSEED
  5
912C
  9
$SURFTAB1
 70
     6
  9
$SURFTAB2
 70
     6
  9
$SURFTYPE
 70
     6
  9
$SURFU
 70
     6
  9
$SURFV
 70
     6
  9
$UCSNAME
  2

  9
$UCSORG
 10
0.0
 20
0.0
 30
0.0
  9
$UCSXDIR
 10
1.0
 20
0.0
 30
0.0
  9
$UCSYDIR
 10
0.0
 20
1.0
 30
0.0
  9
$PUCSNAME
  2

  9
$PUCSORG
 10
0.0
 20
0.0
 30
0.0
  9
$PUCSXDIR
 10
1.0
 20
0.0
 30
0.0
  9
$PUCSYDIR
 10
0.0
 20
1.0
 30
0.0
  9
$USERI1
 70
     0
  9
$USERI2
 70
     0
  9
$USERI3
 70
     0
  9
$USERI4
 70
     0
  9
$USERI5
 70
     0
  9
$USERR1
 40
0.0
  9
$USERR2
 40
0.0
  9
$USERR3
 40
0.0
  9
$USERR4
 40
0.0
  9
$USERR5
 40
0.0
  9
$WORLDVIEW
 70
     1
  9
$SHADEDGE
 70
     3
  9
$SHADEDIF
 70
    70
  9
$TILEMODE
 70
     1
  9
$MAXACTVP
 70
    64
  9
$PLIMCHECK
 70
     0
  9
$PEXTMIN
 10
1.0000000000000000E+20
 20
1.0000000000000000E+20
 30
1.0000000000000000E+20
  9
$PEXTMAX
 10
-1.0000000000000000E+20
 20
-1.0000000000000000E+20
 30
-1.0000000000000000E+20
  9
$PLIMMIN
 10
0.0
 20
0.0
  9
$PLIMMAX
 10
12.0
 20
9.0
  9
$UNITMODE
 70
     0
  9
$VISRETAIN
 70
     1
  9
$PLINEGEN
 70
     0
  9
$PSLTSCALE
 70
     1
  0
ENDSEC
  0
SECTION
  2
TABLES
  0
TABLE
  2
VPORT
 70
     1
  0
VPORT
  2
*ACTIVE
 70
     0
 10
0.0
 20
0.0
 11
1.0
 21
1.0
 12
0.0
 22
0.1063361339457369
 13
0.0
 23
0.0
 14
1.0
 24
1.0
 15
0.0
 25
0.0
 16
0.0
 26
0.0
 36
62.6330459918210281
 17
3401.8848876953129547
 27
183.007080078125
 37
0.0
 40
22.0752576855393094
 41
2.127494456762749
 42
50.0
 43
0.0
 44
0.0
 50
0.0
 51
0.0
 71
     0
 72
   100
 73
     1
 74
     1
 75
     0
 76
     0
 77
     0
 78
     0
  0
ENDTAB
  0
TABLE
  2
LTYPE
 70
     2
  0
LTYPE
  2
CONTINUOUS
 70
     0
  3
Solid line
 72
    65
 73
     0
 40
0.0
  0
LTYPE
  2
PHANTOM2
 70
     0
  3
___ _ _ ___ _ _ ___ _ _ ___ _ _
 72
    65
 73
     6
 40
1.25
 49
0.625
 49
-0.125
 49
0.125
 49
-0.125
 49
0.125
 49
-0.125
  0
ENDTAB
  0
TABLE
  2
LAYER
 70
     2
  0
LAYER
  2
0
 70
     0
 62
   255
  6
CONTINUOUS
  0
LAYER
  2
DEFPOINTS
 70
     0
 62
     7
  6
CONTINUOUS
  0
ENDTAB
  0
TABLE
  2
STYLE
 70
     1
  0
STYLE
  2
STANDARD
 70
     0
 40
0.0
 41
0.8
 50
0.0
 71
     0
 42
0.2
  3
txt
  4

  0
ENDTAB
  0
TABLE
  2
VIEW
 70
     0
  0
ENDTAB
  0
TABLE
  2
UCS
 70
     0
  0
ENDTAB
  0
TABLE
  2
APPID
 70
     9
  0
APPID
  2
ACAD
 70
     0
  0
APPID
  2
ACAD_MLEADERVER
 70
     0
  0
APPID
  2
ACAD_EXEMPT_FROM_CAD_STANDARDS
 70
     0
  0
APPID
  2
ACAD_NAV_VCDISPLAY
 70
     0
  0
APPID
  2
ACAECLAYERSTANDARD
 70
     0
  0
APPID
  2
ACCMTRANSPARENCY
 70
     0
  0
APPID
  2
ACAD_DSTYLE_DIMJAG
 70
     0
  0
APPID
  2
ACAD_DSTYLE_DIMTALN
 70
     0
  0
APPID
  2
ACDBATTR
 70
     0
  0
ENDTAB
  0
TABLE
  2
DIMSTYLE
 70
     1
  0
DIMSTYLE
  2
STANDARD
 70
     0
  3

  4

  5

  6

  7

 40
1.0
 41
0.1875
 42
0.0625
 43
0.38
 44
0.125
 45
0.0
 46
0.0
 47
0.01
 48
0.01
140
0.15625
141
0.09
142
0.0
143
25.3999999999999986
144
1.0
145
0.0
146
1.0
147
0.09
 71
     1
 72
     0
 73
     1
 74
     1
 75
     0
 76
     0
 77
     0
 78
     4
170
     0
171
     2
172
     0
173
     0
174
     0
175
     0
176
     0
177
     0
178
     0
  0
ENDTAB
  0
ENDSEC
  0
SECTION
  2
BLOCKS
  0
BLOCK
  8
0
  2
$MODEL_SPACE
 70
     0
 10
0.0
 20
0.0
 30
0.0
  3
$MODEL_SPACE
  1

  0
ENDBLK
  5
21
  8
0
  0
BLOCK
 67
     1
  8
0
  2
$PAPER_SPACE
 70
     0
 10
0.0
 20
0.0
 30
0.0
  3
$PAPER_SPACE
  1

  0
ENDBLK
  5
1D
 67
     1
  8
0
  0
ENDSEC
  0
SECTION
  2
ENTITIES
  0
ATTDEF
  5
3930
  8
DEFPOINTS
 10
3401.987548694880843
 20
182.9099148551206042
 30
0.0
 40
0.001
  1
K-2749-1
  3

  2
MODELNUMBER
 70
     0
1001
ACDBATTR
1070
     0
1070
     1
  0
ATTDEF
  5
3931
  8
DEFPOINTS
 10
3401.987548694880843
 20
182.9082481884539106
 30
0.0
 40
0.001
  1
VOX
  3

  2
TRADENAME
 70
     0
1001
ACDBATTR
1070
     0
1070
     1
  0
ATTDEF
  5
3932
  8
DEFPOINTS
 10
3401.987548694880843
 20
182.9065815217873023
 30
0.0
 40
0.001
  1
BATHROOM SINK
  3

  2
PRODUCT
 70
     0
1001
ACDBATTR
1070
     0
1070
     1
  0
ARC
  5
8EF5
  8
0
 10
3399.777408710599957
 20
186.8199750767213914
 30
0.0
 40
7.4203551507014529
 50
274.2307155833112802
 51
307.5549990677620258
  0
ARC
  5
8EF6
  8
0
 10
3400.6728278584068903
 20
179.1863387225515112
 30
0.0
 40
0.2656182442870286
 50
96.5816219102719344
 51
163.1319353379788026
  0
ARC
  5
8EF7
  8
0
 10
3400.2970519975729076
 20
179.2973700447682006
 30
0.0
 40
0.1262385720445826
 50
272.8887362817408757
 51
344.3956978793295889
  0
ARC
  5
8EF8
  8
0
 10
3397.9576791324398073
 20
179.2894345934246019
 30
0.0
 40
0.1181786635873844
 50
185.0129005824890953
 51
268.586595609068695
  0
LINE
  5
8EF9
  8
0
 10
3397.839952496442038
 20
179.2791081369097128
 30
0.0
 11
3397.7462993873577943
 21
180.3467992144097138
 31
0.0
  0
LINE
  5
8EFA
  8
0
 10
3399.6848372574318091
 20
180.3467987171096922
 30
0.0
 11
3399.6743830811901717
 21
179.6953268017815901
 31
0.0
  0
ARC
  5
8EFB
  8
0
 10
3400.2838311582449933
 20
180.2286607085036962
 30
0.0
 40
0.8098592560963712
 50
221.1894839014321974
 51
272.9017729082303276
  0
LINE
  5
8EFC
  8
0
 10
3403.2233586310321698
 20
180.9373504961097012
 30
0.0
 11
3403.2233586310321698
 21
180.3467992144097138
 31
0.0
  0
ARC
  5
8EFD
  8
0
 10
3396.4951181165320122
 20
180.5042801750497858
 30
0.0
 40
0.1574809606401235
 50
186.0000141322263119
 51
270.0
  0
LINE
  5
8EFE
  8
0
 10
3396.3384998571318647
 20
180.487818893609699
 30
0.0
 11
3396.298528598691064
 21
180.8681191117825051
 31
0.0
  0
ARC
  5
8EFF
  8
0
 10
3396.0635719263318606
 20
180.8434130661374866
 30
0.0
 40
0.2362520403671677
 50
6.0026782364273501
 51
23.4294620937049913
  0
ARC
  5
8F00
  8
0
 10
3393.9154834028317964
 20
181.2521860054935132
 30
0.0
 40
0.3148356099837759
 50
185.0221183724931961
 51
270.0
  0
LINE
  5
8F01
  8
0
 10
3393.6018564535561381
 20
181.2246251999576998
 30
0.0
 11
3393.4541139547459352
 21
182.9058543324096888
 31
0.0
  0
ARC
  5
8F02
  8
0
 10
3391.8732493315728789
 20
183.0633346475968892
 30
0.0
 40
0.1574803154435793
 50
181.1211051019465117
 51
269.9967302843733137
  0
LINE
  5
8F03
  8
0
 10
3391.7157991621370456
 20
183.0602534307805058
 30
0.0
 11
3391.6486089922718747
 21
186.496310392055193
 31
0.0
  0
ARC
  5
8F04
  8
0
 10
3393.9736375954789764
 20
186.4332100780405881
 30
0.0
 40
2.325884703747926
 50
172.4982521616186091
 51
178.4453978926572972
  0
ARC
  5
8F05
  8
0
 10
3391.8019760111519645
 20
186.7048818757712922
 30
0.0
 40
0.1380719853942434
 50
92.0877863394867262
 51
166.6044670349899093
  0
ARC
  5
8F06
  8
0
 10
3411.9576720941499843
 20
186.6955388731068979
 30
0.0
 40
0.1474769815352687
 50
10.3535844295094392
 51
87.3843669611514855
  0
ARC
  5
8F07
  8
0
 10
3410.7265734482348307
 20
186.4971110372987084
 30
0.0
 40
1.3944355440581
 50
359.973214126858295
 51
9.2827890605819476
  0
LINE
  5
8F08
  8
0
 10
3412.1210088399097913
 20
186.4964591363639101
 30
0.0
 11
3412.1209964263321126
 21
180.9373503955096965
 31
0.0
  0
LINE
  5
8F09
  8
0
 10
3391.7969459544960955
 20
186.8428622065461866
 30
0.0
 11
3411.9644022878401302
 21
186.8428622065461866
 31
0.0
  0
LINE
  5
8F0A
  8
0
 10
3391.873240344621081
 20
182.9058543324096888
 30
0.0
 11
3412.1210008219568408
 21
182.9058543324096888
 31
0.0
  0
LINE
  5
8F0B
  8
0
 10
3393.9154834028317964
 20
180.9373503955096965
 30
0.0
 11
3412.1209964263321126
 21
180.9373503955096965
 31
0.0
  0
LINE
  5
8F0C
  8
0
 10
3396.4951181165320122
 20
180.3467992144097138
 30
0.0
 11
3403.2233586310321698
 21
180.3467992144097138
 31
0.0
  0
LINE
  5
8F0D
  8
0
 10
3397.9547641306207879
 20
179.1712918861097137
 30
0.0
 11
3400.3034139926321586
 21
179.1712918861097137
 31
0.0
  0
ENDSEC
  0
EOF
