  0
SECTION
  2
HEADER
  9
$ACADVER
  1
AC1009
  9
$INSBASE
 10
96.125727079518086
 20
12.6379740922
 30
0.0
  9
$EXTMIN
 10
82.375727079518086
 20
2.4979740921999989
 30
0.0
  9
$EXTMAX
 10
109.8757270795181
 20
12.6379740922
 30
0.0
  9
$LIMMIN
 10
0.0
 20
0.0
  9
$LIMMAX
 10
11.692913385800001
 20
8.2677165353999982
  9
$ORTHOMODE
 70
     1
  9
$REGENMODE
 70
     1
  9
$FILLMODE
 70
     1
  9
$QTEXTMODE
 70
     0
  9
$MIRRTEXT
 70
     0
  9
$DRAGMODE
 70
     2
  9
$LTSCALE
 40
0.6431102362
  9
$OSMODE
 70
  3071
  9
$ATTMODE
 70
     1
  9
$TEXTSIZE
 40
0.2
  9
$TRACEWID
 40
0.05
  9
$TEXTSTYLE
  7
STANDARD
  9
$CLAYER
  8
0
  9
$CELTYPE
  6
BYLAYER
  9
$CECOLOR
 62
   256
  9
$DIMSCALE
 40
1.0
  9
$DIMASZ
 40
0.1875
  9
$DIMEXO
 40
0.0625
  9
$DIMDLI
 40
0.4443307087
  9
$DIMRND
 40
0.0
  9
$DIMDLE
 40
0.0
  9
$DIMEXE
 40
0.125
  9
$DIMTP
 40
0.01
  9
$DIMTM
 40
0.01
  9
$DIMTXT
 40
1.0
  9
$DIMCEN
 40
0.1052362205
  9
$DIMTSZ
 40
0.0
  9
$DIMTOL
 70
     1
  9
$DIMLIM
 70
     0
  9
$DIMTIH
 70
     1
  9
$DIMTOH
 70
     1
  9
$DIMSE1
 70
     0
  9
$DIMSE2
 70
     0
  9
$DIMTAD
 70
     0
  9
$DIMZIN
 70
     0
  9
$DIMBLK
  1

  9
$DIMASO
 70
     1
  9
$DIMSHO
 70
     1
  9
$DIMPOST
  1
\X
  9
$DIMAPOST
  1

  9
$DIMALT
 70
     1
  9
$DIMALTD
 70
     2
  9
$DIMALTF
 40
25.399999999999999
  9
$DIMLFAC
 40
1.0
  9
$DIMTOFL
 70
     0
  9
$DIMTVP
 40
0.0
  9
$DIMTIX
 70
     0
  9
$DIMSOXD
 70
     0
  9
$DIMSAH
 70
     0
  9
$DIMBLK1
  1

  9
$DIMBLK2
  1

  9
$DIMSTYLE
  2
STANDARD
  9
$DIMCLRD
 70
     0
  9
$DIMCLRE
 70
     0
  9
$DIMCLRT
 70
     0
  9
$DIMTFAC
 40
1.0
  9
$DIMGAP
 40
0.09
  9
$LUNITS
 70
     2
  9
$LUPREC
 70
     4
  9
$SKETCHINC
 40
0.1
  9
$FILLETRAD
 40
0.0
  9
$AUNITS
 70
     0
  9
$AUPREC
 70
     0
  9
$MENU
  1
.
  9
$ELEVATION
 40
0.0
  9
$PELEVATION
 40
0.0
  9
$THICKNESS
 40
0.0
  9
$LIMCHECK
 70
     0
  9
$BLIPMODE
 70
     0
  9
$CHAMFERA
 40
0.0
  9
$CHAMFERB
 40
0.0
  9
$SKPOLY
 70
     0
  9
$TDCREATE
 40
2458250.5308073028
  9
$TDUPDATE
 40
2458292.3623420019
  9
$TDINDWG
 40
0.090110706
  9
$TDUSRTIMER
 40
0.090110706
  9
$USRTIMER
 70
     1
  9
$ANGBASE
 50
0.0
  9
$ANGDIR
 70
     0
  9
$PDMODE
 70
     0
  9
$PDSIZE
 40
0.3125
  9
$PLINEWID
 40
0.0
  9
$COORDS
 70
     1
  9
$SPLFRAME
 70
     0
  9
$SPLINETYPE
 70
     6
  9
$SPLINESEGS
 70
     8
  9
$ATTDIA
 70
     1
  9
$ATTREQ
 70
     1
  9
$HANDLING
 70
     1
  9
$HANDSEED
  5
153C
  9
$SURFTAB1
 70
     6
  9
$SURFTAB2
 70
     6
  9
$SURFTYPE
 70
     6
  9
$SURFU
 70
     6
  9
$SURFV
 70
     6
  9
$UCSNAME
  2

  9
$UCSORG
 10
0.0
 20
0.0
 30
0.0
  9
$UCSXDIR
 10
1.0
 20
0.0
 30
0.0
  9
$UCSYDIR
 10
0.0
 20
1.0
 30
0.0
  9
$PUCSNAME
  2

  9
$PUCSORG
 10
0.0
 20
0.0
 30
0.0
  9
$PUCSXDIR
 10
1.0
 20
0.0
 30
0.0
  9
$PUCSYDIR
 10
0.0
 20
1.0
 30
0.0
  9
$USERI1
 70
     0
  9
$USERI2
 70
     0
  9
$USERI3
 70
     0
  9
$USERI4
 70
     0
  9
$USERI5
 70
     0
  9
$USERR1
 40
0.0
  9
$USERR2
 40
0.0
  9
$USERR3
 40
0.0
  9
$USERR4
 40
0.0
  9
$USERR5
 40
0.0
  9
$WORLDVIEW
 70
     1
  9
$SHADEDGE
 70
     3
  9
$SHADEDIF
 70
    70
  9
$TILEMODE
 70
     1
  9
$MAXACTVP
 70
    64
  9
$PLIMCHECK
 70
     0
  9
$PEXTMIN
 10
1.0000000000000000E+020
 20
1.0000000000000000E+020
 30
1.0000000000000000E+020
  9
$PEXTMAX
 10
-1.0000000000000000E+020
 20
-1.0000000000000000E+020
 30
-1.0000000000000000E+020
  9
$PLIMMIN
 10
0.0
 20
0.0
  9
$PLIMMAX
 10
12.0
 20
9.0
  9
$UNITMODE
 70
     0
  9
$VISRETAIN
 70
     1
  9
$PLINEGEN
 70
     0
  9
$PSLTSCALE
 70
     1
  0
ENDSEC
  0
SECTION
  2
TABLES
  0
TABLE
  2
VPORT
 70
     1
  0
VPORT
  2
*ACTIVE
 70
     0
 10
0.0
 20
0.0
 11
1.0
 21
1.0
 12
0.0
 22
0.0
 13
0.0
 23
0.0
 14
1.0
 24
1.0
 15
0.0
 25
0.0
 16
-0.0000000000000142
 26
0.0
 36
81.957499704668791
 17
96.125727079518086
 27
7.5679740922000009
 37
0.0
 40
29.309889116132808
 41
2.0834248079034019
 42
50.0
 43
0.0
 44
0.0
 50
0.0
 51
0.0
 71
     0
 72
   100
 73
     1
 74
     1
 75
     0
 76
     0
 77
     0
 78
     0
  0
ENDTAB
  0
TABLE
  2
LTYPE
 70
     2
  0
LTYPE
  2
CONTINUOUS
 70
     0
  3
Solid line
 72
    65
 73
     0
 40
0.0
  0
LTYPE
  2
PHANTOM2
 70
     0
  3
___ _ _ ___ _ _ ___ _ _ ___ _ _
 72
    65
 73
     6
 40
1.25
 49
0.625
 49
-0.125
 49
0.125
 49
-0.125
 49
0.125
 49
-0.125
  0
ENDTAB
  0
TABLE
  2
LAYER
 70
     2
  0
LAYER
  2
0
 70
     0
 62
   255
  6
CONTINUOUS
  0
LAYER
  2
DEFPOINTS
 70
     0
 62
     7
  6
CONTINUOUS
  0
ENDTAB
  0
TABLE
  2
STYLE
 70
     1
  0
STYLE
  2
STANDARD
 70
     0
 40
0.0
 41
0.8
 50
0.0
 71
     0
 42
0.2
  3
txt
  4

  0
ENDTAB
  0
TABLE
  2
VIEW
 70
     0
  0
ENDTAB
  0
TABLE
  2
UCS
 70
     0
  0
ENDTAB
  0
TABLE
  2
APPID
 70
     9
  0
APPID
  2
ACAD
 70
     0
  0
APPID
  2
ACAD_MLEADERVER
 70
     0
  0
APPID
  2
ACAD_EXEMPT_FROM_CAD_STANDARDS
 70
     0
  0
APPID
  2
ACAD_NAV_VCDISPLAY
 70
     0
  0
APPID
  2
ACAD_DSTYLE_DIMJAG
 70
     0
  0
APPID
  2
ACAD_DSTYLE_DIMTALN
 70
     0
  0
APPID
  2
ACAECLAYERSTANDARD
 70
     0
  0
APPID
  2
ACCMTRANSPARENCY
 70
     0
  0
APPID
  2
ACDBATTR
 70
     0
  0
ENDTAB
  0
TABLE
  2
DIMSTYLE
 70
     1
  0
DIMSTYLE
  2
STANDARD
 70
     0
  3

  4

  5

  6

  7

 40
1.0
 41
0.1875
 42
0.0625
 43
0.38
 44
0.125
 45
0.0
 46
0.0
 47
0.01
 48
0.01
140
0.15625
141
0.09
142
0.0
143
25.399999999999999
144
1.0
145
0.0
146
1.0
147
0.09
 71
     1
 72
     0
 73
     1
 74
     1
 75
     0
 76
     0
 77
     0
 78
     4
170
     0
171
     2
172
     0
173
     0
174
     0
175
     0
176
     0
177
     0
178
     0
  0
ENDTAB
  0
ENDSEC
  0
SECTION
  2
BLOCKS
  0
BLOCK
  8
0
  2
$MODEL_SPACE
 70
     0
 10
0.0
 20
0.0
 30
0.0
  3
$MODEL_SPACE
  1

  0
ENDBLK
  5
21
  8
0
  0
BLOCK
 67
     1
  8
0
  2
$PAPER_SPACE
 70
     0
 10
0.0
 20
0.0
 30
0.0
  3
$PAPER_SPACE
  1

  0
ENDBLK
  5
1D
 67
     1
  8
0
  0
ENDSEC
  0
SECTION
  2
ENTITIES
  0
LINE
  5
107B
  8
0
 10
83.679539695818093
 20
10.8248901031
 30
0.0
 11
84.053272072734714
 21
3.693644463433031
 31
0.0
  0
LINE
  5
107C
  8
0
 10
84.770517766450027
 20
2.8087425482874799
 30
0.0
 11
84.873169651318079
 21
2.5886048708999998
 31
0.0
  0
LINE
  5
107D
  8
0
 10
86.011309497174565
 20
2.7035851690564789
 30
0.0
 11
85.957693303618086
 21
2.5886048708999998
 31
0.0
  0
LINE
  5
107F
  8
0
 10
106.0618682099708
 20
2.8517870616470109
 30
0.0
 11
99.13194057571809
 21
2.6097886561000001
 31
0.0
  0
LINE
  5
1080
  8
0
 10
85.015431476918096
 20
2.4979740921999989
 30
0.0
 11
85.815431478018084
 21
2.4979740921999989
 31
0.0
  0
LINE
  5
1081
  8
0
 10
93.676776042748358
 20
2.4979740921999989
 30
0.0
 11
98.574678116187826
 21
2.4979740921999989
 31
0.0
  0
LINE
  5
1082
  8
0
 10
106.4354056421181
 20
2.4979740921999989
 30
0.0
 11
107.2366397208181
 21
2.4979740921999989
 31
0.0
  0
LINE
  5
1083
  8
0
 10
93.119513583218094
 20
2.6097886561000001
 30
0.0
 11
99.13194057571809
 21
2.6097886561000001
 31
0.0
  0
LINE
  5
1084
  8
0
 10
93.119513583218094
 20
2.6097886561000001
 30
0.0
 11
86.189686685177975
 21
2.8517835438185419
 31
0.0
  0
LINE
  5
1086
  8
0
 10
106.23994147766381
 20
2.7040208987249419
 30
0.0
 11
106.2940216274181
 21
2.5880456434000001
 31
0.0
  0
LINE
  5
1087
  8
0
 10
107.48134713081809
 20
2.8088896976999989
 30
0.0
 11
107.3783658570181
 21
2.5880456434000001
 31
0.0
  0
LINE
  5
1088
  8
0
 10
108.1981819635896
 20
3.6936453321699081
 30
0.0
 11
108.57191446311811
 21
10.8248901031
 31
0.0
  0
ARC
  5
10A0
  8
0
 10
84.892411615610129
 20
3.7377118242928971
 30
0.0
 40
0.8402958435636168
 50
183.00612287669489
 51
254.75175488436739
  0
ARC
  5
10A1
  8
0
 10
85.815431477518075
 20
2.6549426499000002
 30
0.0
 40
0.1569685577
 50
270.0
 51
334.99999999869999
  0
ARC
  5
10A2
  8
0
 10
85.015431477518078
 20
2.6549426499000002
 30
0.0
 40
0.1569685577
 50
205.00000000130001
 51
270.0
  0
ARC
  5
10A3
  8
0
 10
93.058439463892796
 20
0.8608547077290633
 30
0.0
 40
1.7500000010746659
 50
69.308553668603409
 51
87.999999997123027
  0
ARC
  5
10A4
  8
0
 10
99.193014695043402
 20
0.8608547077289959
 30
0.0
 40
1.7500000010747241
 50
92.000000002876405
 51
110.6914463313954
  0
ARC
  5
10A5
  8
0
 10
107.3593326771181
 20
3.737598398799999
 30
0.0
 40
0.8399999984999998
 50
285.25790321658673
 51
357.0006240514
  0
ARC
  5
10A6
  8
0
 10
107.23635023865489
 20
2.6549672605086219
 30
0.0
 40
0.1569934351987441
 50
270.10564846593797
 51
334.76891293662612
  0
ARC
  5
10A7
  8
0
 10
106.4354056421181
 20
2.653974092199999
 30
0.0
 40
0.156
 50
204.99999999950009
 51
270.0
  0
LINE
  5
10BE
  8
0
 10
82.375727079518086
 20
12.6379740922
 30
0.0
 11
82.414679599818086
 21
12.192744747600001
 31
0.0
  0
LINE
  5
10BF
  8
0
 10
82.375727079518086
 20
12.6379740922
 30
0.0
 11
109.8757270795181
 21
12.6379740922
 31
0.0
  0
LINE
  5
10C0
  8
0
 10
109.7770028772181
 20
12.1379740922
 30
0.0
 11
82.474451281718089
 21
12.1379740922
 31
0.0
  0
LINE
  5
10C1
  8
0
 10
109.8367745592181
 20
12.192744747600001
 30
0.0
 11
109.8757270795181
 21
12.6379740922
 31
0.0
  0
ARC
  5
10C2
  8
0
 10
82.474860465040379
 20
12.19842063743809
 30
0.0
 40
0.060447930173123
 50
185.38784878821409
 51
269.61215120808322
  0
ARC
  5
10C3
  8
0
 10
109.7770028773181
 20
12.19797409219999
 30
0.0
 40
0.06
 50
270.0
 51
355.00000000000023
  0
ARC
  5
10CA
  8
0
 10
83.122380357892283
 20
11.95005021509405
 30
0.0
 40
0.1879238836339652
 50
33.501989560875103
 51
90.015102089475235
  0
ARC
  5
10CB
  8
0
 10
81.257109205900889
 20
10.715187980321231
 30
0.0
 40
2.424913201379101
 50
2.5929235771419941
 51
33.505398965585513
  0
ARC
  5
10CC
  8
0
 10
84.4945104099899
 20
2.6780878808634938
 30
0.0
 40
0.3053697806590963
 50
25.331651024512869
 51
54.598380496361962
  0
ARC
  5
10CD
  8
0
 10
86.277446126155198
 20
2.5647029863452029
 30
0.0
 40
0.3001948799693948
 50
106.99819421807361
 51
152.44240143550269
  0
ARC
  5
10CE
  8
0
 10
105.9746887731133
 20
2.5655456776507308
 30
0.0
 40
0.2992229672382914
 50
27.56681814491013
 51
73.061038945119307
  0
ARC
  5
10CF
  8
0
 10
107.7527938769894
 20
2.682275800857032
 30
0.0
 40
0.2995236466136688
 50
125.14104945034219
 51
154.99372404726489
  0
ARC
  5
10D0
  8
0
 10
111.01980263703651
 20
10.706892121507639
 30
0.0
 40
2.4507305106171038
 50
146.66142654296431
 51
177.24025092875399
  0
ARC
  5
10D1
  8
0
 10
109.1291115162453
 20
11.949979998138559
 30
0.0
 40
0.1879940943879024
 50
90.003376604363112
 51
146.48651008255271
  0
ATTDEF
  5
1326
  8
DEFPOINTS
 10
96.120159171320054
 20
12.636254723187269
 30
0.0
 40
0.001
  1
K-28000
  3

  2
MODELNUMBER
 70
     0
1001
ACDBATTR
1070
     0
1070
     1
  0
ATTDEF
  5
1327
  8
DEFPOINTS
 10
96.120159171320054
 20
12.634588056520601
 30
0.0
 40
0.001
  1
CAIRN
  3

  2
TRADENAME
 70
     0
1001
ACDBATTR
1070
     0
1070
     1
  0
ATTDEF
  5
1328
  8
DEFPOINTS
 10
96.120159171320054
 20
12.632921389853941
 30
0.0
 40
0.001
  1
KITCHEN SINK
  3

  2
PRODUCT
 70
     0
1001
ACDBATTR
1070
     0
1070
     1
  0
ATTDEF
  5
1329
  8
DEFPOINTS
 10
96.120159171320054
 20
12.63125472318727
 30
0.0
 40
0.001
  1
NEOROC
  3

  2
MATERIAL
 70
     0
1001
ACDBATTR
1070
     0
1070
     1
  0
ENDSEC
  0
EOF
