  0
SECTION
  2
HEADER
  9
$ACADVER
  1
AC1009
  9
$INSBASE
 10
96.125727079518086
 20
32.655599882200001
 30
0.0
  9
$EXTMIN
 10
82.375727079518086
 20
23.505599882199999
 30
0.0
  9
$EXTMAX
 10
109.8757270795181
 20
41.805599882199992
 30
0.0
  9
$LIMMIN
 10
0.0
 20
0.0
  9
$LIMMAX
 10
11.692913385800001
 20
8.2677165353999982
  9
$ORTHOMODE
 70
     1
  9
$REGENMODE
 70
     1
  9
$FILLMODE
 70
     1
  9
$QTEXTMODE
 70
     0
  9
$MIRRTEXT
 70
     0
  9
$DRAGMODE
 70
     2
  9
$LTSCALE
 40
0.6431102362
  9
$OSMODE
 70
  3071
  9
$ATTMODE
 70
     1
  9
$TEXTSIZE
 40
0.2
  9
$TRACEWID
 40
0.05
  9
$TEXTSTYLE
  7
STANDARD
  9
$CLAYER
  8
0
  9
$CELTYPE
  6
BYLAYER
  9
$CECOLOR
 62
   256
  9
$DIMSCALE
 40
1.0
  9
$DIMASZ
 40
0.1875
  9
$DIMEXO
 40
0.0625
  9
$DIMDLI
 40
0.4443307087
  9
$DIMRND
 40
0.0
  9
$DIMDLE
 40
0.0
  9
$DIMEXE
 40
0.125
  9
$DIMTP
 40
0.01
  9
$DIMTM
 40
0.01
  9
$DIMTXT
 40
1.0
  9
$DIMCEN
 40
0.1052362205
  9
$DIMTSZ
 40
0.0
  9
$DIMTOL
 70
     1
  9
$DIMLIM
 70
     0
  9
$DIMTIH
 70
     1
  9
$DIMTOH
 70
     1
  9
$DIMSE1
 70
     0
  9
$DIMSE2
 70
     0
  9
$DIMTAD
 70
     0
  9
$DIMZIN
 70
     0
  9
$DIMBLK
  1

  9
$DIMASO
 70
     1
  9
$DIMSHO
 70
     1
  9
$DIMPOST
  1
\X
  9
$DIMAPOST
  1

  9
$DIMALT
 70
     1
  9
$DIMALTD
 70
     2
  9
$DIMALTF
 40
25.399999999999999
  9
$DIMLFAC
 40
1.0
  9
$DIMTOFL
 70
     0
  9
$DIMTVP
 40
0.0
  9
$DIMTIX
 70
     0
  9
$DIMSOXD
 70
     0
  9
$DIMSAH
 70
     0
  9
$DIMBLK1
  1

  9
$DIMBLK2
  1

  9
$DIMSTYLE
  2
STANDARD
  9
$DIMCLRD
 70
     0
  9
$DIMCLRE
 70
     0
  9
$DIMCLRT
 70
     0
  9
$DIMTFAC
 40
1.0
  9
$DIMGAP
 40
0.09
  9
$LUNITS
 70
     2
  9
$LUPREC
 70
     4
  9
$SKETCHINC
 40
0.1
  9
$FILLETRAD
 40
0.0
  9
$AUNITS
 70
     0
  9
$AUPREC
 70
     0
  9
$MENU
  1
.
  9
$ELEVATION
 40
0.0
  9
$PELEVATION
 40
0.0
  9
$THICKNESS
 40
0.0
  9
$LIMCHECK
 70
     0
  9
$BLIPMODE
 70
     0
  9
$CHAMFERA
 40
0.0
  9
$CHAMFERB
 40
0.0
  9
$SKPOLY
 70
     0
  9
$TDCREATE
 40
2458250.5308073028
  9
$TDUPDATE
 40
2458250.6233551162
  9
$TDINDWG
 40
0.0898386227
  9
$TDUSRTIMER
 40
0.0898386227
  9
$USRTIMER
 70
     1
  9
$ANGBASE
 50
0.0
  9
$ANGDIR
 70
     0
  9
$PDMODE
 70
     0
  9
$PDSIZE
 40
0.3125
  9
$PLINEWID
 40
0.0
  9
$COORDS
 70
     1
  9
$SPLFRAME
 70
     0
  9
$SPLINETYPE
 70
     6
  9
$SPLINESEGS
 70
     8
  9
$ATTDIA
 70
     1
  9
$ATTREQ
 70
     1
  9
$HANDLING
 70
     1
  9
$HANDSEED
  5
14F8
  9
$SURFTAB1
 70
     6
  9
$SURFTAB2
 70
     6
  9
$SURFTYPE
 70
     6
  9
$SURFU
 70
     6
  9
$SURFV
 70
     6
  9
$UCSNAME
  2

  9
$UCSORG
 10
0.0
 20
0.0
 30
0.0
  9
$UCSXDIR
 10
1.0
 20
0.0
 30
0.0
  9
$UCSYDIR
 10
0.0
 20
1.0
 30
0.0
  9
$PUCSNAME
  2

  9
$PUCSORG
 10
0.0
 20
0.0
 30
0.0
  9
$PUCSXDIR
 10
1.0
 20
0.0
 30
0.0
  9
$PUCSYDIR
 10
0.0
 20
1.0
 30
0.0
  9
$USERI1
 70
     0
  9
$USERI2
 70
     0
  9
$USERI3
 70
     0
  9
$USERI4
 70
     0
  9
$USERI5
 70
     0
  9
$USERR1
 40
0.0
  9
$USERR2
 40
0.0
  9
$USERR3
 40
0.0
  9
$USERR4
 40
0.0
  9
$USERR5
 40
0.0
  9
$WORLDVIEW
 70
     1
  9
$SHADEDGE
 70
     3
  9
$SHADEDIF
 70
    70
  9
$TILEMODE
 70
     1
  9
$MAXACTVP
 70
    64
  9
$PLIMCHECK
 70
     0
  9
$PEXTMIN
 10
1.0000000000000000E+020
 20
1.0000000000000000E+020
 30
1.0000000000000000E+020
  9
$PEXTMAX
 10
-1.0000000000000000E+020
 20
-1.0000000000000000E+020
 30
-1.0000000000000000E+020
  9
$PLIMMIN
 10
0.0
 20
0.0
  9
$PLIMMAX
 10
12.0
 20
9.0
  9
$UNITMODE
 70
     0
  9
$VISRETAIN
 70
     1
  9
$PLINEGEN
 70
     0
  9
$PSLTSCALE
 70
     1
  0
ENDSEC
  0
SECTION
  2
TABLES
  0
TABLE
  2
VPORT
 70
     1
  0
VPORT
  2
*ACTIVE
 70
     0
 10
0.0
 20
0.0
 11
1.0
 21
1.0
 12
0.0
 22
0.0
 13
0.0
 23
0.0
 14
1.0
 24
1.0
 15
0.0
 25
0.0
 16
-0.0000000000000142
 26
0.0
 36
92.366558779005402
 17
96.125727079518114
 27
32.655599882200001
 37
0.0
 40
33.034111683969151
 41
2.0834248079034019
 42
50.0
 43
0.0
 44
0.0
 50
0.0
 51
0.0
 71
     0
 72
   100
 73
     1
 74
     1
 75
     0
 76
     0
 77
     0
 78
     0
  0
ENDTAB
  0
TABLE
  2
LTYPE
 70
     2
  0
LTYPE
  2
CONTINUOUS
 70
     0
  3
Solid line
 72
    65
 73
     0
 40
0.0
  0
LTYPE
  2
PHANTOM2
 70
     0
  3
___ _ _ ___ _ _ ___ _ _ ___ _ _
 72
    65
 73
     6
 40
1.25
 49
0.625
 49
-0.125
 49
0.125
 49
-0.125
 49
0.125
 49
-0.125
  0
ENDTAB
  0
TABLE
  2
LAYER
 70
     2
  0
LAYER
  2
0
 70
     0
 62
   255
  6
CONTINUOUS
  0
LAYER
  2
DEFPOINTS
 70
     0
 62
     7
  6
CONTINUOUS
  0
ENDTAB
  0
TABLE
  2
STYLE
 70
     1
  0
STYLE
  2
STANDARD
 70
     0
 40
0.0
 41
0.8
 50
0.0
 71
     0
 42
0.2
  3
txt
  4

  0
ENDTAB
  0
TABLE
  2
VIEW
 70
     0
  0
ENDTAB
  0
TABLE
  2
UCS
 70
     0
  0
ENDTAB
  0
TABLE
  2
APPID
 70
     9
  0
APPID
  2
ACAD
 70
     0
  0
APPID
  2
ACAD_MLEADERVER
 70
     0
  0
APPID
  2
ACAD_EXEMPT_FROM_CAD_STANDARDS
 70
     0
  0
APPID
  2
ACAD_NAV_VCDISPLAY
 70
     0
  0
APPID
  2
ACAD_DSTYLE_DIMJAG
 70
     0
  0
APPID
  2
ACAD_DSTYLE_DIMTALN
 70
     0
  0
APPID
  2
ACAECLAYERSTANDARD
 70
     0
  0
APPID
  2
ACCMTRANSPARENCY
 70
     0
  0
APPID
  2
AcDbAttr
 70
     0
  0
ENDTAB
  0
TABLE
  2
DIMSTYLE
 70
     1
  0
DIMSTYLE
  2
STANDARD
 70
     0
  3

  4

  5

  6

  7

 40
1.0
 41
0.1875
 42
0.0625
 43
0.38
 44
0.125
 45
0.0
 46
0.0
 47
0.01
 48
0.01
140
0.15625
141
0.09
142
0.0
143
25.399999999999999
144
1.0
145
0.0
146
1.0
147
0.09
 71
     1
 72
     0
 73
     1
 74
     1
 75
     0
 76
     0
 77
     0
 78
     4
170
     0
171
     2
172
     0
173
     0
174
     0
175
     0
176
     0
177
     0
178
     0
  0
ENDTAB
  0
ENDSEC
  0
SECTION
  2
BLOCKS
  0
BLOCK
  8
0
  2
$MODEL_SPACE
 70
     0
 10
0.0
 20
0.0
 30
0.0
  3
$MODEL_SPACE
  1

  0
ENDBLK
  5
21
  8
0
  0
BLOCK
 67
     1
  8
0
  2
$PAPER_SPACE
 70
     0
 10
0.0
 20
0.0
 30
0.0
  3
$PAPER_SPACE
  1

  0
ENDBLK
  5
1D
 67
     1
  8
0
  0
ENDSEC
  0
SECTION
  2
ENTITIES
  0
LINE
  5
1089
  8
0
 10
82.375727079518086
 20
26.059069882199999
 30
0.0
 11
82.375727079518086
 21
39.252129882200002
 31
0.0
  0
LINE
  5
108A
  8
0
 10
83.170193636518093
 20
26.0589104827
 30
0.0
 11
83.170193636518093
 21
39.2522886223
 31
0.0
  0
LINE
  5
108B
  8
0
 10
83.929197079518104
 20
39.253500347500001
 30
0.0
 11
83.929197079518104
 21
26.057699416999998
 31
0.0
  0
LINE
  5
108C
  8
0
 10
107.3222570795181
 20
23.505599882199999
 30
0.0
 11
84.92919707951809
 21
23.505599882199999
 31
0.0
  0
LINE
  5
108D
  8
0
 10
107.3212053957181
 20
24.299947863
 30
0.0
 11
84.930249367518087
 21
24.299947863
 31
0.0
  0
LINE
  5
108E
  8
0
 10
84.927826614218091
 20
25.059069882199999
 30
0.0
 11
107.32362754471809
 21
25.059069882199999
 31
0.0
  0
LINE
  5
108F
  8
0
 10
107.32362754471809
 20
40.252129882199988
 30
0.0
 11
84.927826614218091
 21
40.252129882199988
 31
0.0
  0
LINE
  5
1090
  8
0
 10
107.3212050447181
 20
41.011251901500003
 30
0.0
 11
84.930249054718089
 21
41.011251901500003
 31
0.0
  0
LINE
  5
1091
  8
0
 10
84.92919707951809
 20
41.805599882199992
 30
0.0
 11
107.3222570795181
 21
41.805599882199992
 31
0.0
  0
LINE
  5
1092
  8
0
 10
108.3222570795181
 20
26.057699416999998
 30
0.0
 11
108.3222570795181
 21
39.253500347500001
 31
0.0
  0
LINE
  5
1093
  8
0
 10
109.08126052241811
 20
39.2522895647
 30
0.0
 11
109.08126052241811
 21
26.0589108962
 31
0.0
  0
LINE
  5
1094
  8
0
 10
109.8757270795181
 20
39.252129882200002
 30
0.0
 11
109.8757270795181
 21
26.059069882199999
 31
0.0
  0
ARC
  5
10A8
  8
0
 10
84.92919707951809
 20
26.059069882199999
 30
0.0
 40
2.553469999999999
 50
180.0
 51
270.0
  0
ARC
  5
10A9
  8
0
 10
84.92919707951809
 20
39.252129882200002
 30
0.0
 40
2.553469999999999
 50
90.0
 51
180.0
  0
ARC
  5
10AA
  8
0
 10
107.3222570795181
 20
26.059069882199999
 30
0.0
 40
2.553469999999999
 50
270.0
 51
0.0
  0
ARC
  5
10AB
  8
0
 10
107.3222570795181
 20
39.252129882200002
 30
0.0
 40
2.553469999999999
 50
0.0
 51
90.0
  0
ARC
  5
10B2
  8
0
 10
107.3223895525346
 20
39.252381328074961
 30
0.0
 40
1.7588709722771949
 50
359.9970107789685
 51
90.038585720548596
  0
ARC
  5
10B3
  8
0
 10
107.3223895584036
 20
26.05881843082523
 30
0.0
 40
1.758870966444984
 50
269.96142552207817
 51
0.0030120889074517
  0
ARC
  5
10B4
  8
0
 10
84.929057221970496
 20
26.058811047249112
 30
0.0
 40
1.75886358826314
 50
179.9967608450643
 51
270.03883468515011
  0
ARC
  5
10B5
  8
0
 10
84.929064241871572
 20
39.252381692741821
 30
0.0
 40
1.7588706078158669
 50
89.961404335003024
 51
180.00303179977661
  0
CIRCLE
  5
10B6
  8
0
 10
96.125727079518086
 20
35.655599882200001
 30
0.0
 40
0.31
  0
CIRCLE
  5
10B7
  8
0
 10
96.125727079518086
 20
35.655599882200001
 30
0.0
 40
0.2760925586
  0
CIRCLE
  5
10B8
  8
0
 10
96.125727079518086
 20
35.655599882200001
 30
0.0
 40
2.25
  0
CIRCLE
  5
10B9
  8
0
 10
96.125727079518086
 20
35.655599882200001
 30
0.0
 40
1.6780895467000001
  0
ARC
  5
10BA
  8
0
 10
84.927256922626569
 20
39.254070044720308
 30
0.0
 40
0.9980600057014119
 50
89.967295951618354
 51
180.03270469501871
  0
ARC
  5
10BB
  8
0
 10
84.927278444416885
 20
26.057151247098851
 30
0.0
 40
0.9980815154327233
 50
179.96853180538341
 51
270.03146818887927
  0
ARC
  5
10BC
  8
0
 10
107.3241929702402
 20
26.05713399147789
 30
0.0
 40
0.998064269440947
 50
269.96754066970271
 51
0.0324593302962875
  0
ARC
  5
10BD
  8
0
 10
107.32419296782609
 20
39.254065770508078
 30
0.0
 40
0.9980642718536052
 50
359.96754081410489
 51
90.032459191632967
  0
ATTDEF
  5
13A8
  8
DEFPOINTS
 10
96.122642410767824
 20
32.661031701253783
 30
0.0
 40
0.001
  1
K-28000
  3

  2
MODELNUMBER
 70
     0
1001
AcDbAttr
1070
     0
1070
     1
  0
ATTDEF
  5
13A9
  8
DEFPOINTS
 10
96.122642410767824
 20
32.659365034587118
 30
0.0
 40
0.001
  1
CAIRN
  3

  2
TRADENAME
 70
     0
1001
AcDbAttr
1070
     0
1070
     1
  0
ATTDEF
  5
13AA
  8
DEFPOINTS
 10
96.122642410767824
 20
32.65769836792046
 30
0.0
 40
0.001
  1
KITCHEN SINK
  3

  2
PRODUCT
 70
     0
1001
AcDbAttr
1070
     0
1070
     1
  0
ATTDEF
  5
13AB
  8
DEFPOINTS
 10
96.122642410767824
 20
32.656031701253788
 30
0.0
 40
0.001
  1
NEOROC
  3

  2
MATERIAL
 70
     0
1001
AcDbAttr
1070
     0
1070
     1
  0
ENDSEC
  0
EOF
