  0
SECTION
  2
HEADER
  9
$ACADVER
  1
AC1009
  9
$INSBASE
 10
131.60657868871809
 20
12.6379740922
 30
0.0
  9
$EXTMIN
 10
122.4565786887181
 20
2.49797409219999
 30
0.0
  9
$EXTMAX
 10
140.75657868871801
 20
12.6525443214974
 30
0.0
  9
$LIMMIN
 10
0.0
 20
0.0
  9
$LIMMAX
 10
11.692913385800001
 20
8.2677165353999982
  9
$ORTHOMODE
 70
     1
  9
$REGENMODE
 70
     1
  9
$FILLMODE
 70
     1
  9
$QTEXTMODE
 70
     0
  9
$MIRRTEXT
 70
     0
  9
$DRAGMODE
 70
     2
  9
$LTSCALE
 40
0.6431102362
  9
$OSMODE
 70
  3071
  9
$ATTMODE
 70
     1
  9
$TEXTSIZE
 40
0.2
  9
$TRACEWID
 40
0.05
  9
$TEXTSTYLE
  7
STANDARD
  9
$CLAYER
  8
0
  9
$CELTYPE
  6
BYLAYER
  9
$CECOLOR
 62
   256
  9
$DIMSCALE
 40
1.0
  9
$DIMASZ
 40
0.1875
  9
$DIMEXO
 40
0.0625
  9
$DIMDLI
 40
0.4443307087
  9
$DIMRND
 40
0.0
  9
$DIMDLE
 40
0.0
  9
$DIMEXE
 40
0.125
  9
$DIMTP
 40
0.01
  9
$DIMTM
 40
0.01
  9
$DIMTXT
 40
1.0
  9
$DIMCEN
 40
0.1052362205
  9
$DIMTSZ
 40
0.0
  9
$DIMTOL
 70
     1
  9
$DIMLIM
 70
     0
  9
$DIMTIH
 70
     1
  9
$DIMTOH
 70
     1
  9
$DIMSE1
 70
     0
  9
$DIMSE2
 70
     0
  9
$DIMTAD
 70
     0
  9
$DIMZIN
 70
     0
  9
$DIMBLK
  1

  9
$DIMASO
 70
     1
  9
$DIMSHO
 70
     1
  9
$DIMPOST
  1
\X
  9
$DIMAPOST
  1

  9
$DIMALT
 70
     1
  9
$DIMALTD
 70
     2
  9
$DIMALTF
 40
25.399999999999999
  9
$DIMLFAC
 40
1.0
  9
$DIMTOFL
 70
     0
  9
$DIMTVP
 40
0.0
  9
$DIMTIX
 70
     0
  9
$DIMSOXD
 70
     0
  9
$DIMSAH
 70
     0
  9
$DIMBLK1
  1

  9
$DIMBLK2
  1

  9
$DIMSTYLE
  2
STANDARD
  9
$DIMCLRD
 70
     0
  9
$DIMCLRE
 70
     0
  9
$DIMCLRT
 70
     0
  9
$DIMTFAC
 40
1.0
  9
$DIMGAP
 40
0.09
  9
$LUNITS
 70
     2
  9
$LUPREC
 70
     4
  9
$SKETCHINC
 40
0.1
  9
$FILLETRAD
 40
0.0
  9
$AUNITS
 70
     0
  9
$AUPREC
 70
     0
  9
$MENU
  1
.
  9
$ELEVATION
 40
0.0
  9
$PELEVATION
 40
0.0
  9
$THICKNESS
 40
0.0
  9
$LIMCHECK
 70
     0
  9
$BLIPMODE
 70
     0
  9
$CHAMFERA
 40
0.0
  9
$CHAMFERB
 40
0.0
  9
$SKPOLY
 70
     0
  9
$TDCREATE
 40
2458250.5308073028
  9
$TDUPDATE
 40
2458250.623456724
  9
$TDINDWG
 40
0.0899333681
  9
$TDUSRTIMER
 40
0.0899333681
  9
$USRTIMER
 70
     1
  9
$ANGBASE
 50
0.0
  9
$ANGDIR
 70
     0
  9
$PDMODE
 70
     0
  9
$PDSIZE
 40
0.3125
  9
$PLINEWID
 40
0.0
  9
$COORDS
 70
     1
  9
$SPLFRAME
 70
     0
  9
$SPLINETYPE
 70
     6
  9
$SPLINESEGS
 70
     8
  9
$ATTDIA
 70
     1
  9
$ATTREQ
 70
     1
  9
$HANDLING
 70
     1
  9
$HANDSEED
  5
157C
  9
$SURFTAB1
 70
     6
  9
$SURFTAB2
 70
     6
  9
$SURFTYPE
 70
     6
  9
$SURFU
 70
     6
  9
$SURFV
 70
     6
  9
$UCSNAME
  2

  9
$UCSORG
 10
0.0
 20
0.0
 30
0.0
  9
$UCSXDIR
 10
1.0
 20
0.0
 30
0.0
  9
$UCSYDIR
 10
0.0
 20
1.0
 30
0.0
  9
$PUCSNAME
  2

  9
$PUCSORG
 10
0.0
 20
0.0
 30
0.0
  9
$PUCSXDIR
 10
1.0
 20
0.0
 30
0.0
  9
$PUCSYDIR
 10
0.0
 20
1.0
 30
0.0
  9
$USERI1
 70
     0
  9
$USERI2
 70
     0
  9
$USERI3
 70
     0
  9
$USERI4
 70
     0
  9
$USERI5
 70
     0
  9
$USERR1
 40
0.0
  9
$USERR2
 40
0.0
  9
$USERR3
 40
0.0
  9
$USERR4
 40
0.0
  9
$USERR5
 40
0.0
  9
$WORLDVIEW
 70
     1
  9
$SHADEDGE
 70
     3
  9
$SHADEDIF
 70
    70
  9
$TILEMODE
 70
     1
  9
$MAXACTVP
 70
    64
  9
$PLIMCHECK
 70
     0
  9
$PEXTMIN
 10
1.0000000000000000E+020
 20
1.0000000000000000E+020
 30
1.0000000000000000E+020
  9
$PEXTMAX
 10
-1.0000000000000000E+020
 20
-1.0000000000000000E+020
 30
-1.0000000000000000E+020
  9
$PLIMMIN
 10
0.0
 20
0.0
  9
$PLIMMAX
 10
12.0
 20
9.0
  9
$UNITMODE
 70
     0
  9
$VISRETAIN
 70
     1
  9
$PLINEGEN
 70
     0
  9
$PSLTSCALE
 70
     1
  0
ENDSEC
  0
SECTION
  2
TABLES
  0
TABLE
  2
VPORT
 70
     1
  0
VPORT
  2
*ACTIVE
 70
     0
 10
0.0
 20
0.0
 11
1.0
 21
1.0
 12
0.0
 22
0.0
 13
0.0
 23
0.0
 14
1.0
 24
1.0
 15
0.0
 25
0.0
 16
0.0
 26
0.0
 36
58.521332534504921
 17
131.60657868871809
 27
7.5752592068486972
 37
0.0
 40
20.9301767531148
 41
2.0834248079034019
 42
50.0
 43
0.0
 44
0.0
 50
0.0
 51
0.0
 71
     0
 72
   100
 73
     1
 74
     1
 75
     0
 76
     0
 77
     0
 78
     0
  0
ENDTAB
  0
TABLE
  2
LTYPE
 70
     2
  0
LTYPE
  2
CONTINUOUS
 70
     0
  3
Solid line
 72
    65
 73
     0
 40
0.0
  0
LTYPE
  2
PHANTOM2
 70
     0
  3
___ _ _ ___ _ _ ___ _ _ ___ _ _
 72
    65
 73
     6
 40
1.25
 49
0.625
 49
-0.125
 49
0.125
 49
-0.125
 49
0.125
 49
-0.125
  0
ENDTAB
  0
TABLE
  2
LAYER
 70
     2
  0
LAYER
  2
0
 70
     0
 62
   255
  6
CONTINUOUS
  0
LAYER
  2
DEFPOINTS
 70
     0
 62
     7
  6
CONTINUOUS
  0
ENDTAB
  0
TABLE
  2
STYLE
 70
     1
  0
STYLE
  2
STANDARD
 70
     0
 40
0.0
 41
0.8
 50
0.0
 71
     0
 42
0.2
  3
txt
  4

  0
ENDTAB
  0
TABLE
  2
VIEW
 70
     0
  0
ENDTAB
  0
TABLE
  2
UCS
 70
     0
  0
ENDTAB
  0
TABLE
  2
APPID
 70
     9
  0
APPID
  2
ACAD
 70
     0
  0
APPID
  2
ACAD_MLEADERVER
 70
     0
  0
APPID
  2
ACAD_EXEMPT_FROM_CAD_STANDARDS
 70
     0
  0
APPID
  2
ACAD_NAV_VCDISPLAY
 70
     0
  0
APPID
  2
ACAD_DSTYLE_DIMJAG
 70
     0
  0
APPID
  2
ACAD_DSTYLE_DIMTALN
 70
     0
  0
APPID
  2
ACAECLAYERSTANDARD
 70
     0
  0
APPID
  2
ACCMTRANSPARENCY
 70
     0
  0
APPID
  2
AcDbAttr
 70
     0
  0
ENDTAB
  0
TABLE
  2
DIMSTYLE
 70
     1
  0
DIMSTYLE
  2
STANDARD
 70
     0
  3

  4

  5

  6

  7

 40
1.0
 41
0.1875
 42
0.0625
 43
0.38
 44
0.125
 45
0.0
 46
0.0
 47
0.01
 48
0.01
140
0.15625
141
0.09
142
0.0
143
25.399999999999999
144
1.0
145
0.0
146
1.0
147
0.09
 71
     1
 72
     0
 73
     1
 74
     1
 75
     0
 76
     0
 77
     0
 78
     4
170
     0
171
     2
172
     0
173
     0
174
     0
175
     0
176
     0
177
     0
178
     0
  0
ENDTAB
  0
ENDSEC
  0
SECTION
  2
BLOCKS
  0
BLOCK
  8
0
  2
$MODEL_SPACE
 70
     0
 10
0.0
 20
0.0
 30
0.0
  3
$MODEL_SPACE
  1

  0
ENDBLK
  5
21
  8
0
  0
BLOCK
 67
     1
  8
0
  2
$PAPER_SPACE
 70
     0
 10
0.0
 20
0.0
 30
0.0
  3
$PAPER_SPACE
  1

  0
ENDBLK
  5
1D
 67
     1
  8
0
  0
ENDSEC
  0
SECTION
  2
ENTITIES
  0
LINE
  5
1095
  8
0
 10
123.7603913050181
 20
10.8248901031
 30
0.0
 11
124.1374278973181
 21
3.6310963404000001
 31
0.0
  0
LINE
  5
1096
  8
0
 10
124.95755621221809
 20
2.5880456434000001
 30
0.0
 11
124.8332421664404
 21
2.8546379748135311
 31
0.0
  0
LINE
  5
1097
  8
0
 10
126.0415583204181
 20
2.5880456434000001
 30
0.0
 11
126.1406030500013
 21
2.8004477514098829
 31
0.0
  0
LINE
  5
1098
  8
0
 10
125.0989402270181
 20
2.4979740921999989
 30
0.0
 11
125.90017430561809
 21
2.4979740921999989
 31
0.0
  0
LINE
  5
1099
  8
0
 10
132.15762765204829
 20
2.4979740921999989
 30
0.0
 11
137.05552972548779
 21
2.4979740921999989
 31
0.0
  0
LINE
  5
109A
  8
0
 10
137.29709972891811
 20
2.4979740921999989
 30
0.0
 11
138.09833380751809
 21
2.4979740921999989
 31
0.0
  0
LINE
  5
109B
  8
0
 10
131.6003651925181
 20
2.6097886561000001
 30
0.0
 11
137.14557678081809
 21
2.6097886561000001
 31
0.0
  0
LINE
  5
109C
  8
0
 10
131.6003651925181
 20
2.6097886561000001
 30
0.0
 11
126.1406030500013
 21
2.800447751409882
 31
0.0
  0
LINE
  5
109D
  8
0
 10
137.15571571411809
 20
2.5880456434000001
 30
0.0
 11
137.14557678078509
 21
2.6097886560999992
 31
0.0
  0
LINE
  5
109E
  8
0
 10
139.06509895731801
 20
3.4277608900000032
 30
0.0
 11
139.45276607241809
 21
10.8248901031
 31
0.0
  0
LINE
  5
109F
  8
0
 10
138.23971782231811
 20
2.5880456434000001
 30
0.0
 11
138.26050121447321
 21
2.6326157716965382
 31
0.0
  0
ARC
  5
10AC
  8
0
 10
131.5392910731928
 20
0.8608547077294305
 30
0.0
 40
1.750000001074288
 50
69.308553668602201
 51
87.999999997125869
  0
ARC
  5
10AD
  8
0
 10
125.0989402270181
 20
2.653974092199999
 30
0.0
 40
0.156
 50
204.99999999999989
 51
270.0
  0
ARC
  5
10AE
  8
0
 10
125.90017430561809
 20
2.653974092199999
 30
0.0
 40
0.156
 50
270.0
 51
335.0
  0
ARC
  5
10AF
  8
0
 10
137.67386630950989
 20
0.860854691762231
 30
0.0
 40
1.750000017837098
 50
106.1080985626421
 51
110.69144630493049
  0
ARC
  5
10B0
  8
0
 10
137.29709972891811
 20
2.653974092199999
 30
0.0
 40
0.156
 50
204.99999999999989
 51
270.0
  0
ARC
  5
10B1
  8
0
 10
138.09833380751809
 20
2.653974092199999
 30
0.0
 40
0.156
 50
270.0
 51
335.0
  0
LINE
  5
10C4
  8
0
 10
122.4565786887181
 20
12.6379740922
 30
0.0
 11
122.4955312090181
 21
12.192744747600001
 31
0.0
  0
LINE
  5
10C5
  8
0
 10
122.4565786887181
 20
12.6379740922
 30
0.0
 11
140.75657868871801
 21
12.6379740922
 31
0.0
  0
LINE
  5
10C6
  8
0
 10
140.65785448651809
 20
12.1379740922
 30
0.0
 11
122.5553028909181
 21
12.1379740922
 31
0.0
  0
LINE
  5
10C7
  8
0
 10
140.71762616841809
 20
12.192744747600001
 30
0.0
 11
140.75657868871801
 21
12.6379740922
 31
0.0
  0
ARC
  5
10C8
  8
0
 10
122.5557120742404
 20
12.19842063743809
 30
0.0
 40
0.060447930173123
 50
185.38784878821409
 51
269.61215120808322
  0
ARC
  5
10C9
  8
0
 10
140.65785448651809
 20
12.197974092200001
 30
0.0
 40
0.06
 50
270.0
 51
355.00000000000023
  0
ARC
  5
10D2
  8
0
 10
123.20270674267231
 20
11.94977999825084
 30
0.0
 40
0.1883065354955331
 50
33.44708501075494
 51
88.019887107944044
  0
ARC
  5
10D3
  8
0
 10
121.3407606747857
 20
10.71569707075739
 30
0.0
 40
2.4220932073458692
 50
2.5838894388056191
 51
33.529177812210328
  0
ARC
  5
10D4
  8
0
 10
124.975157344265
 20
3.681815811389245
 30
0.0
 40
0.8392634217094162
 50
183.4646850409186
 51
260.26480026317302
  0
ARC
  5
10D5
  8
0
 10
138.2265992788634
 20
3.4715746598168469
 30
0.0
 40
0.8396435893843051
 50
272.31403660113921
 51
357.00886809602258
  0
ARC
  5
10D6
  8
0
 10
141.8918254184573
 20
10.709524599191329
 30
0.0
 40
2.4417861685645921
 50
146.59921221516919
 51
177.2919749573669
  0
ARC
  5
10D7
  8
0
 10
140.0105567630147
 20
11.94940834463511
 30
0.0
 40
0.1886816498263842
 50
92.00835733403801
 51
146.44165756153359
  0
ATTDEF
  5
13A8
  8
DEFPOINTS
 10
131.60306434816471
 20
12.651544321497401
 30
0.0
 40
0.001
  1
K-28000
  3

  2
MODELNUMBER
 70
     0
1001
AcDbAttr
1070
     0
1070
     1
  0
ATTDEF
  5
13A9
  8
DEFPOINTS
 10
131.60306434816471
 20
12.649877654830741
 30
0.0
 40
0.001
  1
CAIRN
  3

  2
TRADENAME
 70
     0
1001
AcDbAttr
1070
     0
1070
     1
  0
ATTDEF
  5
13AA
  8
DEFPOINTS
 10
131.60306434816471
 20
12.64821098816407
 30
0.0
 40
0.001
  1
KITCHEN SINK
  3

  2
PRODUCT
 70
     0
1001
AcDbAttr
1070
     0
1070
     1
  0
ATTDEF
  5
13AB
  8
DEFPOINTS
 10
131.60306434816471
 20
12.64654432149741
 30
0.0
 40
0.001
  1
NEOROC
  3

  2
MATERIAL
 70
     0
1001
AcDbAttr
1070
     0
1070
     1
  0
ENDSEC
  0
EOF
