  0
SECTION
  2
HEADER
  9
$ACADVER
  1
AC1009
  9
$INSBASE
 10
96.663389529432351
 20
11.5015587412
 30
0.0
  9
$EXTMIN
 10
84.413389529432351
 20
1.3615587411999941
 30
0.0
  9
$EXTMAX
 10
108.91338952943229
 20
11.5015587412
 30
0.0
  9
$LIMMIN
 10
0.0
 20
0.0
  9
$LIMMAX
 10
11.692913385800001
 20
8.2677165353999982
  9
$ORTHOMODE
 70
     0
  9
$REGENMODE
 70
     1
  9
$FILLMODE
 70
     1
  9
$QTEXTMODE
 70
     0
  9
$MIRRTEXT
 70
     0
  9
$DRAGMODE
 70
     2
  9
$LTSCALE
 40
0.6431102362
  9
$OSMODE
 70
  3071
  9
$ATTMODE
 70
     1
  9
$TEXTSIZE
 40
0.2
  9
$TRACEWID
 40
0.05
  9
$TEXTSTYLE
  7
STANDARD
  9
$CLAYER
  8
0
  9
$CELTYPE
  6
BYLAYER
  9
$CECOLOR
 62
   256
  9
$DIMSCALE
 40
1.0
  9
$DIMASZ
 40
0.1875
  9
$DIMEXO
 40
0.0625
  9
$DIMDLI
 40
0.4443307087
  9
$DIMRND
 40
0.0
  9
$DIMDLE
 40
0.0
  9
$DIMEXE
 40
0.125
  9
$DIMTP
 40
0.01
  9
$DIMTM
 40
0.01
  9
$DIMTXT
 40
1.0
  9
$DIMCEN
 40
0.1052362205
  9
$DIMTSZ
 40
0.0
  9
$DIMTOL
 70
     1
  9
$DIMLIM
 70
     0
  9
$DIMTIH
 70
     1
  9
$DIMTOH
 70
     1
  9
$DIMSE1
 70
     0
  9
$DIMSE2
 70
     0
  9
$DIMTAD
 70
     0
  9
$DIMZIN
 70
     0
  9
$DIMBLK
  1

  9
$DIMASO
 70
     1
  9
$DIMSHO
 70
     1
  9
$DIMPOST
  1
\X
  9
$DIMAPOST
  1

  9
$DIMALT
 70
     1
  9
$DIMALTD
 70
     2
  9
$DIMALTF
 40
25.399999999999999
  9
$DIMLFAC
 40
1.0
  9
$DIMTOFL
 70
     0
  9
$DIMTVP
 40
0.0
  9
$DIMTIX
 70
     0
  9
$DIMSOXD
 70
     0
  9
$DIMSAH
 70
     0
  9
$DIMBLK1
  1

  9
$DIMBLK2
  1

  9
$DIMSTYLE
  2
STANDARD
  9
$DIMCLRD
 70
     0
  9
$DIMCLRE
 70
     0
  9
$DIMCLRT
 70
     0
  9
$DIMTFAC
 40
1.0
  9
$DIMGAP
 40
0.09
  9
$LUNITS
 70
     2
  9
$LUPREC
 70
     4
  9
$SKETCHINC
 40
0.1
  9
$FILLETRAD
 40
0.0
  9
$AUNITS
 70
     0
  9
$AUPREC
 70
     0
  9
$MENU
  1
.
  9
$ELEVATION
 40
0.0
  9
$PELEVATION
 40
0.0
  9
$THICKNESS
 40
0.0
  9
$LIMCHECK
 70
     0
  9
$BLIPMODE
 70
     0
  9
$CHAMFERA
 40
0.0
  9
$CHAMFERB
 40
0.0
  9
$SKPOLY
 70
     0
  9
$TDCREATE
 40
2458250.631632755
  9
$TDUPDATE
 40
2458250.7193428241
  9
$TDINDWG
 40
0.0855328356
  9
$TDUSRTIMER
 40
0.0855328356
  9
$USRTIMER
 70
     1
  9
$ANGBASE
 50
0.0
  9
$ANGDIR
 70
     0
  9
$PDMODE
 70
     0
  9
$PDSIZE
 40
0.3125
  9
$PLINEWID
 40
0.0
  9
$COORDS
 70
     1
  9
$SPLFRAME
 70
     0
  9
$SPLINETYPE
 70
     6
  9
$SPLINESEGS
 70
     8
  9
$ATTDIA
 70
     1
  9
$ATTREQ
 70
     1
  9
$HANDLING
 70
     1
  9
$HANDSEED
  5
135C
  9
$SURFTAB1
 70
     6
  9
$SURFTAB2
 70
     6
  9
$SURFTYPE
 70
     6
  9
$SURFU
 70
     6
  9
$SURFV
 70
     6
  9
$UCSNAME
  2

  9
$UCSORG
 10
0.0
 20
0.0
 30
0.0
  9
$UCSXDIR
 10
1.0
 20
0.0
 30
0.0
  9
$UCSYDIR
 10
0.0
 20
1.0
 30
0.0
  9
$PUCSNAME
  2

  9
$PUCSORG
 10
0.0
 20
0.0
 30
0.0
  9
$PUCSXDIR
 10
1.0
 20
0.0
 30
0.0
  9
$PUCSYDIR
 10
0.0
 20
1.0
 30
0.0
  9
$USERI1
 70
     0
  9
$USERI2
 70
     0
  9
$USERI3
 70
     0
  9
$USERI4
 70
     0
  9
$USERI5
 70
     0
  9
$USERR1
 40
0.0
  9
$USERR2
 40
0.0
  9
$USERR3
 40
0.0
  9
$USERR4
 40
0.0
  9
$USERR5
 40
0.0
  9
$WORLDVIEW
 70
     1
  9
$SHADEDGE
 70
     3
  9
$SHADEDIF
 70
    70
  9
$TILEMODE
 70
     1
  9
$MAXACTVP
 70
    64
  9
$PLIMCHECK
 70
     0
  9
$PEXTMIN
 10
1.0000000000000000E+020
 20
1.0000000000000000E+020
 30
1.0000000000000000E+020
  9
$PEXTMAX
 10
-1.0000000000000000E+020
 20
-1.0000000000000000E+020
 30
-1.0000000000000000E+020
  9
$PLIMMIN
 10
0.0
 20
0.0
  9
$PLIMMAX
 10
12.0
 20
9.0
  9
$UNITMODE
 70
     0
  9
$VISRETAIN
 70
     1
  9
$PLINEGEN
 70
     0
  9
$PSLTSCALE
 70
     1
  0
ENDSEC
  0
SECTION
  2
TABLES
  0
TABLE
  2
VPORT
 70
     1
  0
VPORT
  2
*ACTIVE
 70
     0
 10
0.0
 20
0.0
 11
1.0
 21
1.0
 12
0.0
 22
0.0
 13
0.0
 23
0.0
 14
1.0
 24
1.0
 15
0.0
 25
0.0
 16
-0.0000000000000142
 26
0.0
 36
74.143602765840072
 17
96.663389529432351
 27
6.4315587411999964
 37
0.0
 40
26.51793166766765
 41
2.0834248079034019
 42
50.0
 43
0.0
 44
0.0
 50
0.0
 51
0.0
 71
     0
 72
   100
 73
     1
 74
     1
 75
     0
 76
     0
 77
     0
 78
     0
  0
ENDTAB
  0
TABLE
  2
LTYPE
 70
     2
  0
LTYPE
  2
CONTINUOUS
 70
     0
  3
Solid line
 72
    65
 73
     0
 40
0.0
  0
LTYPE
  2
PHANTOM2
 70
     0
  3
___ _ _ ___ _ _ ___ _ _ ___ _ _
 72
    65
 73
     6
 40
1.25
 49
0.625
 49
-0.125
 49
0.125
 49
-0.125
 49
0.125
 49
-0.125
  0
ENDTAB
  0
TABLE
  2
LAYER
 70
     2
  0
LAYER
  2
0
 70
     0
 62
   255
  6
CONTINUOUS
  0
LAYER
  2
DEFPOINTS
 70
     0
 62
     7
  6
CONTINUOUS
  0
ENDTAB
  0
TABLE
  2
STYLE
 70
     1
  0
STYLE
  2
STANDARD
 70
     0
 40
0.0
 41
0.8
 50
0.0
 71
     0
 42
0.2
  3
txt
  4

  0
ENDTAB
  0
TABLE
  2
VIEW
 70
     0
  0
ENDTAB
  0
TABLE
  2
UCS
 70
     0
  0
ENDTAB
  0
TABLE
  2
APPID
 70
     9
  0
APPID
  2
ACAD
 70
     0
  0
APPID
  2
ACAD_MLEADERVER
 70
     0
  0
APPID
  2
ACAD_EXEMPT_FROM_CAD_STANDARDS
 70
     0
  0
APPID
  2
ACAD_DSTYLE_DIMJAG
 70
     0
  0
APPID
  2
ACAD_DSTYLE_DIMTALN
 70
     0
  0
APPID
  2
ACAD_NAV_VCDISPLAY
 70
     0
  0
APPID
  2
ACAECLAYERSTANDARD
 70
     0
  0
APPID
  2
ACCMTRANSPARENCY
 70
     0
  0
APPID
  2
AcDbAttr
 70
     0
  0
ENDTAB
  0
TABLE
  2
DIMSTYLE
 70
     1
  0
DIMSTYLE
  2
STANDARD
 70
     0
  3

  4

  5

  6

  7

 40
1.0
 41
0.1875
 42
0.0625
 43
0.38
 44
0.125
 45
0.0
 46
0.0
 47
0.01
 48
0.01
140
0.15625
141
0.09
142
0.0
143
25.399999999999999
144
1.0
145
0.0
146
1.0
147
0.09
 71
     1
 72
     0
 73
     1
 74
     1
 75
     0
 76
     0
 77
     0
 78
     4
170
     0
171
     2
172
     0
173
     0
174
     0
175
     0
176
     0
177
     0
178
     0
  0
ENDTAB
  0
ENDSEC
  0
SECTION
  2
BLOCKS
  0
BLOCK
  8
0
  2
$MODEL_SPACE
 70
     0
 10
0.0
 20
0.0
 30
0.0
  3
$MODEL_SPACE
  1

  0
ENDBLK
  5
21
  8
0
  0
BLOCK
 67
     1
  8
0
  2
$PAPER_SPACE
 70
     0
 10
0.0
 20
0.0
 30
0.0
  3
$PAPER_SPACE
  1

  0
ENDBLK
  5
1D
 67
     1
  8
0
  0
ENDSEC
  0
SECTION
  2
ENTITIES
  0
LINE
  5
1063
  8
0
 10
88.032270739732354
 20
1.5239749099999991
 30
0.0
 11
87.998796662632344
 21
1.4521895198999999
 31
0.0
  0
LINE
  5
1064
  8
0
 10
93.657176035579894
 20
1.473373305083425
 30
0.0
 11
88.199853666356674
 21
1.663947201608071
 31
0.0
  0
ARC
  5
1065
  8
0
 10
87.856534836432346
 20
1.5185272988999989
 30
0.0
 40
0.1569685577
 50
270.0
 51
334.99999999869999
  0
LINE
  5
1082
  8
0
 10
85.717202145732358
 20
9.6884747520999941
 30
0.0
 11
86.090934522648979
 21
2.5572291124330251
 31
0.0
  0
LINE
  5
1083
  8
0
 10
86.808180216364306
 20
1.6723271972874749
 30
0.0
 11
86.910832101232359
 21
1.4521895198999939
 31
0.0
  0
LINE
  5
1084
  8
0
 10
87.053093926832361
 20
1.3615587411999941
 30
0.0
 11
87.856534836432346
 21
1.3615587411999941
 31
0.0
  0
LINE
  5
1085
  8
0
 10
94.214438495080785
 20
1.361558741199999
 30
0.0
 11
99.112340568520224
 21
1.361558741199999
 31
0.0
  0
LINE
  5
1086
  8
0
 10
93.657176035550492
 20
1.4733733050999991
 30
0.0
 11
99.669603028050474
 21
1.4733733050999991
 31
0.0
  0
ARC
  5
1087
  8
0
 10
86.930074065524394
 20
2.601296473292892
 30
0.0
 40
0.8402958435636168
 50
183.0061228766948
 51
254.75175488436719
  0
ARC
  5
1088
  8
0
 10
87.053093927432357
 20
1.5185272988999949
 30
0.0
 40
0.1569685577
 50
205.00000000130001
 51
270.0
  0
ARC
  5
1089
  8
0
 10
93.59610191622518
 20
-0.2755606432709374
 30
0.0
 40
1.7500000010746659
 50
69.308553668603651
 51
87.999999997122842
  0
ARC
  5
108A
  8
0
 10
99.730677147375786
 20
-0.275560643271004
 30
0.0
 40
1.7500000010747241
 50
92.000000002876348
 51
110.6914463313954
  0
LINE
  5
108B
  8
0
 10
84.413389529432351
 20
11.5015587412
 30
0.0
 11
84.452342049732351
 21
11.05632939659999
 31
0.0
  0
LINE
  5
108C
  8
0
 10
84.413389529432351
 20
11.5015587412
 30
0.0
 11
108.91338952943229
 21
11.5015587412
 31
0.0
  0
LINE
  5
108D
  8
0
 10
108.81466532723231
 20
11.0015587412
 30
0.0
 11
84.512113731632354
 21
11.0015587412
 31
0.0
  0
LINE
  5
108E
  8
0
 10
108.87443700913229
 20
11.05632939659999
 30
0.0
 11
108.91338952943229
 21
11.50155874119999
 31
0.0
  0
ARC
  5
108F
  8
0
 10
84.512522914954644
 20
11.06200528643808
 30
0.0
 40
0.060447930173123
 50
185.387848788214
 51
269.61215120808322
  0
ARC
  5
1090
  8
0
 10
108.81466532723231
 20
11.06155874119999
 30
0.0
 40
0.06
 50
270.0
 51
355.00000000000011
  0
ARC
  5
1091
  8
0
 10
85.160042807806533
 20
10.81363486409405
 30
0.0
 40
0.1879238836339652
 50
33.501989560875167
 51
90.015102089475391
  0
ARC
  5
1092
  8
0
 10
83.294771655815154
 20
9.5787726293212216
 30
0.0
 40
2.424913201379101
 50
2.5929235771420629
 51
33.505398965585712
  0
ARC
  5
1093
  8
0
 10
86.532172859904165
 20
1.5416725298634879
 30
0.0
 40
0.3053697806590963
 50
25.33165102451289
 51
54.598380496361848
  0
ARC
  5
1094
  8
0
 10
88.291513739008352
 20
1.383900324928008
 30
0.0
 40
0.2946656105769849
 50
108.1234065642286
 51
151.61669056060731
  0
LINE
  5
1095
  8
0
 10
105.29450831913231
 20
1.5239749099999991
 30
0.0
 11
105.3279823962323
 21
1.4521895198999999
 31
0.0
  0
LINE
  5
1096
  8
0
 10
99.669603028050474
 20
1.4733733050999991
 30
0.0
 11
105.126925392508
 21
1.663947201608071
 31
0.0
  0
ARC
  5
1097
  8
0
 10
105.4702442224323
 20
1.5185272988999989
 30
0.0
 40
0.1569685577
 50
205.00000000130001
 51
270.0
  0
LINE
  5
1098
  8
0
 10
107.6095769131323
 20
9.6884747520999941
 30
0.0
 11
107.23584453621569
 21
2.5572291124330251
 31
0.0
  0
LINE
  5
1099
  8
0
 10
106.5185988425004
 20
1.6723271972874749
 30
0.0
 11
106.4159469576323
 21
1.4521895198999939
 31
0.0
  0
LINE
  5
109A
  8
0
 10
106.2736851320323
 20
1.3615587411999941
 30
0.0
 11
105.4702442224323
 21
1.3615587411999941
 31
0.0
  0
ARC
  5
109B
  8
0
 10
106.39670499334029
 20
2.601296473292892
 30
0.0
 40
0.8402958435636168
 50
285.24824511563281
 51
356.99387712330508
  0
ARC
  5
109C
  8
0
 10
106.2736851314323
 20
1.5185272988999949
 30
0.0
 40
0.1569685577
 50
270.0
 51
334.99999999869999
  0
ARC
  5
109D
  8
0
 10
108.1667362510581
 20
10.81363486409405
 30
0.0
 40
0.1879238836339652
 50
89.984897910524609
 51
146.49801043912481
  0
ARC
  5
109E
  8
0
 10
110.03200740304951
 20
9.5787726293212216
 30
0.0
 40
2.424913201379101
 50
146.49460103441419
 51
177.4070764228579
  0
ARC
  5
109F
  8
0
 10
106.79460619896049
 20
1.5416725298634879
 30
0.0
 40
0.3053697806590963
 50
125.4016195036381
 51
154.66834897548711
  0
ARC
  5
10A0
  8
0
 10
105.03526531985629
 20
1.383900324928008
 30
0.0
 40
0.2946656105769849
 50
28.383309439392701
 51
71.876593435771412
  0
ATTDEF
  5
124E
  8
DEFPOINTS
 10
96.65783480476513
 20
11.4998114327505
 30
0.0
 40
0.001
  1
K-28001
  3

  2
MODELNUMBER
 70
     0
1001
AcDbAttr
1070
     0
1070
     1
  0
ATTDEF
  5
124F
  8
DEFPOINTS
 10
96.65783480476513
 20
11.49814476608384
 30
0.0
 40
0.001
  1
CAIRN
  3

  2
TRADENAME
 70
     0
1001
AcDbAttr
1070
     0
1070
     1
  0
ATTDEF
  5
1250
  8
DEFPOINTS
 10
96.65783480476513
 20
11.496478099417169
 30
0.0
 40
0.001
  1
KITCHEN SINK
  3

  2
PRODUCT
 70
     0
1001
AcDbAttr
1070
     0
1070
     1
  0
ATTDEF
  5
1251
  8
DEFPOINTS
 10
96.65783480476513
 20
11.49481143275051
 30
0.0
 40
0.001
  1
NEOROC
  3

  2
MATERIAL
 70
     0
1001
AcDbAttr
1070
     0
1070
     1
  0
ENDSEC
  0
EOF
